  0
SECTION
  2
HEADER
  9
$ACADVER
  1
AC1014
  9
$ACADMAINTVER
 70
     9
  9
$DWGCODEPAGE
  3
ANSI_1252
  9
$INSBASE
 10
0.0
 20
0.0
 30
0.0
  9
$EXTMIN
 10
1.408416782282778
 20
0.5635376309085843
 30
-0.0015258207003583
  9
$EXTMAX
 10
13.67144778612005
 20
12.82763674998148
 30
0.0000000349246037
  9
$LIMMIN
 10
0.0
 20
0.0
  9
$LIMMAX
 10
14.0
 20
14.0
  9
$ORTHOMODE
 70
     0
  9
$REGENMODE
 70
     1
  9
$FILLMODE
 70
     1
  9
$QTEXTMODE
 70
     0
  9
$MIRRTEXT
 70
     1
  9
$DRAGMODE
 70
     2
  9
$LTSCALE
 40
1.0
  9
$OSMODE
 70
    37
  9
$ATTMODE
 70
     1
  9
$TEXTSIZE
 40
0.188
  9
$TRACEWID
 40
0.05
  9
$TEXTSTYLE
  7
STANDARD
  9
$CLAYER
  8
DAMAN
  9
$CELTYPE
  6
BYLAYER
  9
$CECOLOR
 62
   256
  9
$CELTSCALE
 40
1.0
  9
$DELOBJ
 70
     1
  9
$DISPSILH
 70
     0
  9
$DIMSCALE
 40
1.0
  9
$DIMASZ
 40
0.18
  9
$DIMEXO
 40
0.0625
  9
$DIMDLI
 40
0.38
  9
$DIMRND
 40
0.0
  9
$DIMDLE
 40
0.0
  9
$DIMEXE
 40
0.18
  9
$DIMTP
 40
0.0
  9
$DIMTM
 40
0.0
  9
$DIMTXT
 40
0.18
  9
$DIMCEN
 40
0.09
  9
$DIMTSZ
 40
0.0
  9
$DIMTOL
 70
     0
  9
$DIMLIM
 70
     0
  9
$DIMTIH
 70
     1
  9
$DIMTOH
 70
     1
  9
$DIMSE1
 70
     0
  9
$DIMSE2
 70
     0
  9
$DIMTAD
 70
     0
  9
$DIMZIN
 70
     0
  9
$DIMBLK
  1

  9
$DIMASO
 70
     1
  9
$DIMSHO
 70
     1
  9
$DIMPOST
  1

  9
$DIMAPOST
  1

  9
$DIMALT
 70
     0
  9
$DIMALTD
 70
     2
  9
$DIMALTF
 40
25.4
  9
$DIMLFAC
 40
1.0
  9
$DIMTOFL
 70
     0
  9
$DIMTVP
 40
0.0
  9
$DIMTIX
 70
     0
  9
$DIMSOXD
 70
     0
  9
$DIMSAH
 70
     0
  9
$DIMBLK1
  1

  9
$DIMBLK2
  1

  9
$DIMSTYLE
  2
STANDARD
  9
$DIMCLRD
 70
     0
  9
$DIMCLRE
 70
     0
  9
$DIMCLRT
 70
     0
  9
$DIMTFAC
 40
1.0
  9
$DIMGAP
 40
0.09
  9
$DIMJUST
 70
     0
  9
$DIMSD1
 70
     0
  9
$DIMSD2
 70
     0
  9
$DIMTOLJ
 70
     1
  9
$DIMTZIN
 70
     0
  9
$DIMALTZ
 70
     0
  9
$DIMALTTZ
 70
     0
  9
$DIMFIT
 70
     3
  9
$DIMUPT
 70
     0
  9
$DIMUNIT
 70
     2
  9
$DIMDEC
 70
     4
  9
$DIMTDEC
 70
     4
  9
$DIMALTU
 70
     2
  9
$DIMALTTD
 70
     2
  9
$DIMTXSTY
  7
STANDARD
  9
$DIMAUNIT
 70
     0
  9
$LUNITS
 70
     2
  9
$LUPREC
 70
     4
  9
$SKETCHINC
 40
0.1
  9
$FILLETRAD
 40
0.0
  9
$AUNITS
 70
     0
  9
$AUPREC
 70
     0
  9
$MENU
  1
tom
  9
$ELEVATION
 40
0.0
  9
$PELEVATION
 40
0.0
  9
$THICKNESS
 40
0.0
  9
$LIMCHECK
 70
     0
  9
$BLIPMODE
 70
     0
  9
$CHAMFERA
 40
0.0
  9
$CHAMFERB
 40
0.0
  9
$CHAMFERC
 40
0.0
  9
$CHAMFERD
 40
0.0
  9
$SKPOLY
 70
     0
  9
$TDCREATE
 40
2450462.614279433
  9
$TDUPDATE
 40
2453437.472806816
  9
$TDINDWG
 40
0.0822793171
  9
$TDUSRTIMER
 40
0.0822791319
  9
$USRTIMER
 70
     1
  9
$ANGBASE
 50
0.0
  9
$ANGDIR
 70
     0
  9
$PDMODE
 70
     0
  9
$PDSIZE
 40
0.0
  9
$PLINEWID
 40
0.0
  9
$COORDS
 70
     1
  9
$SPLFRAME
 70
     0
  9
$SPLINETYPE
 70
     6
  9
$SPLINESEGS
 70
     8
  9
$ATTDIA
 70
     0
  9
$ATTREQ
 70
     1
  9
$HANDLING
 70
-16383
  9
$HANDSEED
  5
459
  9
$SURFTAB1
 70
     6
  9
$SURFTAB2
 70
     6
  9
$SURFTYPE
 70
     6
  9
$SURFU
 70
     6
  9
$SURFV
 70
     6
  9
$UCSNAME
  2

  9
$UCSORG
 10
0.0
 20
0.0
 30
0.0
  9
$UCSXDIR
 10
1.0
 20
0.0
 30
0.0
  9
$UCSYDIR
 10
0.0
 20
1.0
 30
0.0
  9
$PUCSNAME
  2

  9
$PUCSORG
 10
0.0
 20
0.0
 30
0.0
  9
$PUCSXDIR
 10
1.0
 20
0.0
 30
0.0
  9
$PUCSYDIR
 10
0.0
 20
1.0
 30
0.0
  9
$USERI1
 70
     0
  9
$USERI2
 70
     0
  9
$USERI3
 70
     0
  9
$USERI4
 70
     0
  9
$USERI5
 70
     0
  9
$USERR1
 40
0.0
  9
$USERR2
 40
0.0
  9
$USERR3
 40
0.0
  9
$USERR4
 40
0.0
  9
$USERR5
 40
0.0
  9
$WORLDVIEW
 70
     1
  9
$SHADEDGE
 70
     3
  9
$SHADEDIF
 70
    70
  9
$TILEMODE
 70
     1
  9
$MAXACTVP
 70
    16
  9
$PINSBASE
 10
0.0
 20
0.0
 30
0.0
  9
$PLIMCHECK
 70
     0
  9
$PEXTMIN
 10
1.000000000000000E+20
 20
1.000000000000000E+20
 30
1.000000000000000E+20
  9
$PEXTMAX
 10
-1.000000000000000E+20
 20
-1.000000000000000E+20
 30
-1.000000000000000E+20
  9
$PLIMMIN
 10
0.0
 20
0.0
  9
$PLIMMAX
 10
12.0
 20
9.0
  9
$UNITMODE
 70
     0
  9
$VISRETAIN
 70
     0
  9
$PLINEGEN
 70
     0
  9
$PSLTSCALE
 70
     1
  9
$TREEDEPTH
 70
  3020
  9
$PICKSTYLE
 70
     1
  9
$CMLSTYLE
  2
STANDARD
  9
$CMLJUST
 70
     0
  9
$CMLSCALE
 40
1.0
  9
$PROXYGRAPHICS
 70
     1
  9
$MEASUREMENT
 70
     0
  0
ENDSEC
  0
SECTION
  2
CLASSES
  0
CLASS
  1
ACDBDICTIONARYWDFLT
  2
AcDbDictionaryWithDefault
  3
AutoCAD 2000
 90
        0
280
     0
281
     0
  0
CLASS
  1
ACDBPLACEHOLDER
  2
AcDbPlaceHolder
  3
AutoCAD 2000
 90
        0
280
     0
281
     0
  0
CLASS
  1
LAYOUT
  2
AcDbLayout
  3
AutoCAD 2000
 90
        0
280
     0
281
     0
  0
CLASS
  1
LONG_TRANSACTION
  2
AcDbLongTransaction
  3
AutoCAD 2000
 90
        0
280
     0
281
     0
  0
CLASS
  1
LWPOLYLINE
  2
AcDbPolyline
  3
AutoCAD 2000
 90
        0
280
     0
281
     1
  0
CLASS
  1
HATCH
  2
AcDbHatch
  3
AutoCAD 2000
 90
        0
280
     0
281
     1
  0
CLASS
  1
XRECORD
  2
AcDbXrecord
  3
AutoCAD 2000
 90
        0
280
     0
281
     0
  0
ENDSEC
  0
SECTION
  2
TABLES
  0
TABLE
  2
VPORT
  5
8
330
0
100
AcDbSymbolTable
 70
     2
  0
VPORT
  5
434
330
8
100
AcDbSymbolTableRecord
100
AcDbViewportTableRecord
  2
*ACTIVE
 70
     0
 10
0.0
 20
0.0
 11
1.0
 21
1.0
 12
7.539932313331288
 22
6.771461607675498
 13
0.0
 23
0.0
 14
0.03125
 24
0.03125
 15
0.0
 25
0.0
 16
0.0
 26
0.0
 36
1.0
 17
0.0
 27
0.0
 37
0.0
 40
13.61903978383083
 41
1.647569444444444
 42
50.0
 43
0.0
 44
0.0
 50
0.0
 51
0.0
 71
     0
 72
   100
 73
     1
 74
     1
 75
     0
 76
     0
 77
     0
 78
     0
  0
ENDTAB
  0
TABLE
  2
LTYPE
  5
5
330
0
100
AcDbSymbolTable
 70
     6
  0
LTYPE
  5
13
330
5
100
AcDbSymbolTableRecord
100
AcDbLinetypeTableRecord
  2
BYBLOCK
 70
     0
  3

 72
    65
 73
     0
 40
0.0
  0
LTYPE
  5
14
330
5
100
AcDbSymbolTableRecord
100
AcDbLinetypeTableRecord
  2
BYLAYER
 70
     0
  3

 72
    65
 73
     0
 40
0.0
  0
LTYPE
  5
15
330
5
100
AcDbSymbolTableRecord
100
AcDbLinetypeTableRecord
  2
CONTINUOUS
 70
     0
  3
Solid line
 72
    65
 73
     0
 40
0.0
  0
LTYPE
  5
24
330
5
100
AcDbSymbolTableRecord
100
AcDbLinetypeTableRecord
  2
HIDDEN
 70
     0
  3
_ _ _ _ _ _ _ _ _ _ _ _ _ _ _ _ _ _ _ _ _ _ _
 72
    65
 73
     2
 40
0.375
 49
0.25
 74
     0
 49
-0.125
 74
     0
  0
LTYPE
  5
25
330
5
100
AcDbSymbolTableRecord
100
AcDbLinetypeTableRecord
  2
CENTER
 70
     0
  3
____ _ ____ _ ____ _ ____ _ ____ _ ____ _ ____
 72
    65
 73
     4
 40
2.0
 49
1.25
 74
     0
 49
-0.25
 74
     0
 49
0.25
 74
     0
 49
-0.25
 74
     0
  0
LTYPE
  5
26
330
5
100
AcDbSymbolTableRecord
100
AcDbLinetypeTableRecord
  2
PHANTOM
 70
     0
  3
_____ _ _ _____ _ _ _____ _ _ _____ _ _ ____
 72
    65
 73
     6
 40
2.5
 49
1.25
 74
     0
 49
-0.25
 74
     0
 49
0.25
 74
     0
 49
-0.25
 74
     0
 49
0.25
 74
     0
 49
-0.25
 74
     0
  0
LTYPE
  5
27
330
5
100
AcDbSymbolTableRecord
100
AcDbLinetypeTableRecord
  2
DOT
 70
     0
  3
. . . . . . . . . . . . . . . . . . . . . . . .
 72
    65
 73
     2
 40
0.25
 49
0.0
 74
     0
 49
-0.25
 74
     0
  0
LTYPE
  5
28
330
5
100
AcDbSymbolTableRecord
100
AcDbLinetypeTableRecord
  2
DASHED
 70
     0
  3
__ __ __ __ __ __ __ __ __ __ __ __ __ __ __ __
 72
    65
 73
     2
 40
0.75
 49
0.5
 74
     0
 49
-0.25
 74
     0
  0
ENDTAB
  0
TABLE
  2
LAYER
  5
2
330
0
100
AcDbSymbolTable
 70
    18
  0
LAYER
  5
10
330
2
100
AcDbSymbolTableRecord
100
AcDbLayerTableRecord
  2
0
 70
     0
 62
     7
  6
CONTINUOUS
  0
LAYER
  5
22
330
2
100
AcDbSymbolTableRecord
100
AcDbLayerTableRecord
  2
DAMAN
 70
     0
 62
     5
  6
CONTINUOUS
  0
LAYER
  5
29
330
2
100
AcDbSymbolTableRecord
100
AcDbLayerTableRecord
  2
BORDER
 70
     0
 62
     7
  6
CONTINUOUS
  0
LAYER
  5
2A
330
2
100
AcDbSymbolTableRecord
100
AcDbLayerTableRecord
  2
SOLID
 70
     0
 62
     4
  6
CONTINUOUS
  0
LAYER
  5
2B
330
2
100
AcDbSymbolTableRecord
100
AcDbLayerTableRecord
  2
CSOLID
 70
     0
 62
     3
  6
CONTINUOUS
  0
LAYER
  5
2C
330
2
100
AcDbSymbolTableRecord
100
AcDbLayerTableRecord
  2
CDIM
 70
     0
 62
     2
  6
CONTINUOUS
  0
LAYER
  5
2D
330
2
100
AcDbSymbolTableRecord
100
AcDbLayerTableRecord
  2
DIM
 70
     0
 62
     5
  6
CONTINUOUS
  0
LAYER
  5
2E
330
2
100
AcDbSymbolTableRecord
100
AcDbLayerTableRecord
  2
HEX
 70
     0
 62
     5
  6
CONTINUOUS
  0
LAYER
  5
2F
330
2
100
AcDbSymbolTableRecord
100
AcDbLayerTableRecord
  2
100
 70
     0
 62
   100
  6
CONTINUOUS
  0
LAYER
  5
30
330
2
100
AcDbSymbolTableRecord
100
AcDbLayerTableRecord
  2
CHIDDEN
 70
     0
 62
     3
  6
HIDDEN
  0
LAYER
  5
31
330
2
100
AcDbSymbolTableRecord
100
AcDbLayerTableRecord
  2
CCENTER
 70
     0
 62
     4
  6
CENTER
  0
LAYER
  5
32
330
2
100
AcDbSymbolTableRecord
100
AcDbLayerTableRecord
  2
PHANTOM
 70
     0
 62
     1
  6
PHANTOM
  0
LAYER
  5
33
330
2
100
AcDbSymbolTableRecord
100
AcDbLayerTableRecord
  2
ISO
 70
     1
 62
     5
  6
CONTINUOUS
  0
LAYER
  5
34
330
2
100
AcDbSymbolTableRecord
100
AcDbLayerTableRecord
  2
SAE
 70
     0
 62
     5
  6
CONTINUOUS
  0
LAYER
  5
35
330
2
100
AcDbSymbolTableRecord
100
AcDbLayerTableRecord
  2
S02
 70
     1
 62
     5
  6
CONTINUOUS
  0
LAYER
  5
36
330
2
100
AcDbSymbolTableRecord
100
AcDbLayerTableRecord
  2
S03
 70
     1
 62
     5
  6
CONTINUOUS
  0
LAYER
  5
37
330
2
100
AcDbSymbolTableRecord
100
AcDbLayerTableRecord
  2
S71
 70
     1
 62
     5
  6
CONTINUOUS
  0
LAYER
  5
38
330
2
100
AcDbSymbolTableRecord
100
AcDbLayerTableRecord
  2
S72
 70
     0
 62
     5
  6
CONTINUOUS
  0
ENDTAB
  0
TABLE
  2
STYLE
  5
3
330
0
100
AcDbSymbolTable
 70
     2
  0
STYLE
  5
11
330
3
100
AcDbSymbolTableRecord
100
AcDbTextStyleTableRecord
  2
STANDARD
 70
     0
 40
0.0
 41
1.0
 50
0.0
 71
     0
 42
0.188
  3
txt
  4

  0
STYLE
  5
39
330
3
100
AcDbSymbolTableRecord
100
AcDbTextStyleTableRecord
  2
STR
 70
     0
 40
0.0
 41
1.0
 50
0.0
 71
     0
 42
0.25
  3
SIMPLEX
  4

  0
ENDTAB
  0
TABLE
  2
VIEW
  5
6
330
0
100
AcDbSymbolTable
 70
     0
  0
ENDTAB
  0
TABLE
  2
UCS
  5
7
330
0
100
AcDbSymbolTable
 70
     0
  0
ENDTAB
  0
TABLE
  2
APPID
  5
9
330
0
100
AcDbSymbolTable
 70
     1
  0
APPID
  5
12
330
9
100
AcDbSymbolTableRecord
100
AcDbRegAppTableRecord
  2
ACAD
 70
     0
  0
ENDTAB
  0
TABLE
  2
DIMSTYLE
  5
A
330
0
100
AcDbSymbolTable
 70
     1
  0
DIMSTYLE
105
3EF
330
A
100
AcDbSymbolTableRecord
100
AcDbDimStyleTableRecord
  2
STANDARD
 70
     0
  3

  4

  5

  6

  7

 40
1.0
 41
0.18
 42
0.0625
 43
0.38
 44
0.18
 45
0.0
 46
0.0
 47
0.0
 48
0.0
140
0.18
141
0.09
142
0.0
143
25.4
144
1.0
145
0.0
146
1.0
147
0.09
 71
     0
 72
     0
 73
     1
 74
     1
 75
     0
 76
     0
 77
     0
 78
     0
170
     0
171
     2
172
     0
173
     0
174
     0
175
     0
176
     0
177
     0
178
     0
270
     2
271
     4
272
     4
273
     2
274
     2
340
11
275
     0
280
     0
281
     0
282
     0
283
     1
284
     0
285
     0
286
     0
287
     3
288
     0
  0
ENDTAB
  0
TABLE
  2
BLOCK_RECORD
  5
1
330
0
100
AcDbSymbolTable
 70
    45
  0
BLOCK_RECORD
  5
1E
102
{ACAD_XDICTIONARY
360
457
102
}
330
1
100
AcDbSymbolTableRecord
100
AcDbBlockTableRecord
  2
*MODEL_SPACE
  0
BLOCK_RECORD
  5
1A
102
{ACAD_XDICTIONARY
360
455
102
}
330
1
100
AcDbSymbolTableRecord
100
AcDbBlockTableRecord
  2
*PAPER_SPACE
  0
BLOCK_RECORD
  5
3C
330
1
100
AcDbSymbolTableRecord
100
AcDbBlockTableRecord
  2
D08SPRV
  0
BLOCK_RECORD
  5
3E
330
1
100
AcDbSymbolTableRecord
100
AcDbBlockTableRecord
  2
131SAET
  0
BLOCK_RECORD
  5
41
330
1
100
AcDbSymbolTableRecord
100
AcDbBlockTableRecord
  2
056SAET
  0
BLOCK_RECORD
  5
46
330
1
100
AcDbSymbolTableRecord
100
AcDbBlockTableRecord
  2
100CROSS
  0
BLOCK_RECORD
  5
156
330
1
100
AcDbSymbolTableRecord
100
AcDbBlockTableRecord
  2
050CROSS
  0
BLOCK_RECORD
  5
167
330
1
100
AcDbSymbolTableRecord
100
AcDbBlockTableRecord
  2
3
  0
BLOCK_RECORD
  5
16E
330
1
100
AcDbSymbolTableRecord
100
AcDbBlockTableRecord
  2
16SAET
  0
BLOCK_RECORD
  5
176
330
1
100
AcDbSymbolTableRecord
100
AcDbBlockTableRecord
  2
06SAET
  0
BLOCK_RECORD
  5
17D
330
1
100
AcDbSymbolTableRecord
100
AcDbBlockTableRecord
  2
025NPTFT
  0
BLOCK_RECORD
  5
17F
330
1
100
AcDbSymbolTableRecord
100
AcDbBlockTableRecord
  2
250NPTFT
  0
BLOCK_RECORD
  5
182
330
1
100
AcDbSymbolTableRecord
100
AcDbBlockTableRecord
  2
T3AT
  0
BLOCK_RECORD
  5
195
330
1
100
AcDbSymbolTableRecord
100
AcDbBlockTableRecord
  2
125NPTFT
  0
BLOCK_RECORD
  5
19C
330
1
100
AcDbSymbolTableRecord
100
AcDbBlockTableRecord
  2
C162T
  0
BLOCK_RECORD
  5
1A6
330
1
100
AcDbSymbolTableRecord
100
AcDbBlockTableRecord
  2
20SAET
  0
BLOCK_RECORD
  5
1AD
330
1
100
AcDbSymbolTableRecord
100
AcDbBlockTableRecord
  2
162SAET
  0
BLOCK_RECORD
  5
1B5
330
1
100
AcDbSymbolTableRecord
100
AcDbBlockTableRecord
  2
M42T
  0
BLOCK_RECORD
  5
1BF
330
1
100
AcDbSymbolTableRecord
100
AcDbBlockTableRecord
  2
M14T
  0
BLOCK_RECORD
  5
1C8
330
1
100
AcDbSymbolTableRecord
100
AcDbBlockTableRecord
  2
T16AT
  0
BLOCK_RECORD
  5
1D2
330
1
100
AcDbSymbolTableRecord
100
AcDbBlockTableRecord
  2
S02
  0
BLOCK_RECORD
  5
1EB
330
1
100
AcDbSymbolTableRecord
100
AcDbBlockTableRecord
  2
038THDT
  0
BLOCK_RECORD
  5
1F4
330
1
100
AcDbSymbolTableRecord
100
AcDbBlockTableRecord
  2
038TOP
  0
BLOCK_RECORD
  5
1FA
330
1
100
AcDbSymbolTableRecord
100
AcDbBlockTableRecord
  2
08SAET
  0
BLOCK_RECORD
  5
202
330
1
100
AcDbSymbolTableRecord
100
AcDbBlockTableRecord
  2
M18T
  0
BLOCK_RECORD
  5
20B
330
1
100
AcDbSymbolTableRecord
100
AcDbBlockTableRecord
  2
S03
  0
BLOCK_RECORD
  5
224
330
1
100
AcDbSymbolTableRecord
100
AcDbBlockTableRecord
  2
S71
  0
BLOCK_RECORD
  5
23F
330
1
100
AcDbSymbolTableRecord
100
AcDbBlockTableRecord
  2
S72
  0
BLOCK_RECORD
  5
258
330
1
100
AcDbSymbolTableRecord
100
AcDbBlockTableRecord
  2
S04
  0
BLOCK_RECORD
  5
27C
330
1
100
AcDbSymbolTableRecord
100
AcDbBlockTableRecord
  2
D05
  0
BLOCK_RECORD
  5
293
330
1
100
AcDbSymbolTableRecord
100
AcDbBlockTableRecord
  2
04SAET
  0
BLOCK_RECORD
  5
29B
330
1
100
AcDbSymbolTableRecord
100
AcDbBlockTableRecord
  2
025BSPPT
  0
BLOCK_RECORD
  5
2A2
330
1
100
AcDbSymbolTableRecord
100
AcDbBlockTableRecord
  2
0375BSPPT
  0
BLOCK_RECORD
  5
2AA
330
1
100
AcDbSymbolTableRecord
100
AcDbBlockTableRecord
  2
M10T
  0
BLOCK_RECORD
  5
2B3
330
1
100
AcDbSymbolTableRecord
100
AcDbBlockTableRecord
  2
12SAET
  0
BLOCK_RECORD
  5
2BB
330
1
100
AcDbSymbolTableRecord
100
AcDbBlockTableRecord
  2
M27T
  0
BLOCK_RECORD
  5
2C4
330
1
100
AcDbSymbolTableRecord
100
AcDbBlockTableRecord
  2
106SAET
  0
BLOCK_RECORD
  5
2CD
330
1
100
AcDbSymbolTableRecord
100
AcDbBlockTableRecord
  2
S73
  0
BLOCK_RECORD
  5
2E6
330
1
100
AcDbSymbolTableRecord
100
AcDbBlockTableRecord
  2
M33T
  0
BLOCK_RECORD
  5
2EF
330
1
100
AcDbSymbolTableRecord
100
AcDbBlockTableRecord
  2
S74
  0
BLOCK_RECORD
  5
313
330
1
100
AcDbSymbolTableRecord
100
AcDbBlockTableRecord
  2
S06
  0
BLOCK_RECORD
  5
335
330
1
100
AcDbSymbolTableRecord
100
AcDbBlockTableRecord
  2
D02
  0
BLOCK_RECORD
  5
34E
330
1
100
AcDbSymbolTableRecord
100
AcDbBlockTableRecord
  2
D03
  0
BLOCK_RECORD
  5
369
330
1
100
AcDbSymbolTableRecord
100
AcDbBlockTableRecord
  2
D03SF
  0
BLOCK_RECORD
  5
36B
330
1
100
AcDbSymbolTableRecord
100
AcDbBlockTableRecord
  2
D01I
  0
BLOCK_RECORD
  5
386
330
1
100
AcDbSymbolTableRecord
100
AcDbBlockTableRecord
  2
012NPTFT
  0
BLOCK_RECORD
  5
3F0
330
1
100
AcDbSymbolTableRecord
100
AcDbBlockTableRecord
  2
A$C15EE21EE
  0
ENDTAB
  0
ENDSEC
  0
SECTION
  2
BLOCKS
  0
BLOCK
  5
1F
330
1E
100
AcDbEntity
  8
0
100
AcDbBlockBegin
  2
*MODEL_SPACE
 70
     0
 10
0.0
 20
0.0
 30
0.0
  3
*MODEL_SPACE
  1

  0
ENDBLK
  5
20
330
1E
100
AcDbEntity
  8
0
100
AcDbBlockEnd
  0
BLOCK
  5
1B
330
1A
100
AcDbEntity
 67
     1
  8
0
100
AcDbBlockBegin
  2
*PAPER_SPACE
 70
     0
 10
0.0
 20
0.0
 30
0.0
  3
*PAPER_SPACE
  1

  0
ENDBLK
  5
1C
330
1A
100
AcDbEntity
 67
     1
  8
0
100
AcDbBlockEnd
  0
BLOCK
  5
3D
330
3C
100
AcDbEntity
  8
0
100
AcDbBlockBegin
  2
D08SPRV
 70
     0
 10
0.0
 20
0.0
 30
0.0
  3
D08SPRV
  1

  0
INSERT
  5
3F
330
3C
100
AcDbEntity
  8
SOLID
100
AcDbBlockReference
  2
131SAET
 10
4.875
 20
7.46875
 30
0.0
  0
INSERT
  5
40
330
3C
100
AcDbEntity
  8
SOLID
100
AcDbBlockReference
  2
131SAET
 10
4.875
 20
9.59375
 30
0.0
  0
INSERT
  5
42
330
3C
100
AcDbEntity
  8
SOLID
100
AcDbBlockReference
  2
056SAET
 10
4.25
 20
11.09375
 30
0.0
  0
INSERT
  5
43
330
3C
100
AcDbEntity
  8
DIM
100
AcDbBlockReference
  2
056SAET
 10
20.75
 20
6.90625
 30
0.0
  0
INSERT
  5
44
330
3C
100
AcDbEntity
  8
DIM
100
AcDbBlockReference
  2
131SAET
 10
26.5
 20
8.40625
 30
0.0
  0
INSERT
  5
45
330
3C
100
AcDbEntity
  8
DIM
100
AcDbBlockReference
  2
131SAET
 10
26.5
 20
10.53125
 30
0.0
  0
INSERT
  5
47
330
3C
100
AcDbEntity
  8
CCENTER
100
AcDbBlockReference
  2
100CROSS
 10
28.1875
 20
11.5625
 30
0.0
 41
0.6200000000000001
 42
0.6200000000000001
  0
CIRCLE
  5
48
330
3C
100
AcDbEntity
  8
CSOLID
100
AcDbCircle
 10
28.1875
 20
11.5625
 30
0.0
 40
0.203
  0
CIRCLE
  5
49
330
3C
100
AcDbEntity
  8
CSOLID
100
AcDbCircle
 10
27.3125
 20
6.4375
 30
0.0
 40
0.203
  0
INSERT
  5
4A
330
3C
100
AcDbEntity
  8
CCENTER
100
AcDbBlockReference
  2
100CROSS
 10
27.3125
 20
6.4375
 30
0.0
 41
0.6200000000000001
 42
0.6200000000000001
  0
CIRCLE
  5
4B
330
3C
100
AcDbEntity
  8
CHIDDEN
100
AcDbCircle
 10
12.3125
 20
17.125
 30
0.0
 40
0.5
  0
CIRCLE
  5
4C
330
3C
100
AcDbEntity
  8
CSOLID
100
AcDbCircle
 10
12.3125
 20
17.125
 30
0.0
 40
0.65625
  0
CIRCLE
  5
4D
330
3C
100
AcDbEntity
  8
CSOLID
100
AcDbCircle
 10
12.3125
 20
17.125
 30
0.0
 40
0.5400000000000001
  0
CIRCLE
  5
4E
330
3C
100
AcDbEntity
  8
CSOLID
100
AcDbCircle
 10
12.3125
 20
17.125
 30
0.0
 40
0.5155
  0
CIRCLE
  5
4F
330
3C
100
AcDbEntity
  8
CSOLID
100
AcDbCircle
 10
12.3125
 20
17.125
 30
0.0
 40
0.469
  0
CIRCLE
  5
50
330
3C
100
AcDbEntity
  8
CSOLID
100
AcDbCircle
 10
12.3125
 20
17.125
 30
0.0
 40
0.4375
  0
CIRCLE
  5
51
330
3C
100
AcDbEntity
  8
CSOLID
100
AcDbCircle
 10
12.3125
 20
17.125
 30
0.0
 40
0.3439999999999999
  0
INSERT
  5
52
330
3C
100
AcDbEntity
  8
CCENTER
100
AcDbBlockReference
  2
100CROSS
 10
12.3125
 20
17.125
 30
0.0
 41
1.3
 42
1.3
  0
INSERT
  5
53
330
3C
100
AcDbEntity
  8
CCENTER
100
AcDbBlockReference
  2
100CROSS
 10
11.3125
 20
11.5625
 30
0.0
 41
0.625
 42
0.625
  0
CIRCLE
  5
54
330
3C
100
AcDbEntity
  8
CSOLID
100
AcDbCircle
 10
11.3125
 20
11.5625
 30
0.0
 40
0.203
  0
CIRCLE
  5
55
330
3C
100
AcDbEntity
  8
CSOLID
100
AcDbCircle
 10
11.3125
 20
11.5625
 30
0.0
 40
0.3125
  0
CIRCLE
  5
56
330
3C
100
AcDbEntity
  8
CSOLID
100
AcDbCircle
 10
12.1875
 20
6.4375
 30
0.0
 40
0.3125
  0
CIRCLE
  5
57
330
3C
100
AcDbEntity
  8
CSOLID
100
AcDbCircle
 10
12.1875
 20
6.4375
 30
0.0
 40
0.203
  0
INSERT
  5
58
330
3C
100
AcDbEntity
  8
CCENTER
100
AcDbBlockReference
  2
100CROSS
 10
12.1875
 20
6.4375
 30
0.0
 41
0.625
 42
0.625
  0
INSERT
  5
59
330
3C
100
AcDbEntity
  8
CCENTER
100
AcDbBlockReference
  2
100CROSS
 10
12.8125
 20
7.1245
 30
0.0
 41
0.4379999999999999
 42
0.4379999999999999
  0
CIRCLE
  5
5A
330
3C
100
AcDbEntity
  8
CSOLID
100
AcDbCircle
 10
12.8125
 20
7.1245
 30
0.0
 40
0.2189999999999999
  0
CIRCLE
  5
5B
330
3C
100
AcDbEntity
  8
CSOLID
100
AcDbCircle
 10
10.6875
 20
10.8745
 30
0.0
 40
0.2189999999999999
  0
INSERT
  5
5C
330
3C
100
AcDbEntity
  8
CCENTER
100
AcDbBlockReference
  2
100CROSS
 10
10.6875
 20
10.8745
 30
0.0
 41
0.4379999999999999
 42
0.4379999999999999
  0
INSERT
  5
5D
330
3C
100
AcDbEntity
  8
CCENTER
100
AcDbBlockReference
  2
100CROSS
 10
13.7495
 20
7.844249999999999
 30
0.0
 41
0.25
 42
0.25
  0
CIRCLE
  5
5E
330
3C
100
AcDbEntity
  8
CSOLID
100
AcDbCircle
 10
13.7495
 20
7.844249999999999
 30
0.0
 40
0.1405
  0
CIRCLE
  5
5F
330
3C
100
AcDbEntity
  8
CSOLID
100
AcDbCircle
 10
9.9375
 20
10.40625
 30
0.0
 40
0.1405
  0
INSERT
  5
60
330
3C
100
AcDbEntity
  8
CCENTER
100
AcDbBlockReference
  2
100CROSS
 10
9.9375
 20
10.40625
 30
0.0
 41
0.25
 42
0.25
  0
CIRCLE
  5
61
330
3C
100
AcDbEntity
  8
CSOLID
100
AcDbCircle
 10
12.8755
 20
10.4065
 30
0.0
 40
0.453
  0
INSERT
  5
62
330
3C
100
AcDbEntity
  8
CCENTER
100
AcDbBlockReference
  2
100CROSS
 10
12.8755
 20
10.4065
 30
0.0
 41
0.8440000000000001
 42
0.8440000000000001
  0
INSERT
  5
63
330
3C
100
AcDbEntity
  8
CCENTER
100
AcDbBlockReference
  2
100CROSS
 10
12.8755
 20
8.531499999999999
 30
0.0
 41
0.8440000000000001
 42
0.8440000000000001
  0
CIRCLE
  5
64
330
3C
100
AcDbEntity
  8
CSOLID
100
AcDbCircle
 10
12.8755
 20
8.531499999999999
 30
0.0
 40
0.453
  0
INSERT
  5
65
330
3C
100
AcDbEntity
  8
CCENTER
100
AcDbBlockReference
  2
100CROSS
 10
10.6255
 20
9.468999999999999
 30
0.0
 41
0.8440000000000001
 42
0.8440000000000001
  0
CIRCLE
  5
66
330
3C
100
AcDbEntity
  8
CSOLID
100
AcDbCircle
 10
10.6255
 20
9.468999999999999
 30
0.0
 40
0.453
  0
CIRCLE
  5
67
330
3C
100
AcDbEntity
  8
CSOLID
100
AcDbCircle
 10
10.6255
 20
7.593999999999999
 30
0.0
 40
0.453
  0
INSERT
  5
68
330
3C
100
AcDbEntity
  8
CCENTER
100
AcDbBlockReference
  2
100CROSS
 10
10.6255
 20
7.593999999999999
 30
0.0
 41
0.8440000000000001
 42
0.8440000000000001
  0
CIRCLE
  5
69
330
3C
100
AcDbEntity
  8
CSOLID
100
AcDbCircle
 10
13.5625
 20
9.4685
 30
0.0
 40
0.21875
  0
INSERT
  5
6A
330
3C
100
AcDbEntity
  8
CCENTER
100
AcDbBlockReference
  2
100CROSS
 10
13.5625
 20
9.4685
 30
0.0
 41
0.5
 42
0.5
  0
INSERT
  5
6B
330
3C
100
AcDbEntity
  8
CCENTER
100
AcDbBlockReference
  2
100CROSS
 10
9.9375
 20
8.531499999999999
 30
0.0
 41
0.5
 42
0.5
  0
CIRCLE
  5
6C
330
3C
100
AcDbEntity
  8
CSOLID
100
AcDbCircle
 10
9.9375
 20
8.531499999999999
 30
0.0
 40
0.21875
  0
INSERT
  5
6D
330
3C
100
AcDbEntity
  8
CCENTER
100
AcDbBlockReference
  2
100CROSS
 10
13.5625
 20
6.4375
 30
0.0
 41
0.5
 42
0.5
  0
CIRCLE
  5
6E
330
3C
100
AcDbEntity
  8
CSOLID
100
AcDbCircle
 10
13.5625
 20
6.4375
 30
0.0
 40
0.21875
  0
INSERT
  5
6F
330
3C
100
AcDbEntity
  8
CCENTER
100
AcDbBlockReference
  2
100CROSS
 10
13.5625
 20
11.5625
 30
0.0
 41
0.5
 42
0.5
  0
CIRCLE
  5
70
330
3C
100
AcDbEntity
  8
CSOLID
100
AcDbCircle
 10
13.5625
 20
11.5625
 30
0.0
 40
0.21875
  0
INSERT
  5
71
330
3C
100
AcDbEntity
  8
CCENTER
100
AcDbBlockReference
  2
100CROSS
 10
9.9375
 20
6.4375
 30
0.0
 41
0.5
 42
0.5
  0
CIRCLE
  5
72
330
3C
100
AcDbEntity
  8
CSOLID
100
AcDbCircle
 10
9.9375
 20
6.4375
 30
0.0
 40
0.21875
  0
CIRCLE
  5
73
330
3C
100
AcDbEntity
  8
CSOLID
100
AcDbCircle
 10
9.9375
 20
11.5625
 30
0.0
 40
0.21875
  0
INSERT
  5
74
330
3C
100
AcDbEntity
  8
CCENTER
100
AcDbBlockReference
  2
100CROSS
 10
9.9375
 20
11.5625
 30
0.0
 41
0.5
 42
0.5
  0
CIRCLE
  5
75
330
3C
100
AcDbEntity
  8
CHIDDEN
100
AcDbCircle
 10
9.9375
 20
6.4375
 30
0.0
 40
0.25
  0
CIRCLE
  5
76
330
3C
100
AcDbEntity
  8
CHIDDEN
100
AcDbCircle
 10
9.9375
 20
11.5625
 30
0.0
 40
0.25
  0
CIRCLE
  5
77
330
3C
100
AcDbEntity
  8
CHIDDEN
100
AcDbCircle
 10
13.5625
 20
6.4375
 30
0.0
 40
0.25
  0
CIRCLE
  5
78
330
3C
100
AcDbEntity
  8
CHIDDEN
100
AcDbCircle
 10
13.5625
 20
11.5625
 30
0.0
 40
0.25
  0
CIRCLE
  5
79
330
3C
100
AcDbEntity
  8
CHIDDEN
100
AcDbCircle
 10
9.9375
 20
8.53125
 30
0.0
 40
0.25
  0
CIRCLE
  5
7A
330
3C
100
AcDbEntity
  8
CHIDDEN
100
AcDbCircle
 10
13.5625
 20
9.4685
 30
0.0
 40
0.25
  0
CIRCLE
  5
7B
330
3C
100
AcDbEntity
  8
CSOLID
100
AcDbCircle
 10
20.0625
 20
10.53125
 30
0.0
 40
0.6125
  0
CIRCLE
  5
7C
330
3C
100
AcDbEntity
  8
CSOLID
100
AcDbCircle
 10
20.0625
 20
10.53125
 30
0.0
 40
0.5620000000000001
  0
CIRCLE
  5
7D
330
3C
100
AcDbEntity
  8
CSOLID
100
AcDbCircle
 10
20.0625
 20
10.53125
 30
0.0
 40
1.0
  0
INSERT
  5
7E
330
3C
100
AcDbEntity
  8
CCENTER
100
AcDbBlockReference
  2
100CROSS
 10
20.0625
 20
10.53125
 30
0.0
 41
1.6
 42
1.6
  0
CIRCLE
  5
7F
330
3C
100
AcDbEntity
  8
CHIDDEN
100
AcDbCircle
 10
20.0625
 20
10.53125
 30
0.0
 40
0.65625
  0
CIRCLE
  5
80
330
3C
100
AcDbEntity
  8
CSOLID
100
AcDbCircle
 10
20.0625
 20
8.40625
 30
0.0
 40
0.6125
  0
CIRCLE
  5
81
330
3C
100
AcDbEntity
  8
CSOLID
100
AcDbCircle
 10
20.0625
 20
8.40625
 30
0.0
 40
0.5620000000000001
  0
CIRCLE
  5
82
330
3C
100
AcDbEntity
  8
CSOLID
100
AcDbCircle
 10
20.0625
 20
8.40625
 30
0.0
 40
1.0
  0
INSERT
  5
83
330
3C
100
AcDbEntity
  8
CCENTER
100
AcDbBlockReference
  2
100CROSS
 10
20.0625
 20
8.40625
 30
0.0
 41
1.6
 42
1.6
  0
CIRCLE
  5
84
330
3C
100
AcDbEntity
  8
CHIDDEN
100
AcDbCircle
 10
20.0625
 20
8.40625
 30
0.0
 40
0.65625
  0
TEXT
  5
85
330
3C
100
AcDbEntity
  8
CDIM
100
AcDbText
 10
4.65625
 20
11.75
 30
0.0
 40
0.25
  1
X
 50
270.0
  7
STR
100
AcDbText
  0
TEXT
  5
86
330
3C
100
AcDbEntity
  8
CDIM
100
AcDbText
 10
5.5625
 20
10.71875
 30
0.0
 40
0.25
  1
A
 50
270.0
  7
STR
100
AcDbText
  0
TEXT
  5
87
330
3C
100
AcDbEntity
  8
CDIM
100
AcDbText
 10
5.53125
 20
6.5625
 30
0.0
 40
0.25
  1
B
 50
270.0
  7
STR
100
AcDbText
  0
TEXT
  5
88
330
3C
100
AcDbEntity
  8
CDIM
100
AcDbText
 10
20.3125
 20
6.21875
 30
0.0
 40
0.25
  1
Y
 50
90.0
  7
STR
100
AcDbText
  0
TEXT
  5
89
330
3C
100
AcDbEntity
  8
CDIM
100
AcDbText
 10
19.40625
 20
7.34375
 30
0.0
 40
0.25
  1
P
 50
90.0
  7
STR
100
AcDbText
  0
TEXT
  5
8A
330
3C
100
AcDbEntity
  8
CDIM
100
AcDbText
 10
19.375
 20
11.40625
 30
0.0
 40
0.25
  1
T
 50
90.0
  7
STR
100
AcDbText
  0
TEXT
  5
8B
330
3C
100
AcDbEntity
  8
CDIM
100
AcDbText
 10
27.5625
 20
9.65625
 30
0.0
 40
0.25
  1
T
  7
STR
100
AcDbText
  0
TEXT
  5
8C
330
3C
100
AcDbEntity
  8
CDIM
100
AcDbText
 10
27.46875
 20
7.46875
 30
0.0
 40
0.25
  1
P
  7
STR
100
AcDbText
  0
LINE
  5
8D
330
3C
100
AcDbEntity
  8
CDIM
100
AcDbLine
 10
3.0
 20
12.230213
 30
0.0
 11
3.0
 21
13.269006
 31
0.0
  0
LINE
  5
8E
330
3C
100
AcDbEntity
  8
CDIM
100
AcDbLine
 10
4.25
 20
11.605213
 30
0.0
 11
4.25
 21
13.269006
 31
0.0
  0
LINE
  5
8F
330
3C
100
AcDbEntity
  8
CDIM
100
AcDbLine
 10
4.692008
 20
12.9375
 30
0.0
 11
5.134015999999999
 21
12.9375
 31
0.0
  0
LINE
  5
90
330
3C
100
AcDbEntity
  8
CDIM
100
AcDbLine
 10
2.557992
 20
12.9375
 30
0.0
 11
2.115984
 21
12.9375
 31
0.0
  0
SOLID
  5
91
330
3C
100
AcDbEntity
  8
CDIM
100
AcDbTrace
 10
4.692008
 20
12.863832
 30
0.0
 11
4.692008
 21
13.01116799999999
 31
0.0
 12
4.25
 22
12.9375
 32
0.0
 13
4.25
 23
12.9375
 33
0.0
  0
SOLID
  5
92
330
3C
100
AcDbEntity
  8
CDIM
100
AcDbTrace
 10
2.557992
 20
12.863832
 30
0.0
 11
2.557992
 21
13.01116799999999
 31
0.0
 12
3.0
 22
12.9375
 32
0.0
 13
3.0
 23
12.9375
 33
0.0
  0
TEXT
  5
93
330
3C
100
AcDbEntity
  8
CDIM
100
AcDbText
 10
5.576023999999999
 20
12.679662
 30
0.0
 40
0.5156760000000001
  1
1.25
  7
STR
100
AcDbText
  0
LINE
  5
94
330
3C
100
AcDbEntity
  8
CDIM
100
AcDbLine
 10
3.0
 20
12.230213
 30
0.0
 11
3.0
 21
14.374026
 31
0.0
  0
LINE
  5
95
330
3C
100
AcDbEntity
  8
CDIM
100
AcDbLine
 10
4.875
 20
10.480213
 30
0.0
 11
4.875
 21
14.374026
 31
0.0
  0
LINE
  5
96
330
3C
100
AcDbEntity
  8
CDIM
100
AcDbLine
 10
5.317008
 20
14.04252
 30
0.0
 11
5.759015999999999
 21
14.04252
 31
0.0
  0
LINE
  5
97
330
3C
100
AcDbEntity
  8
CDIM
100
AcDbLine
 10
2.557992
 20
14.04252
 30
0.0
 11
2.115984
 21
14.04252
 31
0.0
  0
SOLID
  5
98
330
3C
100
AcDbEntity
  8
CDIM
100
AcDbTrace
 10
5.317008
 20
13.96885199999999
 30
0.0
 11
5.317008
 21
14.116188
 31
0.0
 12
4.875
 22
14.04252
 32
0.0
 13
4.875
 23
14.04252
 33
0.0
  0
SOLID
  5
99
330
3C
100
AcDbEntity
  8
CDIM
100
AcDbTrace
 10
2.557992
 20
13.96885199999999
 30
0.0
 11
2.557992
 21
14.116188
 31
0.0
 12
3.0
 22
14.04252
 32
0.0
 13
3.0
 23
14.04252
 33
0.0
  0
TEXT
  5
9A
330
3C
100
AcDbEntity
  8
CDIM
100
AcDbText
 10
6.201023999999999
 20
13.784682
 30
0.0
 40
0.5156760000000001
  1
1.87
  7
STR
100
AcDbText
  0
LINE
  5
9B
330
3C
100
AcDbEntity
  8
CDIM
100
AcDbLine
 10
3.0
 20
12.230213
 30
0.0
 11
3.0
 21
15.47904599999999
 31
0.0
  0
LINE
  5
9C
330
3C
100
AcDbEntity
  8
CDIM
100
AcDbLine
 10
6.0
 20
12.230213
 30
0.0
 11
6.0
 21
12.5
 31
0.0
  0
LINE
  5
9D
330
3C
100
AcDbEntity
  8
CDIM
100
AcDbLine
 10
6.442008
 20
15.14753999999999
 30
0.0
 11
6.884015999999999
 21
15.14753999999999
 31
0.0
  0
LINE
  5
9E
330
3C
100
AcDbEntity
  8
CDIM
100
AcDbLine
 10
2.557992
 20
15.14753999999999
 30
0.0
 11
2.115984
 21
15.14753999999999
 31
0.0
  0
SOLID
  5
9F
330
3C
100
AcDbEntity
  8
CDIM
100
AcDbTrace
 10
6.442008
 20
15.073872
 30
0.0
 11
6.442008
 21
15.22120799999999
 31
0.0
 12
6.0
 22
15.14753999999999
 32
0.0
 13
6.0
 23
15.14753999999999
 33
0.0
  0
SOLID
  5
A0
330
3C
100
AcDbEntity
  8
CDIM
100
AcDbTrace
 10
2.557992
 20
15.073872
 30
0.0
 11
2.557992
 21
15.22120799999999
 31
0.0
 12
3.0
 22
15.14753999999999
 32
0.0
 13
3.0
 23
15.14753999999999
 33
0.0
  0
TEXT
  5
A1
330
3C
100
AcDbEntity
  8
CDIM
100
AcDbText
 10
3.701023999999999
 20
14.88970199999999
 30
0.0
 40
0.5156760000000001
  1
3.00
  7
STR
100
AcDbText
  0
LINE
  5
A2
330
3C
100
AcDbEntity
  8
CDIM
100
AcDbLine
 10
2.769788
 20
12.0
 30
0.0
 11
1.543494
 21
12.0
 31
0.0
  0
LINE
  5
A3
330
3C
100
AcDbEntity
  8
CDIM
100
AcDbLine
 10
3.738537999999999
 20
11.09375
 30
0.0
 11
1.543494
 21
11.09375
 31
0.0
  0
LINE
  5
A4
330
3C
100
AcDbEntity
  8
CDIM
100
AcDbLine
 10
1.875
 20
10.651742
 30
0.0
 11
1.875
 21
10.20973399999999
 31
0.0
  0
LINE
  5
A5
330
3C
100
AcDbEntity
  8
CDIM
100
AcDbLine
 10
1.875
 20
12.44200799999999
 30
0.0
 11
1.875
 21
12.884016
 31
0.0
  0
SOLID
  5
A6
330
3C
100
AcDbEntity
  8
CDIM
100
AcDbTrace
 10
1.948667999999999
 20
10.651742
 30
0.0
 11
1.801332
 21
10.651742
 31
0.0
 12
1.875
 22
11.09375
 32
0.0
 13
1.875
 23
11.09375
 33
0.0
  0
SOLID
  5
A7
330
3C
100
AcDbEntity
  8
CDIM
100
AcDbTrace
 10
1.948667999999999
 20
12.44200799999999
 30
0.0
 11
1.801332
 21
12.44200799999999
 31
0.0
 12
1.875
 22
12.0
 32
0.0
 13
1.875
 23
12.0
 33
0.0
  0
TEXT
  5
A8
330
3C
100
AcDbEntity
  8
CDIM
100
AcDbText
 10
1.234154
 20
11.295646
 30
0.0
 40
0.5156760000000001
  1
0.91
  7
STR
100
AcDbText
  0
LINE
  5
A9
330
3C
100
AcDbEntity
  8
CDIM
100
AcDbLine
 10
2.769788
 20
12.0
 30
0.0
 11
0.094724
 21
12.0
 31
0.0
  0
LINE
  5
AA
330
3C
100
AcDbEntity
  8
CDIM
100
AcDbLine
 10
4.032287999999999
 20
9.59375
 30
0.0
 11
0.094724
 21
9.59375
 31
0.0
  0
LINE
  5
AB
330
3C
100
AcDbEntity
  8
CDIM
100
AcDbLine
 10
0.42623
 20
11.557992
 30
0.0
 11
0.42623
 21
11.496721
 31
0.0
  0
LINE
  5
AC
330
3C
100
AcDbEntity
  8
CDIM
100
AcDbLine
 10
0.42623
 20
10.03575799999999
 30
0.0
 11
0.42623
 21
10.09702899999999
 31
0.0
  0
SOLID
  5
AD
330
3C
100
AcDbEntity
  8
CDIM
100
AcDbTrace
 10
0.499898
 20
11.557992
 30
0.0
 11
0.352562
 21
11.557992
 31
0.0
 12
0.42623
 22
12.0
 32
0.0
 13
0.42623
 23
12.0
 33
0.0
  0
SOLID
  5
AE
330
3C
100
AcDbEntity
  8
CDIM
100
AcDbTrace
 10
0.499898
 20
10.03575799999999
 30
0.0
 11
0.352562
 21
10.03575799999999
 31
0.0
 12
0.42623
 22
9.59375
 32
0.0
 13
0.42623
 23
9.59375
 33
0.0
  0
TEXT
  5
AF
330
3C
100
AcDbEntity
  8
CDIM
100
AcDbText
 10
-0.24906
 20
10.53903699999999
 30
0.0
 40
0.5156760000000001
  1
2.41
  7
STR
100
AcDbText
  0
LINE
  5
B0
330
3C
100
AcDbEntity
  8
CDIM
100
AcDbLine
 10
2.769788
 20
12.0
 30
0.0
 11
-1.260295999999999
 21
12.0
 31
0.0
  0
LINE
  5
B1
330
3C
100
AcDbEntity
  8
CDIM
100
AcDbLine
 10
4.082787999999999
 20
7.46875
 30
0.0
 11
-1.260295999999999
 21
7.46875
 31
0.0
  0
LINE
  5
B2
330
3C
100
AcDbEntity
  8
CDIM
100
AcDbLine
 10
-0.92879
 20
11.557992
 30
0.0
 11
-0.92879
 21
9.777971
 31
0.0
  0
LINE
  5
B3
330
3C
100
AcDbEntity
  8
CDIM
100
AcDbLine
 10
-0.92879
 20
7.910758
 30
0.0
 11
-0.92879
 21
8.378278999999999
 31
0.0
  0
SOLID
  5
B4
330
3C
100
AcDbEntity
  8
CDIM
100
AcDbTrace
 10
-0.8551219999999998
 20
11.557992
 30
0.0
 11
-1.002458
 21
11.557992
 31
0.0
 12
-0.92879
 22
12.0
 32
0.0
 13
-0.92879
 23
12.0
 33
0.0
  0
SOLID
  5
B5
330
3C
100
AcDbEntity
  8
CDIM
100
AcDbTrace
 10
-0.8551219999999998
 20
7.910758
 30
0.0
 11
-1.002458
 21
7.910758
 31
0.0
 12
-0.92879
 22
7.46875
 32
0.0
 13
-0.92879
 23
7.46875
 33
0.0
  0
TEXT
  5
B6
330
3C
100
AcDbEntity
  8
CDIM
100
AcDbText
 10
-1.714582
 20
8.820286999999998
 30
0.0
 40
0.5156760000000001
  1
4.53
  7
STR
100
AcDbText
  0
LINE
  5
B7
330
3C
100
AcDbEntity
  8
CDIM
100
AcDbLine
 10
9.269788
 20
12.0
 30
0.0
 11
8.043494
 21
12.0
 31
0.0
  0
LINE
  5
B8
330
3C
100
AcDbEntity
  8
CDIM
100
AcDbLine
 10
12.192288
 20
8.531499999999999
 30
0.0
 11
8.043494
 21
8.531499999999999
 31
0.0
  0
LINE
  5
B9
330
3C
100
AcDbEntity
  8
CDIM
100
AcDbLine
 10
8.375
 20
11.557992
 30
0.0
 11
8.375
 21
10.965596
 31
0.0
  0
LINE
  5
BA
330
3C
100
AcDbEntity
  8
CDIM
100
AcDbLine
 10
8.375
 20
8.973508
 30
0.0
 11
8.375
 21
9.565903999999999
 31
0.0
  0
SOLID
  5
BB
330
3C
100
AcDbEntity
  8
CDIM
100
AcDbTrace
 10
8.448667999999999
 20
11.557992
 30
0.0
 11
8.301332
 21
11.557992
 31
0.0
 12
8.375
 22
12.0
 32
0.0
 13
8.375
 23
12.0
 33
0.0
  0
SOLID
  5
BC
330
3C
100
AcDbEntity
  8
CDIM
100
AcDbTrace
 10
8.448667999999999
 20
8.973508
 30
0.0
 11
8.301332
 21
8.973508
 31
0.0
 12
8.375
 22
8.531499999999999
 32
0.0
 13
8.375
 23
8.531499999999999
 33
0.0
  0
TEXT
  5
BD
330
3C
100
AcDbEntity
  8
CDIM
100
AcDbText
 10
7.589208
 20
10.00791199999999
 30
0.0
 40
0.5156760000000001
  1
3.47
  7
STR
100
AcDbText
  0
LINE
  5
BE
330
3C
100
AcDbEntity
  8
CDIM
100
AcDbLine
 10
9.269788
 20
12.0
 30
0.0
 11
6.938474
 21
12.0
 31
0.0
  0
LINE
  5
BF
330
3C
100
AcDbEntity
  8
CDIM
100
AcDbLine
 10
9.269788
 20
6.0
 30
0.0
 11
6.938474
 21
6.0
 31
0.0
  0
LINE
  5
C0
330
3C
100
AcDbEntity
  8
CDIM
100
AcDbLine
 10
7.26998
 20
11.557992
 30
0.0
 11
7.26998
 21
9.699846
 31
0.0
  0
LINE
  5
C1
330
3C
100
AcDbEntity
  8
CDIM
100
AcDbLine
 10
7.26998
 20
6.442008
 30
0.0
 11
7.26998
 21
8.300153999999999
 31
0.0
  0
SOLID
  5
C2
330
3C
100
AcDbEntity
  8
CDIM
100
AcDbTrace
 10
7.343647999999999
 20
11.557992
 30
0.0
 11
7.196311999999999
 21
11.557992
 31
0.0
 12
7.26998
 22
12.0
 32
0.0
 13
7.26998
 23
12.0
 33
0.0
  0
SOLID
  5
C3
330
3C
100
AcDbEntity
  8
CDIM
100
AcDbTrace
 10
7.343647999999999
 20
6.442008
 30
0.0
 11
7.196311999999999
 21
6.442008
 31
0.0
 12
7.26998
 22
6.0
 32
0.0
 13
7.26998
 23
6.0
 33
0.0
  0
TEXT
  5
C4
330
3C
100
AcDbEntity
  8
CDIM
100
AcDbText
 10
6.484187999999999
 20
8.742161999999998
 30
0.0
 40
0.5156760000000001
  1
6.00
  7
STR
100
AcDbText
  0
LINE
  5
C5
330
3C
100
AcDbEntity
  8
CDIM
100
AcDbLine
 10
9.5
 20
12.230213
 30
0.0
 11
9.5
 21
13.269006
 31
0.0
  0
LINE
  5
C6
330
3C
100
AcDbEntity
  8
CDIM
100
AcDbLine
 10
12.8755
 20
11.089713
 30
0.0
 11
12.8755
 21
13.269006
 31
0.0
  0
LINE
  5
C7
330
3C
100
AcDbEntity
  8
CDIM
100
AcDbLine
 10
13.317508
 20
12.9375
 30
0.0
 11
13.759516
 21
12.9375
 31
0.0
  0
LINE
  5
C8
330
3C
100
AcDbEntity
  8
CDIM
100
AcDbLine
 10
9.057992
 20
12.9375
 30
0.0
 11
8.615983999999999
 21
12.9375
 31
0.0
  0
SOLID
  5
C9
330
3C
100
AcDbEntity
  8
CDIM
100
AcDbTrace
 10
13.317508
 20
12.863832
 30
0.0
 11
13.317508
 21
13.01116799999999
 31
0.0
 12
12.8755
 22
12.9375
 32
0.0
 13
12.8755
 23
12.9375
 33
0.0
  0
SOLID
  5
CA
330
3C
100
AcDbEntity
  8
CDIM
100
AcDbTrace
 10
9.057992
 20
12.863832
 30
0.0
 11
9.057992
 21
13.01116799999999
 31
0.0
 12
9.5
 22
12.9375
 32
0.0
 13
9.5
 23
12.9375
 33
0.0
  0
TEXT
  5
CB
330
3C
100
AcDbEntity
  8
CDIM
100
AcDbText
 10
10.420274
 20
12.679662
 30
0.0
 40
0.5156760000000001
  1
3.38
  7
STR
100
AcDbText
  0
LINE
  5
CC
330
3C
100
AcDbEntity
  8
CDIM
100
AcDbLine
 10
9.5
 20
12.230213
 30
0.0
 11
9.5
 21
14.374026
 31
0.0
  0
LINE
  5
CD
330
3C
100
AcDbEntity
  8
CDIM
100
AcDbLine
 10
14.0
 20
12.230213
 30
0.0
 11
14.0
 21
14.374026
 31
0.0
  0
LINE
  5
CE
330
3C
100
AcDbEntity
  8
CDIM
100
AcDbLine
 10
9.942007999999999
 20
14.04252
 30
0.0
 11
10.52219999999999
 21
14.04252
 31
0.0
  0
LINE
  5
CF
330
3C
100
AcDbEntity
  8
CDIM
100
AcDbLine
 10
13.557992
 20
14.04252
 30
0.0
 11
12.9778
 21
14.04252
 31
0.0
  0
SOLID
  5
D0
330
3C
100
AcDbEntity
  8
CDIM
100
AcDbTrace
 10
9.942007999999999
 20
13.96885199999999
 30
0.0
 11
9.942007999999999
 21
14.116188
 31
0.0
 12
9.5
 22
14.04252
 32
0.0
 13
9.5
 23
14.04252
 33
0.0
  0
SOLID
  5
D1
330
3C
100
AcDbEntity
  8
CDIM
100
AcDbTrace
 10
13.557992
 20
13.96885199999999
 30
0.0
 11
13.557992
 21
14.116188
 31
0.0
 12
14.0
 22
14.04252
 32
0.0
 13
14.0
 23
14.04252
 33
0.0
  0
TEXT
  5
D2
330
3C
100
AcDbEntity
  8
CDIM
100
AcDbText
 10
10.96420799999999
 20
13.784682
 30
0.0
 40
0.5156760000000001
  1
4.50
  7
STR
100
AcDbText
  0
LINE
  5
D3
330
3C
100
AcDbEntity
  8
CDIM
100
AcDbLine
 10
9.5
 20
5.769788
 30
0.0
 11
9.5
 21
4.730993999999999
 31
0.0
  0
LINE
  5
D4
330
3C
100
AcDbEntity
  8
CDIM
100
AcDbLine
 10
11.3125
 20
11.019788
 30
0.0
 11
11.3125
 21
4.730993999999999
 31
0.0
  0
LINE
  5
D5
330
3C
100
AcDbEntity
  8
CDIM
100
AcDbLine
 10
11.75450799999999
 20
5.0625
 30
0.0
 11
12.196516
 21
5.0625
 31
0.0
  0
LINE
  5
D6
330
3C
100
AcDbEntity
  8
CDIM
100
AcDbLine
 10
9.057992
 20
5.0625
 30
0.0
 11
8.615983999999999
 21
5.0625
 31
0.0
  0
SOLID
  5
D7
330
3C
100
AcDbEntity
  8
CDIM
100
AcDbTrace
 10
11.75450799999999
 20
4.988832
 30
0.0
 11
11.75450799999999
 21
5.136167999999999
 31
0.0
 12
11.3125
 22
5.0625
 32
0.0
 13
11.3125
 23
5.0625
 33
0.0
  0
SOLID
  5
D8
330
3C
100
AcDbEntity
  8
CDIM
100
AcDbTrace
 10
9.057992
 20
4.988832
 30
0.0
 11
9.057992
 21
5.136167999999999
 31
0.0
 12
9.5
 22
5.0625
 32
0.0
 13
9.5
 23
5.0625
 33
0.0
  0
TEXT
  5
D9
330
3C
100
AcDbEntity
  8
CDIM
100
AcDbText
 10
9.763524
 20
4.804662
 30
0.0
 40
0.5156760000000001
  1
1.68
  7
STR
100
AcDbText
  0
LINE
  5
DA
330
3C
100
AcDbEntity
  8
CDIM
100
AcDbLine
 10
9.5
 20
5.769788
 30
0.0
 11
9.5
 21
3.625973999999999
 31
0.0
  0
LINE
  5
DB
330
3C
100
AcDbEntity
  8
CDIM
100
AcDbLine
 10
12.1875
 20
5.894788
 30
0.0
 11
12.1875
 21
3.625973999999999
 31
0.0
  0
LINE
  5
DC
330
3C
100
AcDbEntity
  8
CDIM
100
AcDbLine
 10
12.629508
 20
3.95748
 30
0.0
 11
13.071516
 21
3.95748
 31
0.0
  0
LINE
  5
DD
330
3C
100
AcDbEntity
  8
CDIM
100
AcDbLine
 10
9.057992
 20
3.95748
 30
0.0
 11
8.615983999999999
 21
3.95748
 31
0.0
  0
SOLID
  5
DE
330
3C
100
AcDbEntity
  8
CDIM
100
AcDbTrace
 10
12.629508
 20
3.883812
 30
0.0
 11
12.629508
 21
4.031147999999999
 31
0.0
 12
12.1875
 22
3.95748
 32
0.0
 13
12.1875
 23
3.95748
 33
0.0
  0
SOLID
  5
DF
330
3C
100
AcDbEntity
  8
CDIM
100
AcDbTrace
 10
9.057992
 20
3.883812
 30
0.0
 11
9.057992
 21
4.031147999999999
 31
0.0
 12
9.5
 22
3.95748
 32
0.0
 13
9.5
 23
3.95748
 33
0.0
  0
TEXT
  5
E0
330
3C
100
AcDbEntity
  8
CDIM
100
AcDbText
 10
10.107274
 20
3.699641999999999
 30
0.0
 40
0.5156760000000001
  1
2.56
  7
STR
100
AcDbText
  0
LINE
  5
E1
330
3C
100
AcDbEntity
  8
CDIM
100
AcDbLine
 10
14.230213
 20
12.0
 30
0.0
 11
15.269006
 21
12.0
 31
0.0
  0
LINE
  5
E2
330
3C
100
AcDbEntity
  8
CDIM
100
AcDbLine
 10
11.855213
 20
11.5625
 30
0.0
 11
15.269006
 21
11.5625
 31
0.0
  0
LINE
  5
E3
330
3C
100
AcDbEntity
  8
CDIM
100
AcDbLine
 10
14.9375
 20
11.120492
 30
0.0
 11
14.9375
 21
10.67848399999999
 31
0.0
  0
LINE
  5
E4
330
3C
100
AcDbEntity
  8
CDIM
100
AcDbLine
 10
14.9375
 20
12.44200799999999
 30
0.0
 11
14.9375
 21
12.884016
 31
0.0
  0
SOLID
  5
E5
330
3C
100
AcDbEntity
  8
CDIM
100
AcDbTrace
 10
15.011168
 20
11.120492
 30
0.0
 11
14.863832
 21
11.120492
 31
0.0
 12
14.9375
 22
11.5625
 32
0.0
 13
14.9375
 23
11.5625
 33
0.0
  0
SOLID
  5
E6
330
3C
100
AcDbEntity
  8
CDIM
100
AcDbTrace
 10
15.011168
 20
12.44200799999999
 30
0.0
 11
14.863832
 21
12.44200799999999
 31
0.0
 12
14.9375
 22
12.0
 32
0.0
 13
14.9375
 23
12.0
 33
0.0
  0
TEXT
  5
E7
330
3C
100
AcDbEntity
  8
CDIM
100
AcDbText
 10
14.176094
 20
10.045646
 30
0.0
 40
0.5156760000000001
  1
0.44
  7
STR
100
AcDbText
  0
LINE
  5
E8
330
3C
100
AcDbEntity
  8
CDIM
100
AcDbLine
 10
14.230213
 20
12.0
 30
0.0
 11
16.374026
 21
12.0
 31
0.0
  0
LINE
  5
E9
330
3C
100
AcDbEntity
  8
CDIM
100
AcDbLine
 10
12.620713
 20
6.4375
 30
0.0
 11
16.374026
 21
6.4375
 31
0.0
  0
LINE
  5
EA
330
3C
100
AcDbEntity
  8
CDIM
100
AcDbLine
 10
16.04251999999999
 20
11.557992
 30
0.0
 11
16.04251999999999
 21
9.918596
 31
0.0
  0
LINE
  5
EB
330
3C
100
AcDbEntity
  8
CDIM
100
AcDbLine
 10
16.04251999999999
 20
6.879508
 30
0.0
 11
16.04251999999999
 21
8.518903999999999
 31
0.0
  0
SOLID
  5
EC
330
3C
100
AcDbEntity
  8
CDIM
100
AcDbTrace
 10
16.116188
 20
11.557992
 30
0.0
 11
15.968852
 21
11.557992
 31
0.0
 12
16.04251999999999
 22
12.0
 32
0.0
 13
16.04251999999999
 23
12.0
 33
0.0
  0
SOLID
  5
ED
330
3C
100
AcDbEntity
  8
CDIM
100
AcDbTrace
 10
16.116188
 20
6.879508
 30
0.0
 11
15.968852
 21
6.879508
 31
0.0
 12
16.04251999999999
 22
6.4375
 32
0.0
 13
16.04251999999999
 23
6.4375
 33
0.0
  0
TEXT
  5
EE
330
3C
100
AcDbEntity
  8
CDIM
100
AcDbText
 10
15.269006
 20
8.960911999999998
 30
0.0
 40
0.5156760000000001
  1
5.56
  7
STR
100
AcDbText
  0
LINE
  5
EF
330
3C
100
AcDbEntity
  8
CDIM
100
AcDbLine
 10
22.230213
 20
12.0
 30
0.0
 11
23.269006
 21
12.0
 31
0.0
  0
LINE
  5
F0
330
3C
100
AcDbEntity
  8
CDIM
100
AcDbLine
 10
20.905213
 20
10.53125
 30
0.0
 11
23.46875
 21
10.53125
 31
0.0
  0
LINE
  5
F1
330
3C
100
AcDbEntity
  8
CDIM
100
AcDbLine
 10
22.9375
 20
10.089242
 30
0.0
 11
22.9375
 21
9.647233999999999
 31
0.0
  0
LINE
  5
F2
330
3C
100
AcDbEntity
  8
CDIM
100
AcDbLine
 10
22.9375
 20
12.44200799999999
 30
0.0
 11
22.9375
 21
12.884016
 31
0.0
  0
SOLID
  5
F3
330
3C
100
AcDbEntity
  8
CDIM
100
AcDbTrace
 10
23.01116799999999
 20
10.089242
 30
0.0
 11
22.863832
 21
10.089242
 31
0.0
 12
22.9375
 22
10.53125
 32
0.0
 13
22.9375
 23
10.53125
 33
0.0
  0
SOLID
  5
F4
330
3C
100
AcDbEntity
  8
CDIM
100
AcDbTrace
 10
23.01116799999999
 20
12.44200799999999
 30
0.0
 11
22.863832
 21
12.44200799999999
 31
0.0
 12
22.9375
 22
12.0
 32
0.0
 13
22.9375
 23
12.0
 33
0.0
  0
TEXT
  5
F5
330
3C
100
AcDbEntity
  8
CDIM
100
AcDbText
 10
22.23637399999999
 20
10.983146
 30
0.0
 40
0.5156760000000001
  1
1.47
  7
STR
100
AcDbText
  0
LINE
  5
F6
330
3C
100
AcDbEntity
  8
CDIM
100
AcDbLine
 10
22.230213
 20
12.0
 30
0.0
 11
24.374026
 21
12.0
 31
0.0
  0
LINE
  5
F7
330
3C
100
AcDbEntity
  8
CDIM
100
AcDbLine
 10
20.94896299999999
 20
8.40625
 30
0.0
 11
25.375
 21
8.40625
 31
0.0
  0
LINE
  5
F8
330
3C
100
AcDbEntity
  8
CDIM
100
AcDbLine
 10
24.04252
 20
11.557992
 30
0.0
 11
24.04252
 21
10.559221
 31
0.0
  0
LINE
  5
F9
330
3C
100
AcDbEntity
  8
CDIM
100
AcDbLine
 10
24.04252
 20
8.848257999999999
 30
0.0
 11
24.04252
 21
9.159528999999999
 31
0.0
  0
SOLID
  5
FA
330
3C
100
AcDbEntity
  8
CDIM
100
AcDbTrace
 10
24.116188
 20
11.557992
 30
0.0
 11
23.96885199999999
 21
11.557992
 31
0.0
 12
24.04252
 22
12.0
 32
0.0
 13
24.04252
 23
12.0
 33
0.0
  0
SOLID
  5
FB
330
3C
100
AcDbEntity
  8
CDIM
100
AcDbTrace
 10
24.116188
 20
8.848257999999999
 30
0.0
 11
23.96885199999999
 21
8.848257999999999
 31
0.0
 12
24.04252
 22
8.40625
 32
0.0
 13
24.04252
 23
8.40625
 33
0.0
  0
TEXT
  5
FC
330
3C
100
AcDbEntity
  8
CDIM
100
AcDbText
 10
23.269006
 20
9.601536999999998
 30
0.0
 40
0.5156760000000001
  1
3.59
  7
STR
100
AcDbText
  0
LINE
  5
FD
330
3C
100
AcDbEntity
  8
CDIM
100
AcDbLine
 10
18.769788
 20
12.0
 30
0.0
 11
17.73099399999999
 21
12.0
 31
0.0
  0
LINE
  5
FE
330
3C
100
AcDbEntity
  8
CDIM
100
AcDbLine
 10
20.269788
 20
6.90625
 30
0.0
 11
17.73099399999999
 21
6.90625
 31
0.0
  0
LINE
  5
FF
330
3C
100
AcDbEntity
  8
CDIM
100
AcDbLine
 10
18.0625
 20
11.557992
 30
0.0
 11
18.0625
 21
10.152971
 31
0.0
  0
LINE
  5
100
330
3C
100
AcDbEntity
  8
CDIM
100
AcDbLine
 10
18.0625
 20
7.348258
 30
0.0
 11
18.0625
 21
8.753278999999999
 31
0.0
  0
SOLID
  5
101
330
3C
100
AcDbEntity
  8
CDIM
100
AcDbTrace
 10
18.13616799999999
 20
11.557992
 30
0.0
 11
17.988832
 21
11.557992
 31
0.0
 12
18.0625
 22
12.0
 32
0.0
 13
18.0625
 23
12.0
 33
0.0
  0
SOLID
  5
102
330
3C
100
AcDbEntity
  8
CDIM
100
AcDbTrace
 10
18.13616799999999
 20
7.348258
 30
0.0
 11
17.988832
 21
7.348258
 31
0.0
 12
18.0625
 22
6.90625
 32
0.0
 13
18.0625
 23
6.90625
 33
0.0
  0
TEXT
  5
103
330
3C
100
AcDbEntity
  8
CDIM
100
AcDbText
 10
17.28898599999999
 20
9.195286999999998
 30
0.0
 40
0.5156760000000001
  1
5.09
  7
STR
100
AcDbText
  0
LINE
  5
104
330
3C
100
AcDbEntity
  8
CDIM
100
AcDbLine
 10
30.0
 20
12.230213
 30
0.0
 11
30.0
 21
13.269006
 31
0.0
  0
LINE
  5
105
330
3C
100
AcDbEntity
  8
CDIM
100
AcDbLine
 10
26.5
 20
11.417713
 30
0.0
 11
26.5
 21
13.269006
 31
0.0
  0
LINE
  5
106
330
3C
100
AcDbEntity
  8
CDIM
100
AcDbLine
 10
29.55799199999999
 20
12.9375
 30
0.0
 11
29.47779999999999
 21
12.9375
 31
0.0
  0
LINE
  5
107
330
3C
100
AcDbEntity
  8
CDIM
100
AcDbLine
 10
26.942008
 20
12.9375
 30
0.0
 11
27.0222
 21
12.9375
 31
0.0
  0
SOLID
  5
108
330
3C
100
AcDbEntity
  8
CDIM
100
AcDbTrace
 10
29.55799199999999
 20
12.863832
 30
0.0
 11
29.55799199999999
 21
13.01116799999999
 31
0.0
 12
30.0
 22
12.9375
 32
0.0
 13
30.0
 23
12.9375
 33
0.0
  0
SOLID
  5
109
330
3C
100
AcDbEntity
  8
CDIM
100
AcDbTrace
 10
26.942008
 20
12.863832
 30
0.0
 11
26.942008
 21
13.01116799999999
 31
0.0
 12
26.5
 22
12.9375
 32
0.0
 13
26.5
 23
12.9375
 33
0.0
  0
TEXT
  5
10A
330
3C
100
AcDbEntity
  8
CDIM
100
AcDbText
 10
27.464208
 20
12.679662
 30
0.0
 40
0.5156760000000001
  1
3.50
  7
STR
100
AcDbText
  0
LINE
  5
10B
330
3C
100
AcDbEntity
  8
CDIM
100
AcDbLine
 10
9.5
 20
15.769788
 30
0.0
 11
9.5
 21
14.855994
 31
0.0
  0
LINE
  5
10C
330
3C
100
AcDbEntity
  8
CDIM
100
AcDbLine
 10
12.3125
 20
16.354788
 30
0.0
 11
12.3125
 21
14.855994
 31
0.0
  0
LINE
  5
10D
330
3C
100
AcDbEntity
  8
CDIM
100
AcDbLine
 10
12.75450799999999
 20
15.1875
 30
0.0
 11
13.196516
 21
15.1875
 31
0.0
  0
LINE
  5
10E
330
3C
100
AcDbEntity
  8
CDIM
100
AcDbLine
 10
9.057992
 20
15.1875
 30
0.0
 11
8.615983999999999
 21
15.1875
 31
0.0
  0
SOLID
  5
10F
330
3C
100
AcDbEntity
  8
CDIM
100
AcDbTrace
 10
12.75450799999999
 20
15.113832
 30
0.0
 11
12.75450799999999
 21
15.261168
 31
0.0
 12
12.3125
 22
15.1875
 32
0.0
 13
12.3125
 23
15.1875
 33
0.0
  0
SOLID
  5
110
330
3C
100
AcDbEntity
  8
CDIM
100
AcDbTrace
 10
9.057992
 20
15.113832
 30
0.0
 11
9.057992
 21
15.261168
 31
0.0
 12
9.5
 22
15.1875
 32
0.0
 13
9.5
 23
15.1875
 33
0.0
  0
TEXT
  5
111
330
3C
100
AcDbEntity
  8
CDIM
100
AcDbText
 10
10.263524
 20
14.92966199999999
 30
0.0
 40
0.5156760000000001
  1
2.81
  7
STR
100
AcDbText
  0
LINE
  5
112
330
3C
100
AcDbEntity
  8
CDIM
100
AcDbLine
 10
9.269788
 20
18.5
 30
0.0
 11
8.043494
 21
18.5
 31
0.0
  0
LINE
  5
113
330
3C
100
AcDbEntity
  8
CDIM
100
AcDbLine
 10
11.644788
 20
17.125
 30
0.0
 11
8.043494
 21
17.125
 31
0.0
  0
LINE
  5
114
330
3C
100
AcDbEntity
  8
CDIM
100
AcDbLine
 10
8.375
 20
16.682992
 30
0.0
 11
8.375
 21
16.240984
 31
0.0
  0
LINE
  5
115
330
3C
100
AcDbEntity
  8
CDIM
100
AcDbLine
 10
8.375
 20
18.94200799999999
 30
0.0
 11
8.375
 21
19.38401599999999
 31
0.0
  0
SOLID
  5
116
330
3C
100
AcDbEntity
  8
CDIM
100
AcDbTrace
 10
8.448667999999999
 20
16.682992
 30
0.0
 11
8.301332
 21
16.682992
 31
0.0
 12
8.375
 22
17.125
 32
0.0
 13
8.375
 23
17.125
 33
0.0
  0
SOLID
  5
117
330
3C
100
AcDbEntity
  8
CDIM
100
AcDbTrace
 10
8.448667999999999
 20
18.94200799999999
 30
0.0
 11
8.301332
 21
18.94200799999999
 31
0.0
 12
8.375
 22
18.5
 32
0.0
 13
8.375
 23
18.5
 33
0.0
  0
TEXT
  5
118
330
3C
100
AcDbEntity
  8
CDIM
100
AcDbText
 10
7.705124
 20
17.51439599999999
 30
0.0
 40
0.5156760000000001
  1
1.87
  7
STR
100
AcDbText
  0
SOLID
  5
119
330
3C
100
AcDbEntity
  8
CDIM
100
AcDbTrace
 10
13.354326
 20
17.307373
 30
0.0
 11
13.33176799999999
 21
17.45297199999999
 31
0.0
 12
12.90625
 22
17.3125
 32
0.0
 13
12.90625
 23
17.3125
 33
0.0
  0
LINE
  5
11A
330
3C
100
AcDbEntity
  8
CDIM
100
AcDbLine
 10
13.343047
 20
17.380173
 30
0.0
 11
15.125
 21
17.65625
 31
0.0
  0
LINE
  5
11B
330
3C
100
AcDbEntity
  8
CDIM
100
AcDbLine
 10
15.125
 20
17.65625
 30
0.0
 11
15.5
 21
17.65625
 31
0.0
  0
TEXT
  5
11C
330
3C
100
AcDbEntity
  8
CDIM
100
AcDbText
 10
15.942008
 20
17.398412
 30
0.0
 40
0.5156760000000001
  1
Relief valve cavity
  7
STR
100
AcDbText
  0
LINE
  5
11D
330
3C
100
AcDbEntity
  8
CDIM
100
AcDbLine
 10
24.59375
 20
10.53125
 30
0.0
 11
25.34375
 21
10.53125
 31
0.0
  0
LINE
  5
11E
330
3C
100
AcDbEntity
  8
CDIM
100
AcDbLine
 10
22.0
 20
12.230213
 30
0.0
 11
22.0
 21
13.269006
 31
0.0
  0
LINE
  5
11F
330
3C
100
AcDbEntity
  8
CDIM
100
AcDbLine
 10
20.75
 20
7.386463
 30
0.0
 11
20.75
 21
13.269006
 31
0.0
  0
LINE
  5
120
330
3C
100
AcDbEntity
  8
CDIM
100
AcDbLine
 10
20.307992
 20
12.9375
 30
0.0
 11
19.865984
 21
12.9375
 31
0.0
  0
LINE
  5
121
330
3C
100
AcDbEntity
  8
CDIM
100
AcDbLine
 10
22.44200799999999
 20
12.9375
 30
0.0
 11
22.88401599999999
 21
12.9375
 31
0.0
  0
SOLID
  5
122
330
3C
100
AcDbEntity
  8
CDIM
100
AcDbTrace
 10
20.307992
 20
12.863832
 30
0.0
 11
20.307992
 21
13.01116799999999
 31
0.0
 12
20.75
 22
12.9375
 32
0.0
 13
20.75
 23
12.9375
 33
0.0
  0
SOLID
  5
123
330
3C
100
AcDbEntity
  8
CDIM
100
AcDbTrace
 10
22.44200799999999
 20
12.863832
 30
0.0
 11
22.44200799999999
 21
13.01116799999999
 31
0.0
 12
22.0
 22
12.9375
 32
0.0
 13
22.0
 23
12.9375
 33
0.0
  0
TEXT
  5
124
330
3C
100
AcDbEntity
  8
CDIM
100
AcDbText
 10
17.852392
 20
12.679662
 30
0.0
 40
0.5156760000000001
  1
1.25
  7
STR
100
AcDbText
  0
LINE
  5
125
330
3C
100
AcDbEntity
  8
CDIM
100
AcDbLine
 10
22.0
 20
12.230213
 30
0.0
 11
22.0
 21
14.374026
 31
0.0
  0
LINE
  5
126
330
3C
100
AcDbEntity
  8
CDIM
100
AcDbLine
 10
20.0625
 20
11.417713
 30
0.0
 11
20.0625
 21
12.59375
 31
0.0
  0
LINE
  5
127
330
3C
100
AcDbEntity
  8
CDIM
100
AcDbLine
 10
19.620492
 20
14.04252
 30
0.0
 11
19.178484
 21
14.04252
 31
0.0
  0
LINE
  5
128
330
3C
100
AcDbEntity
  8
CDIM
100
AcDbLine
 10
22.44200799999999
 20
14.04252
 30
0.0
 11
22.88401599999999
 21
14.04252
 31
0.0
  0
SOLID
  5
129
330
3C
100
AcDbEntity
  8
CDIM
100
AcDbTrace
 10
19.620492
 20
13.96885199999999
 30
0.0
 11
19.620492
 21
14.116188
 31
0.0
 12
20.0625
 22
14.04252
 32
0.0
 13
20.0625
 23
14.04252
 33
0.0
  0
SOLID
  5
12A
330
3C
100
AcDbEntity
  8
CDIM
100
AcDbTrace
 10
22.44200799999999
 20
13.96885199999999
 30
0.0
 11
22.44200799999999
 21
14.116188
 31
0.0
 12
22.0
 22
14.04252
 32
0.0
 13
22.0
 23
14.04252
 33
0.0
  0
TEXT
  5
12B
330
3C
100
AcDbEntity
  8
CDIM
100
AcDbText
 10
17.23856
 20
13.784682
 30
0.0
 40
0.5156760000000001
  1
1.87
  7
STR
100
AcDbText
  0
LINE
  5
12C
330
3C
100
AcDbEntity
  8
CDIM
100
AcDbLine
 10
20.0625
 20
13.3125
 30
0.0
 11
20.0625
 21
14.374026
 31
0.0
  0
LINE
  5
12D
330
3C
100
AcDbEntity
  8
CDIM
100
AcDbLine
 10
6.0
 20
13.40625
 30
0.0
 11
6.0
 21
13.625
 31
0.0
  0
LINE
  5
12E
330
3C
100
AcDbEntity
  8
CDIM
100
AcDbLine
 10
6.0
 20
14.46875
 30
0.0
 11
6.0
 21
15.47904599999999
 31
0.0
  0
LWPOLYLINE
  5
12F
330
3C
100
AcDbEntity
  8
BORDER
100
AcDbPolyline
 90
        4
 70
     1
 43
0.0
 10
3.0
 20
12.0
 10
6.0
 20
12.0
 10
6.0
 20
6.0
 10
3.0
 20
6.0
  0
LWPOLYLINE
  5
135
330
3C
100
AcDbEntity
  8
BORDER
100
AcDbPolyline
 90
        4
 70
     1
 43
0.0
 10
9.5
 20
18.5
 10
14.0
 20
18.5
 10
14.0
 20
16.0
 10
9.5
 20
16.0
  0
LWPOLYLINE
  5
13B
330
3C
100
AcDbEntity
  8
BORDER
100
AcDbPolyline
 90
        4
 70
     1
 43
0.0
 10
9.5
 20
12.0
 10
14.0
 20
12.0
 10
14.0
 20
6.0
 10
9.5
 20
6.0
  0
LWPOLYLINE
  5
141
330
3C
100
AcDbEntity
  8
BORDER
100
AcDbPolyline
 90
        4
 70
     1
 43
0.0
 10
19.0
 20
12.0
 10
22.0
 20
12.0
 10
22.0
 20
6.0
 10
19.0
 20
6.0
  0
LWPOLYLINE
  5
147
330
3C
100
AcDbEntity
  8
BORDER
100
AcDbPolyline
 90
        4
 70
     1
 43
0.0
 10
25.5
 20
12.0
 10
30.0
 20
12.0
 10
30.0
 20
6.0
 10
25.5
 20
6.0
  0
ENDBLK
  5
14D
330
3C
100
AcDbEntity
  8
0
100
AcDbBlockEnd
  0
BLOCK
  5
14E
330
3E
100
AcDbEntity
  8
0
100
AcDbBlockBegin
  2
131SAET
 70
     0
 10
5.0
 20
5.0
 30
0.0
  3
131SAET
  1

  0
CIRCLE
  5
14F
330
3E
100
AcDbEntity
  8
CSOLID
100
AcDbCircle
 10
5.0
 20
5.0
 30
0.0
 40
0.6125
  0
CIRCLE
  5
150
330
3E
100
AcDbEntity
  8
CSOLID
100
AcDbCircle
 10
5.0
 20
5.0
 30
0.0
 40
0.5620000000000001
  0
CIRCLE
  5
151
330
3E
100
AcDbEntity
  8
CSOLID
100
AcDbCircle
 10
5.0
 20
5.0
 30
0.0
 40
1.0
  0
INSERT
  5
152
330
3E
100
AcDbEntity
  8
CCENTER
100
AcDbBlockReference
  2
100CROSS
 10
5.0
 20
5.0
 30
0.0
 41
1.6
 42
1.6
  0
CIRCLE
  5
153
330
3E
100
AcDbEntity
  8
CHIDDEN
100
AcDbCircle
 10
5.0
 20
5.0
 30
0.0
 40
0.65625
  0
ENDBLK
  5
154
330
3E
100
AcDbEntity
  8
0
100
AcDbBlockEnd
  0
BLOCK
  5
161
330
41
100
AcDbEntity
  8
0
100
AcDbBlockBegin
  2
056SAET
 70
     0
 10
11.75
 20
9.75
 30
0.0
  3
056SAET
  1

  0
INSERT
  5
162
330
41
100
AcDbEntity
  8
CCENTER
100
AcDbBlockReference
  2
100CROSS
 10
11.75
 20
9.75
 30
0.0
  0
CIRCLE
  5
163
330
41
100
AcDbEntity
  8
CHIDDEN
100
AcDbCircle
 10
11.75
 20
9.75
 30
0.0
 40
0.28125
  0
CIRCLE
  5
164
330
41
100
AcDbEntity
  8
CSOLID
100
AcDbCircle
 10
11.75
 20
9.75
 30
0.0
 40
0.5
  0
CIRCLE
  5
165
330
41
100
AcDbEntity
  8
CSOLID
100
AcDbCircle
 10
11.75
 20
9.75
 30
0.0
 40
0.25
  0
ENDBLK
  5
166
330
41
100
AcDbEntity
  8
0
100
AcDbBlockEnd
  0
BLOCK
  5
155
330
46
100
AcDbEntity
  8
0
100
AcDbBlockBegin
  2
100CROSS
 70
     0
 10
5.625
 20
4.59375
 30
0.0
  3
100CROSS
  1

  0
INSERT
  5
157
330
46
100
AcDbEntity
  8
0
100
AcDbBlockReference
  2
050CROSS
 10
5.625
 20
4.59375
 30
0.0
  0
ENDBLK
  5
158
330
46
100
AcDbEntity
  8
0
100
AcDbBlockEnd
  0
BLOCK
  5
159
330
156
100
AcDbEntity
  8
0
100
AcDbBlockBegin
  2
050CROSS
 70
     0
 10
5.0
 20
5.0
 30
0.0
  3
050CROSS
  1

  0
LINE
  5
15A
330
156
100
AcDbEntity
  8
0
100
AcDbLine
 10
5.0
 20
5.28125
 30
0.0
 11
5.0
 21
5.78125
 31
0.0
  0
LINE
  5
15B
330
156
100
AcDbEntity
  8
0
100
AcDbLine
 10
5.0
 20
4.875
 30
0.0
 11
5.0
 21
5.125
 31
0.0
  0
LINE
  5
15C
330
156
100
AcDbEntity
  8
0
100
AcDbLine
 10
5.0
 20
4.15625
 30
0.0
 11
5.0
 21
4.71875
 31
0.0
  0
LINE
  5
15D
330
156
100
AcDbEntity
  8
0
100
AcDbLine
 10
5.25
 20
5.0
 30
0.0
 11
5.8125
 21
5.0
 31
0.0
  0
LINE
  5
15E
330
156
100
AcDbEntity
  8
0
100
AcDbLine
 10
4.90625
 20
5.0
 30
0.0
 11
5.09375
 21
5.0
 31
0.0
  0
LINE
  5
15F
330
156
100
AcDbEntity
  8
0
100
AcDbLine
 10
4.1875
 20
5.0
 30
0.0
 11
4.75
 21
5.0
 31
0.0
  0
ENDBLK
  5
160
330
156
100
AcDbEntity
  8
0
100
AcDbBlockEnd
  0
BLOCK
  5
168
330
167
100
AcDbEntity
  8
0
100
AcDbBlockBegin
  2
3
 70
     0
 10
30.0625
 20
12.375
 30
0.0
  3
3
  1

  0
LINE
  5
169
330
167
100
AcDbEntity
  8
0
100
AcDbLine
 10
30.0865
 20
12.375
 30
0.0
 11
36.0865
 21
18.375
 31
0.0
  0
LINE
  5
16A
330
167
100
AcDbEntity
  8
0
100
AcDbLine
 10
30.0865
 20
12.375
 30
0.0
 11
29.0865
 21
12.375
 31
0.0
  0
ARC
  5
16B
330
167
100
AcDbEntity
  8
0
100
AcDbCircle
 10
29.0865
 20
15.375
 30
0.0
 40
3.0
100
AcDbArc
 50
90.0
 51
270.0
  0
LINE
  5
16C
330
167
100
AcDbEntity
  8
0
100
AcDbLine
 10
29.0865
 20
18.375
 30
0.0
 11
36.0865
 21
18.375
 31
0.0
  0
ENDBLK
  5
16D
330
167
100
AcDbEntity
  8
0
100
AcDbBlockEnd
  0
BLOCK
  5
16F
330
16E
100
AcDbEntity
  8
0
100
AcDbBlockBegin
  2
16SAET
 70
     0
 10
0.0
 20
0.0
 30
0.0
  3
16SAET
  1

  0
CIRCLE
  5
170
330
16E
100
AcDbEntity
  8
DAMAN
100
AcDbCircle
 10
0.0
 20
0.0
 30
0.0
 40
0.6125
  0
CIRCLE
  5
171
330
16E
100
AcDbEntity
  8
DAMAN
100
AcDbCircle
 10
0.0
 20
0.0
 30
0.0
 40
0.5620000000000001
  0
CIRCLE
  5
172
330
16E
100
AcDbEntity
  8
DAMAN
100
AcDbCircle
 10
0.0
 20
0.0
 30
0.0
 40
1.0
  0
INSERT
  5
173
330
16E
100
AcDbEntity
  8
DAMAN
100
AcDbBlockReference
  2
100CROSS
 10
0.0
 20
0.0
 30
0.0
 41
1.6
 42
1.6
  0
CIRCLE
  5
174
330
16E
100
AcDbEntity
  8
DAMAN
100
AcDbCircle
 10
0.0
 20
0.0
 30
0.0
 40
0.65625
  0
ENDBLK
  5
175
330
16E
100
AcDbEntity
  8
0
100
AcDbBlockEnd
  0
BLOCK
  5
177
330
176
100
AcDbEntity
  8
0
100
AcDbBlockBegin
  2
06SAET
 70
     0
 10
0.0
 20
0.0
 30
0.0
  3
06SAET
  1

  0
INSERT
  5
178
330
176
100
AcDbEntity
  8
DAMAN
100
AcDbBlockReference
  2
100CROSS
 10
0.0
 20
0.0
 30
0.0
  0
CIRCLE
  5
179
330
176
100
AcDbEntity
  8
DAMAN
100
AcDbCircle
 10
0.0
 20
0.0
 30
0.0
 40
0.28125
  0
CIRCLE
  5
17A
330
176
100
AcDbEntity
  8
DAMAN
100
AcDbCircle
 10
0.0
 20
0.0
 30
0.0
 40
0.5
  0
CIRCLE
  5
17B
330
176
100
AcDbEntity
  8
DAMAN
100
AcDbCircle
 10
0.0
 20
0.0
 30
0.0
 40
0.25
  0
ENDBLK
  5
17C
330
176
100
AcDbEntity
  8
0
100
AcDbBlockEnd
  0
BLOCK
  5
17E
330
17D
100
AcDbEntity
  8
0
100
AcDbBlockBegin
  2
025NPTFT
 70
     0
 10
0.0
 20
0.0
 30
0.0
  3
025NPTFT
  1

  0
INSERT
  5
180
330
17D
100
AcDbEntity
  8
DAMAN
100
AcDbBlockReference
  2
250NPTFT
 10
0.0
 20
0.0
 30
0.0
  0
ENDBLK
  5
181
330
17D
100
AcDbEntity
  8
0
100
AcDbBlockEnd
  0
BLOCK
  5
18C
330
17F
100
AcDbEntity
  8
0
100
AcDbBlockBegin
  2
250NPTFT
 70
     0
 10
0.0
 20
0.0
 30
0.0
  3
250NPTFT
  1

  0
CIRCLE
  5
18D
330
17F
100
AcDbEntity
  8
DAMAN
100
AcDbCircle
 10
0.0
 20
0.0
 30
0.0
 40
0.273
  0
CIRCLE
  5
18E
330
17F
100
AcDbEntity
  8
DAMAN
100
AcDbCircle
 10
0.0
 20
0.0
 30
0.0
 40
0.211
  0
INSERT
  5
18F
330
17F
100
AcDbEntity
  8
DAMAN
100
AcDbBlockReference
  2
100CROSS
 10
0.0
 20
0.0
 30
0.0
 41
0.4220000000000001
 42
0.4220000000000001
  0
CIRCLE
  5
190
330
17F
100
AcDbEntity
  8
DAMAN
100
AcDbCircle
 10
0.0
 20
0.0
 30
0.0
 40
0.242251
  0
POINT
  5
191
330
17F
100
AcDbEntity
  8
CHIDDEN
100
AcDbPoint
 10
-0.087928
 20
0.191806
 30
0.0
  0
POINT
  5
192
330
17F
100
AcDbEntity
  8
CHIDDEN
100
AcDbPoint
 10
-0.137717
 20
-0.15986
 30
0.0
  0
POINT
  5
193
330
17F
100
AcDbEntity
  8
CHIDDEN
100
AcDbPoint
 10
0.202707
 20
-0.058572
 30
0.0
  0
ENDBLK
  5
194
330
17F
100
AcDbEntity
  8
0
100
AcDbBlockEnd
  0
BLOCK
  5
183
330
182
100
AcDbEntity
  8
0
100
AcDbBlockBegin
  2
T3AT
 70
     0
 10
0.0
 20
0.0
 30
0.0
  3
T3AT
  1

  0
CIRCLE
  5
184
330
182
100
AcDbEntity
  8
DAMAN
100
AcDbCircle
 10
0.0
 20
0.0
 30
0.0
 40
0.4665
  0
CIRCLE
  5
185
330
182
100
AcDbEntity
  8
DAMAN
100
AcDbCircle
 10
0.0
 20
0.0
 30
0.0
 40
0.4375
  0
CIRCLE
  5
186
330
182
100
AcDbEntity
  8
DAMAN
  6
HIDDEN
100
AcDbCircle
 10
0.0
 20
0.0
 30
0.0
 40
0.5
  0
INSERT
  5
187
330
182
100
AcDbEntity
  8
DAMAN
100
AcDbBlockReference
  2
100CROSS
 10
0.0
 20
0.0
 30
0.0
 41
0.88
 42
0.88
  0
CIRCLE
  5
188
330
182
100
AcDbEntity
  8
DAMAN
100
AcDbCircle
 10
0.0
 20
0.0
 30
0.0
 40
0.5160000000000001
  0
CIRCLE
  5
189
330
182
100
AcDbEntity
  8
DAMAN
100
AcDbCircle
 10
0.0
 20
0.0
 30
0.0
 40
0.5390000000000001
  0
CIRCLE
  5
18A
330
182
100
AcDbEntity
  8
DAMAN
100
AcDbCircle
 10
0.0
 20
0.0
 30
0.0
 40
0.3439999999999999
  0
ENDBLK
  5
18B
330
182
100
AcDbEntity
  8
0
100
AcDbBlockEnd
  0
BLOCK
  5
196
330
195
100
AcDbEntity
  8
0
100
AcDbBlockBegin
  2
125NPTFT
 70
     0
 10
0.0
 20
0.0
 30
0.0
  3
125NPTFT
  1

  0
CIRCLE
  5
197
330
195
100
AcDbEntity
  8
DAMAN
100
AcDbCircle
 10
0.0
 20
0.0
 30
0.0
 40
0.8440000000000001
  0
CIRCLE
  5
198
330
195
100
AcDbEntity
  8
DAMAN
100
AcDbCircle
 10
0.0
 20
0.0
 30
0.0
 40
0.7265000000000001
  0
INSERT
  5
199
330
195
100
AcDbEntity
  8
DAMAN
100
AcDbBlockReference
  2
100CROSS
 10
0.0
 20
0.0
 30
0.0
 41
1.399999999999999
 42
1.399999999999999
  0
CIRCLE
  5
19A
330
195
100
AcDbEntity
  8
DAMAN
100
AcDbCircle
 10
0.0
 20
0.0
 30
0.0
 40
0.78125
  0
ENDBLK
  5
19B
330
195
100
AcDbEntity
  8
0
100
AcDbBlockEnd
  0
BLOCK
  5
19D
330
19C
100
AcDbEntity
  8
0
100
AcDbBlockBegin
  2
C162T
 70
     0
 10
0.0
 20
0.0
 30
0.0
  3
C162T
  1

  0
CIRCLE
  5
19E
330
19C
100
AcDbEntity
  8
DAMAN
100
AcDbCircle
 10
0.0
 20
0.0
 30
0.0
 40
0.375
  0
CIRCLE
  5
19F
330
19C
100
AcDbEntity
  8
DAMAN
100
AcDbCircle
 10
0.0
 20
0.0
 30
0.0
 40
0.5635
  0
CIRCLE
  5
1A0
330
19C
100
AcDbEntity
  8
DAMAN
100
AcDbCircle
 10
0.0
 20
0.0
 30
0.0
 40
0.617
  0
CIRCLE
  5
1A1
330
19C
100
AcDbEntity
  8
DAMAN
100
AcDbCircle
 10
0.0
 20
0.0
 30
0.0
 40
0.7005
  0
CIRCLE
  5
1A2
330
19C
100
AcDbEntity
  8
DAMAN
100
AcDbCircle
 10
0.0
 20
0.0
 30
0.0
 40
0.875
  0
CIRCLE
  5
1A3
330
19C
100
AcDbEntity
  8
DAMAN
  6
HIDDEN
100
AcDbCircle
 10
0.0
 20
0.0
 30
0.0
 40
0.6559999999999999
  0
INSERT
  5
1A4
330
19C
100
AcDbEntity
  8
DAMAN
100
AcDbBlockReference
  2
100CROSS
 10
0.0
 20
0.0
 30
0.0
 41
1.32
 42
1.32
 43
1.5
  0
ENDBLK
  5
1A5
330
19C
100
AcDbEntity
  8
0
100
AcDbBlockEnd
  0
BLOCK
  5
1A7
330
1A6
100
AcDbEntity
  8
0
100
AcDbBlockBegin
  2
20SAET
 70
     0
 10
0.0
 20
0.0
 30
0.0
  3
20SAET
  1

  0
INSERT
  5
1A8
330
1A6
100
AcDbEntity
  8
DAMAN
100
AcDbBlockReference
  2
100CROSS
 10
0.0
 20
0.0
 30
0.0
 41
1.7
 42
1.7
  0
CIRCLE
  5
1A9
330
1A6
100
AcDbEntity
  8
DAMAN
100
AcDbCircle
 10
0.0
 20
0.0
 30
0.0
 40
0.8125
  0
CIRCLE
  5
1AA
330
1A6
100
AcDbEntity
  8
DAMAN
100
AcDbCircle
 10
0.0
 20
0.0
 30
0.0
 40
1.125
  0
CIRCLE
  5
1AB
330
1A6
100
AcDbEntity
  8
DAMAN
100
AcDbCircle
 10
0.0
 20
0.0
 30
0.0
 40
0.75
  0
ENDBLK
  5
1AC
330
1A6
100
AcDbEntity
  8
0
100
AcDbBlockEnd
  0
BLOCK
  5
1AE
330
1AD
100
AcDbEntity
  8
0
100
AcDbBlockBegin
  2
162SAET
 70
     0
 10
0.0
 20
0.0
 30
0.0
  3
162SAET
  1

  0
INSERT
  5
1AF
330
1AD
100
AcDbEntity
  8
CCENTER
100
AcDbBlockReference
  2
100CROSS
 10
0.0
 20
0.0
 30
0.0
 41
1.7
 42
1.7
  0
CIRCLE
  5
1B0
330
1AD
100
AcDbEntity
  8
CHIDDEN
100
AcDbCircle
 10
0.0
 20
0.0
 30
0.0
 40
0.8125
  0
CIRCLE
  5
1B1
330
1AD
100
AcDbEntity
  8
CSOLID
100
AcDbCircle
 10
0.0
 20
0.0
 30
0.0
 40
1.125
  0
CIRCLE
  5
1B2
330
1AD
100
AcDbEntity
  8
CSOLID
100
AcDbCircle
 10
0.0
 20
0.0
 30
0.0
 40
0.75
  0
CIRCLE
  5
1B3
330
1AD
100
AcDbEntity
  8
PHANTOM
100
AcDbCircle
 10
0.0
 20
0.0
 30
0.0
 40
1.084999999999999
  0
ENDBLK
  5
1B4
330
1AD
100
AcDbEntity
  8
0
100
AcDbBlockEnd
  0
BLOCK
  5
1B6
330
1B5
100
AcDbEntity
  8
0
100
AcDbBlockBegin
  2
M42T
 70
     0
 10
0.0
 20
0.0
 30
0.0
  3
M42T
  1

  0
CIRCLE
  5
1B7
330
1B5
100
AcDbEntity
  8
DAMAN
100
AcDbCircle
 10
0.0
 20
0.0
 30
0.0
 40
1.179999999999999
  0
CIRCLE
  5
1B8
330
1B5
100
AcDbEntity
  8
DAMAN
100
AcDbCircle
 10
0.0
 20
0.0
 30
0.0
 40
1.0235
  0
CIRCLE
  5
1B9
330
1B5
100
AcDbEntity
  8
DAMAN
100
AcDbCircle
 10
0.0
 20
0.0
 30
0.0
 40
0.8740000000000001
  0
CIRCLE
  5
1BA
330
1B5
100
AcDbEntity
  8
DAMAN
  6
HIDDEN
100
AcDbCircle
 10
0.0
 20
0.0
 30
0.0
 40
0.8265
  0
CIRCLE
  5
1BB
330
1B5
100
AcDbEntity
  8
DAMAN
100
AcDbCircle
 10
0.0
 20
0.0
 30
0.0
 40
0.7900000000000001
  0
CIRCLE
  5
1BC
330
1B5
100
AcDbEntity
  8
DAMAN
100
AcDbCircle
 10
0.0
 20
0.0
 30
0.0
 40
0.625
  0
INSERT
  5
1BD
330
1B5
100
AcDbEntity
  8
DAMAN
100
AcDbBlockReference
  2
100CROSS
 10
0.0
 20
0.0
 30
0.0
 41
1.75
 42
1.75
  0
ENDBLK
  5
1BE
330
1B5
100
AcDbEntity
  8
0
100
AcDbBlockEnd
  0
BLOCK
  5
1C0
330
1BF
100
AcDbEntity
  8
0
100
AcDbBlockBegin
  2
M14T
 70
     0
 10
0.0
 20
0.0
 30
0.0
  3
M14T
  1

  0
CIRCLE
  5
1C1
330
1BF
100
AcDbEntity
  8
DAMAN
  6
HIDDEN
100
AcDbCircle
 10
0.0
 20
0.0
 30
0.0
 40
0.2755
  0
CIRCLE
  5
1C2
330
1BF
100
AcDbEntity
  8
DAMAN
100
AcDbCircle
 10
0.0
 20
0.0
 30
0.0
 40
0.4920000000000001
  0
CIRCLE
  5
1C3
330
1BF
100
AcDbEntity
  8
DAMAN
100
AcDbCircle
 10
0.0
 20
0.0
 30
0.0
 40
0.413
  0
CIRCLE
  5
1C4
330
1BF
100
AcDbEntity
  8
DAMAN
100
AcDbCircle
 10
0.0
 20
0.0
 30
0.0
 40
0.311
  0
CIRCLE
  5
1C5
330
1BF
100
AcDbEntity
  8
DAMAN
100
AcDbCircle
 10
0.0
 20
0.0
 30
0.0
 40
0.25
  0
INSERT
  5
1C6
330
1BF
100
AcDbEntity
  8
DAMAN
100
AcDbBlockReference
  2
100CROSS
 10
0.0
 20
0.0
 30
0.0
 41
0.8259999999999999
 42
0.8259999999999999
  0
ENDBLK
  5
1C7
330
1BF
100
AcDbEntity
  8
0
100
AcDbBlockEnd
  0
BLOCK
  5
1C9
330
1C8
100
AcDbEntity
  8
0
100
AcDbBlockBegin
  2
T16AT
 70
     0
 10
0.0
 20
0.0
 30
0.0
  3
T16AT
  1

  0
CIRCLE
  5
1CA
330
1C8
100
AcDbEntity
  8
DAMAN
100
AcDbCircle
 10
0.0
 20
0.0
 30
0.0
 40
0.5
  0
CIRCLE
  5
1CB
330
1C8
100
AcDbEntity
  8
DAMAN
100
AcDbCircle
 10
0.0
 20
0.0
 30
0.0
 40
0.625
  0
CIRCLE
  5
1CC
330
1C8
100
AcDbEntity
  8
DAMAN
100
AcDbCircle
 10
0.0
 20
0.0
 30
0.0
 40
0.6720000000000001
  0
CIRCLE
  5
1CD
330
1C8
100
AcDbEntity
  8
DAMAN
100
AcDbCircle
 10
0.0
 20
0.0
 30
0.0
 40
0.72
  0
CIRCLE
  5
1CE
330
1C8
100
AcDbEntity
  8
DAMAN
100
AcDbCircle
 10
0.0
 20
0.0
 30
0.0
 40
0.7809999999999999
  0
CIRCLE
  5
1CF
330
1C8
100
AcDbEntity
  8
DAMAN
  6
HIDDEN
100
AcDbCircle
 10
0.0
 20
0.0
 30
0.0
 40
0.6875
  0
INSERT
  5
1D0
330
1C8
100
AcDbEntity
  8
DAMAN
100
AcDbBlockReference
  2
100CROSS
 10
0.0
 20
0.0
 30
0.0
 41
1.399999999999999
 42
1.399999999999999
  0
ENDBLK
  5
1D1
330
1C8
100
AcDbEntity
  8
0
100
AcDbBlockEnd
  0
BLOCK
  5
1D3
330
1D2
100
AcDbEntity
  8
0
100
AcDbBlockBegin
  2
S02
 70
     0
 10
0.0
 20
0.0
 30
0.0
  3
S02
  1

  0
CIRCLE
  5
1D4
330
1D2
100
AcDbEntity
  8
DAMAN
100
AcDbCircle
 10
2.0625
 20
2.1875
 30
0.0
 40
0.085
  0
CIRCLE
  5
1D5
330
1D2
100
AcDbEntity
  8
DAMAN
100
AcDbCircle
 10
2.375
 20
1.875
 30
0.0
 40
0.085
  0
CIRCLE
  5
1D6
330
1D2
100
AcDbEntity
  8
DAMAN
100
AcDbCircle
 10
2.6875
 20
2.1875
 30
0.0
 40
0.085
  0
CIRCLE
  5
1D7
330
1D2
100
AcDbEntity
  8
DAMAN
100
AcDbCircle
 10
2.375
 20
2.5
 30
0.0
 40
0.085
  0
CIRCLE
  5
1D8
330
1D2
100
AcDbEntity
  8
DAMAN
100
AcDbCircle
 10
3.214999999999999
 20
2.857499999999999
 30
0.0
 40
0.09375
  0
CIRCLE
  5
1D9
330
1D2
100
AcDbEntity
  8
DAMAN
100
AcDbCircle
 10
3.214999999999999
 20
2.857499999999999
 30
0.0
 40
0.078125
  0
INSERT
  5
1DA
330
1D2
100
AcDbEntity
  8
DAMAN
100
AcDbBlockReference
  2
100CROSS
 10
3.214999999999999
 20
2.857499999999999
 30
0.0
 41
0.1875
 42
0.1875
  0
CIRCLE
  5
1DB
330
1D2
100
AcDbEntity
  8
DAMAN
100
AcDbCircle
 10
1.534999999999999
 20
2.857499999999999
 30
0.0
 40
0.078125
  0
CIRCLE
  5
1DC
330
1D2
100
AcDbEntity
  8
DAMAN
100
AcDbCircle
 10
1.534999999999999
 20
2.857499999999999
 30
0.0
 40
0.09375
  0
INSERT
  5
1DD
330
1D2
100
AcDbEntity
  8
DAMAN
100
AcDbBlockReference
  2
100CROSS
 10
1.534999999999999
 20
2.857499999999999
 30
0.0
 41
0.1875
 42
0.1875
  0
CIRCLE
  5
1DE
330
1D2
100
AcDbEntity
  8
DAMAN
100
AcDbCircle
 10
1.534999999999999
 20
1.5175
 30
0.0
 40
0.078125
  0
CIRCLE
  5
1DF
330
1D2
100
AcDbEntity
  8
DAMAN
100
AcDbCircle
 10
1.534999999999999
 20
1.5175
 30
0.0
 40
0.09375
  0
INSERT
  5
1E0
330
1D2
100
AcDbEntity
  8
DAMAN
100
AcDbBlockReference
  2
100CROSS
 10
1.534999999999999
 20
1.5175
 30
0.0
 41
0.1875
 42
0.1875
  0
CIRCLE
  5
1E1
330
1D2
100
AcDbEntity
  8
DAMAN
100
AcDbCircle
 10
3.214999999999999
 20
1.5175
 30
0.0
 40
0.078125
  0
CIRCLE
  5
1E2
330
1D2
100
AcDbEntity
  8
DAMAN
100
AcDbCircle
 10
3.214999999999999
 20
1.5175
 30
0.0
 40
0.09375
  0
INSERT
  5
1E3
330
1D2
100
AcDbEntity
  8
DAMAN
100
AcDbBlockReference
  2
100CROSS
 10
3.214999999999999
 20
1.5175
 30
0.0
 41
0.1875
 42
0.1875
  0
INSERT
  5
1E4
330
1D2
100
AcDbEntity
  8
DAMAN
100
AcDbBlockReference
  2
100CROSS
 10
2.375
 20
2.5
 30
0.0
 41
0.1875
 42
0.1875
  0
INSERT
  5
1E5
330
1D2
100
AcDbEntity
  8
DAMAN
100
AcDbBlockReference
  2
100CROSS
 10
2.0625
 20
2.1875
 30
0.0
 41
0.1875
 42
0.1875
  0
INSERT
  5
1E6
330
1D2
100
AcDbEntity
  8
DAMAN
100
AcDbBlockReference
  2
100CROSS
 10
2.375
 20
1.875
 30
0.0
 41
0.1875
 42
0.1875
  0
INSERT
  5
1E7
330
1D2
100
AcDbEntity
  8
DAMAN
100
AcDbBlockReference
  2
100CROSS
 10
2.6875
 20
2.1875
 30
0.0
 41
0.1875
 42
0.1875
  0
CIRCLE
  5
1E8
330
1D2
100
AcDbEntity
  8
DAMAN
100
AcDbCircle
 10
2.765
 20
1.6875
 30
0.0
 40
0.08
  0
INSERT
  5
1E9
330
1D2
100
AcDbEntity
  8
DAMAN
100
AcDbBlockReference
  2
100CROSS
 10
2.765
 20
1.6875
 30
0.0
 41
0.1875
 42
0.1875
  0
ENDBLK
  5
1EA
330
1D2
100
AcDbEntity
  8
0
100
AcDbBlockEnd
  0
BLOCK
  5
1EC
330
1EB
100
AcDbEntity
  8
0
100
AcDbBlockBegin
  2
038THDT
 70
     0
 10
0.0
 20
0.0
 30
0.0
  3
038THDT
  1

  0
CIRCLE
  5
1ED
330
1EB
100
AcDbEntity
  8
DAMAN
100
AcDbCircle
 10
3.0
 20
6.375
 30
0.0
 40
0.1875
  0
CIRCLE
  5
1EE
330
1EB
100
AcDbEntity
  8
DAMAN
100
AcDbCircle
 10
3.0
 20
6.375
 30
0.0
 40
0.15625
  0
INSERT
  5
1EF
330
1EB
100
AcDbEntity
  8
DAMAN
100
AcDbBlockReference
  2
100CROSS
 10
3.0
 20
6.375
 30
0.0
 41
0.375
 42
0.375
  0
INSERT
  5
1F0
330
1EB
100
AcDbEntity
  8
DAMAN
100
AcDbBlockReference
  2
100CROSS
 10
5.75
 20
6.375
 30
0.0
 41
0.375
 42
0.375
  0
CIRCLE
  5
1F1
330
1EB
100
AcDbEntity
  8
DAMAN
100
AcDbCircle
 10
5.75
 20
6.375
 30
0.0
 40
0.1875
  0
CIRCLE
  5
1F2
330
1EB
100
AcDbEntity
  8
DAMAN
100
AcDbCircle
 10
5.75
 20
6.375
 30
0.0
 40
0.15625
  0
ENDBLK
  5
1F3
330
1EB
100
AcDbEntity
  8
0
100
AcDbBlockEnd
  0
BLOCK
  5
1F5
330
1F4
100
AcDbEntity
  8
0
100
AcDbBlockBegin
  2
038TOP
 70
     0
 10
0.0
 20
0.0
 30
0.0
  3
038TOP
  1

  0
CIRCLE
  5
1F6
330
1F4
100
AcDbEntity
  8
CHIDDEN
100
AcDbCircle
 10
0.0
 20
0.0
 30
0.0
 40
0.1875
  0
CIRCLE
  5
1F7
330
1F4
100
AcDbEntity
  8
CSOLID
100
AcDbCircle
 10
0.0
 20
0.0
 30
0.0
 40
0.15625
  0
INSERT
  5
1F8
330
1F4
100
AcDbEntity
  8
CCENTER
100
AcDbBlockReference
  2
100CROSS
 10
0.0
 20
0.0
 30
0.0
 41
0.375
 42
0.375
  0
ENDBLK
  5
1F9
330
1F4
100
AcDbEntity
  8
0
100
AcDbBlockEnd
  0
BLOCK
  5
1FB
330
1FA
100
AcDbEntity
  8
0
100
AcDbBlockBegin
  2
08SAET
 70
     0
 10
0.0
 20
0.0
 30
0.0
  3
08SAET
  1

  0
CIRCLE
  5
1FC
330
1FA
100
AcDbEntity
  8
DAMAN
100
AcDbCircle
 10
0.0
 20
0.0
 30
0.0
 40
0.375
  0
CIRCLE
  5
1FD
330
1FA
100
AcDbEntity
  8
DAMAN
100
AcDbCircle
 10
0.0
 20
0.0
 30
0.0
 40
0.3125
  0
CIRCLE
  5
1FE
330
1FA
100
AcDbEntity
  8
DAMAN
  6
HIDDEN
100
AcDbCircle
 10
0.0
 20
0.0
 30
0.0
 40
0.3439999999999999
  0
INSERT
  5
1FF
330
1FA
100
AcDbEntity
  8
DAMAN
100
AcDbBlockReference
  2
100CROSS
 10
0.0
 20
0.0
 30
0.0
 41
0.88
 42
0.88
  0
CIRCLE
  5
200
330
1FA
100
AcDbEntity
  8
DAMAN
100
AcDbCircle
 10
0.0
 20
0.0
 30
0.0
 40
0.594
  0
ENDBLK
  5
201
330
1FA
100
AcDbEntity
  8
0
100
AcDbBlockEnd
  0
BLOCK
  5
203
330
202
100
AcDbEntity
  8
0
100
AcDbBlockBegin
  2
M18T
 70
     0
 10
0.0
 20
0.0
 30
0.0
  3
M18T
  1

  0
CIRCLE
  5
204
330
202
100
AcDbEntity
  8
DAMAN
  6
HIDDEN
100
AcDbCircle
 10
0.0
 20
0.0
 30
0.0
 40
0.35433
  0
CIRCLE
  5
205
330
202
100
AcDbEntity
  8
DAMAN
100
AcDbCircle
 10
0.0
 20
0.0
 30
0.0
 40
0.38976
  0
CIRCLE
  5
206
330
202
100
AcDbEntity
  8
DAMAN
100
AcDbCircle
 10
0.0
 20
0.0
 30
0.0
 40
0.32555
  0
CIRCLE
  5
207
330
202
100
AcDbEntity
  8
DAMAN
100
AcDbCircle
 10
0.0
 20
0.0
 30
0.0
 40
0.5911
  0
INSERT
  5
208
330
202
100
AcDbEntity
  8
DAMAN
100
AcDbBlockReference
  2
100CROSS
 10
0.0
 20
0.0
 30
0.0
 41
0.88
 42
0.88
  0
CIRCLE
  5
209
330
202
100
AcDbEntity
  8
DAMAN
100
AcDbCircle
 10
0.0
 20
0.0
 30
0.0
 40
0.51181
  0
ENDBLK
  5
20A
330
202
100
AcDbEntity
  8
0
100
AcDbBlockEnd
  0
BLOCK
  5
20C
330
20B
100
AcDbEntity
  8
0
100
AcDbBlockBegin
  2
S03
 70
     0
 10
0.0
 20
0.0
 30
0.0
  3
S03
  1

  0
CIRCLE
  5
20D
330
20B
100
AcDbEntity
  8
DAMAN
100
AcDbCircle
 10
3.214999999999999
 20
2.857499999999999
 30
0.0
 40
0.09375
  0
CIRCLE
  5
20E
330
20B
100
AcDbEntity
  8
DAMAN
100
AcDbCircle
 10
3.214999999999999
 20
2.857499999999999
 30
0.0
 40
0.078125
  0
INSERT
  5
20F
330
20B
100
AcDbEntity
  8
DAMAN
100
AcDbBlockReference
  2
100CROSS
 10
3.214999999999999
 20
2.857499999999999
 30
0.0
 41
0.1875
 42
0.1875
  0
CIRCLE
  5
210
330
20B
100
AcDbEntity
  8
DAMAN
100
AcDbCircle
 10
1.534999999999999
 20
2.857499999999999
 30
0.0
 40
0.078125
  0
CIRCLE
  5
211
330
20B
100
AcDbEntity
  8
DAMAN
100
AcDbCircle
 10
1.534999999999999
 20
2.857499999999999
 30
0.0
 40
0.09375
  0
INSERT
  5
212
330
20B
100
AcDbEntity
  8
DAMAN
100
AcDbBlockReference
  2
100CROSS
 10
1.534999999999999
 20
2.857499999999999
 30
0.0
 41
0.1875
 42
0.1875
  0
CIRCLE
  5
213
330
20B
100
AcDbEntity
  8
DAMAN
100
AcDbCircle
 10
1.534999999999999
 20
1.5175
 30
0.0
 40
0.078125
  0
CIRCLE
  5
214
330
20B
100
AcDbEntity
  8
DAMAN
100
AcDbCircle
 10
1.534999999999999
 20
1.5175
 30
0.0
 40
0.09375
  0
INSERT
  5
215
330
20B
100
AcDbEntity
  8
DAMAN
100
AcDbBlockReference
  2
100CROSS
 10
1.534999999999999
 20
1.5175
 30
0.0
 41
0.1875
 42
0.1875
  0
CIRCLE
  5
216
330
20B
100
AcDbEntity
  8
DAMAN
100
AcDbCircle
 10
3.214999999999999
 20
1.5175
 30
0.0
 40
0.078125
  0
CIRCLE
  5
217
330
20B
100
AcDbEntity
  8
DAMAN
100
AcDbCircle
 10
3.214999999999999
 20
1.5175
 30
0.0
 40
0.09375
  0
INSERT
  5
218
330
20B
100
AcDbEntity
  8
DAMAN
100
AcDbBlockReference
  2
100CROSS
 10
3.214999999999999
 20
1.5175
 30
0.0
 41
0.1875
 42
0.1875
  0
INSERT
  5
219
330
20B
100
AcDbEntity
  8
DAMAN
100
AcDbBlockReference
  2
100CROSS
 10
2.375
 20
2.5775
 30
0.0
 41
0.234375
 42
0.234375
  0
INSERT
  5
21A
330
20B
100
AcDbEntity
  8
DAMAN
100
AcDbBlockReference
  2
100CROSS
 10
1.985
 20
2.1875
 30
0.0
 41
0.234375
 42
0.234375
  0
INSERT
  5
21B
330
20B
100
AcDbEntity
  8
DAMAN
100
AcDbBlockReference
  2
100CROSS
 10
2.375
 20
1.7975
 30
0.0
 41
0.234375
 42
0.234375
  0
INSERT
  5
21C
330
20B
100
AcDbEntity
  8
DAMAN
100
AcDbBlockReference
  2
100CROSS
 10
2.765
 20
2.1875
 30
0.0
 41
0.234375
 42
0.234375
  0
CIRCLE
  5
21D
330
20B
100
AcDbEntity
  8
DAMAN
100
AcDbCircle
 10
2.834999999999999
 20
1.6875
 30
0.0
 40
0.08
  0
INSERT
  5
21E
330
20B
100
AcDbEntity
  8
DAMAN
100
AcDbBlockReference
  2
100CROSS
 10
2.834999999999999
 20
1.6875
 30
0.0
 41
0.1875
 42
0.1875
  0
CIRCLE
  5
21F
330
20B
100
AcDbEntity
  8
DAMAN
100
AcDbCircle
 10
2.765
 20
2.1875
 30
0.0
 40
0.155
  0
CIRCLE
  5
220
330
20B
100
AcDbEntity
  8
DAMAN
100
AcDbCircle
 10
1.985
 20
2.1875
 30
0.0
 40
0.155
  0
CIRCLE
  5
221
330
20B
100
AcDbEntity
  8
DAMAN
100
AcDbCircle
 10
2.375
 20
1.7975
 30
0.0
 40
0.155
  0
CIRCLE
  5
222
330
20B
100
AcDbEntity
  8
DAMAN
100
AcDbCircle
 10
2.375
 20
2.5775
 30
0.0
 40
0.155
  0
ENDBLK
  5
223
330
20B
100
AcDbEntity
  8
0
100
AcDbBlockEnd
  0
BLOCK
  5
225
330
224
100
AcDbEntity
  8
0
100
AcDbBlockBegin
  2
S71
 70
     0
 10
0.0
 20
0.0
 30
0.0
  3
S71
  1

  0
CIRCLE
  5
226
330
224
100
AcDbEntity
  8
DAMAN
100
AcDbCircle
 10
3.214999999999999
 20
2.857499999999999
 30
0.0
 40
0.09375
  0
CIRCLE
  5
227
330
224
100
AcDbEntity
  8
DAMAN
100
AcDbCircle
 10
3.214999999999999
 20
2.857499999999999
 30
0.0
 40
0.078125
  0
INSERT
  5
228
330
224
100
AcDbEntity
  8
DAMAN
100
AcDbBlockReference
  2
100CROSS
 10
3.214999999999999
 20
2.857499999999999
 30
0.0
 41
0.1875
 42
0.1875
  0
CIRCLE
  5
229
330
224
100
AcDbEntity
  8
DAMAN
100
AcDbCircle
 10
1.534999999999999
 20
2.857499999999999
 30
0.0
 40
0.078125
  0
CIRCLE
  5
22A
330
224
100
AcDbEntity
  8
DAMAN
100
AcDbCircle
 10
1.534999999999999
 20
2.857499999999999
 30
0.0
 40
0.09375
  0
INSERT
  5
22B
330
224
100
AcDbEntity
  8
DAMAN
100
AcDbBlockReference
  2
100CROSS
 10
1.534999999999999
 20
2.857499999999999
 30
0.0
 41
0.1875
 42
0.1875
  0
CIRCLE
  5
22C
330
224
100
AcDbEntity
  8
DAMAN
100
AcDbCircle
 10
1.534999999999999
 20
1.5175
 30
0.0
 40
0.078125
  0
CIRCLE
  5
22D
330
224
100
AcDbEntity
  8
DAMAN
100
AcDbCircle
 10
1.534999999999999
 20
1.5175
 30
0.0
 40
0.09375
  0
INSERT
  5
22E
330
224
100
AcDbEntity
  8
DAMAN
100
AcDbBlockReference
  2
100CROSS
 10
1.534999999999999
 20
1.5175
 30
0.0
 41
0.1875
 42
0.1875
  0
CIRCLE
  5
22F
330
224
100
AcDbEntity
  8
DAMAN
100
AcDbCircle
 10
3.214999999999999
 20
1.5175
 30
0.0
 40
0.078125
  0
CIRCLE
  5
230
330
224
100
AcDbEntity
  8
DAMAN
100
AcDbCircle
 10
3.214999999999999
 20
1.5175
 30
0.0
 40
0.09375
  0
INSERT
  5
231
330
224
100
AcDbEntity
  8
DAMAN
100
AcDbBlockReference
  2
100CROSS
 10
3.214999999999999
 20
1.5175
 30
0.0
 41
0.1875
 42
0.1875
  0
INSERT
  5
232
330
224
100
AcDbEntity
  8
DAMAN
100
AcDbBlockReference
  2
100CROSS
 10
2.375
 20
2.5775
 30
0.0
 41
0.234375
 42
0.234375
  0
INSERT
  5
233
330
224
100
AcDbEntity
  8
DAMAN
100
AcDbBlockReference
  2
100CROSS
 10
1.985
 20
2.1875
 30
0.0
 41
0.234375
 42
0.234375
  0
INSERT
  5
234
330
224
100
AcDbEntity
  8
DAMAN
100
AcDbBlockReference
  2
100CROSS
 10
2.375
 20
1.7975
 30
0.0
 41
0.234375
 42
0.234375
  0
INSERT
  5
235
330
224
100
AcDbEntity
  8
DAMAN
100
AcDbBlockReference
  2
100CROSS
 10
2.765
 20
2.1875
 30
0.0
 41
0.234375
 42
0.234375
  0
CIRCLE
  5
236
330
224
100
AcDbEntity
  8
DAMAN
100
AcDbCircle
 10
2.765
 20
1.6875
 30
0.0
 40
0.08
  0
INSERT
  5
237
330
224
100
AcDbEntity
  8
DAMAN
100
AcDbBlockReference
  2
100CROSS
 10
2.765
 20
1.6875
 30
0.0
 41
0.1875
 42
0.1875
  0
CIRCLE
  5
238
330
224
100
AcDbEntity
  8
DAMAN
100
AcDbCircle
 10
1.945
 20
1.577499999999999
 30
0.0
 40
0.08
  0
INSERT
  5
239
330
224
100
AcDbEntity
  8
DAMAN
100
AcDbBlockReference
  2
100CROSS
 10
1.945
 20
1.577499999999999
 30
0.0
 41
0.1875
 42
0.1875
  0
CIRCLE
  5
23A
330
224
100
AcDbEntity
  8
DAMAN
100
AcDbCircle
 10
1.985
 20
2.1875
 30
0.0
 40
0.125
  0
CIRCLE
  5
23B
330
224
100
AcDbEntity
  8
DAMAN
100
AcDbCircle
 10
2.375
 20
1.7975
 30
0.0
 40
0.125
  0
CIRCLE
  5
23C
330
224
100
AcDbEntity
  8
DAMAN
100
AcDbCircle
 10
2.765
 20
2.1875
 30
0.0
 40
0.125
  0
CIRCLE
  5
23D
330
224
100
AcDbEntity
  8
DAMAN
100
AcDbCircle
 10
2.375
 20
2.5775
 30
0.0
 40
0.125
  0
ENDBLK
  5
23E
330
224
100
AcDbEntity
  8
0
100
AcDbBlockEnd
  0
BLOCK
  5
240
330
23F
100
AcDbEntity
  8
0
100
AcDbBlockBegin
  2
S72
 70
     0
 10
0.0
 20
0.0
 30
0.0
  3
S72
  1

  0
CIRCLE
  5
241
330
23F
100
AcDbEntity
  8
DAMAN
100
AcDbCircle
 10
2.765
 20
1.6875
 30
0.0
 40
0.08
  0
INSERT
  5
242
330
23F
100
AcDbEntity
  8
DAMAN
100
AcDbBlockReference
  2
100CROSS
 10
2.765
 20
1.6875
 30
0.0
 41
0.1875
 42
0.1875
  0
CIRCLE
  5
243
330
23F
100
AcDbEntity
  8
DAMAN
100
AcDbCircle
 10
1.90625
 20
2.1875
 30
0.0
 40
0.155
  0
CIRCLE
  5
244
330
23F
100
AcDbEntity
  8
DAMAN
100
AcDbCircle
 10
2.375
 20
1.71875
 30
0.0
 40
0.155
  0
CIRCLE
  5
245
330
23F
100
AcDbEntity
  8
DAMAN
100
AcDbCircle
 10
2.375
 20
2.65625
 30
0.0
 40
0.155
  0
CIRCLE
  5
246
330
23F
100
AcDbEntity
  8
DAMAN
100
AcDbCircle
 10
2.84375
 20
2.1875
 30
0.0
 40
0.155
  0
INSERT
  5
247
330
23F
100
AcDbEntity
  8
DAMAN
100
AcDbBlockReference
  2
100CROSS
 10
2.375
 20
1.71875
 30
0.0
 41
0.234375
 42
0.234375
  0
INSERT
  5
248
330
23F
100
AcDbEntity
  8
DAMAN
100
AcDbBlockReference
  2
100CROSS
 10
2.84375
 20
2.1875
 30
0.0
 41
0.234375
 42
0.234375
  0
INSERT
  5
249
330
23F
100
AcDbEntity
  8
DAMAN
100
AcDbBlockReference
  2
100CROSS
 10
2.375
 20
2.65625
 30
0.0
 41
0.234375
 42
0.234375
  0
INSERT
  5
24A
330
23F
100
AcDbEntity
  8
DAMAN
100
AcDbBlockReference
  2
100CROSS
 10
1.90625
 20
2.1875
 30
0.0
 41
0.234375
 42
0.234375
  0
CIRCLE
  5
24B
330
23F
100
AcDbEntity
  8
DAMAN
100
AcDbCircle
 10
3.214999999999999
 20
1.5175
 30
0.0
 40
0.104219
  0
CIRCLE
  5
24C
330
23F
100
AcDbEntity
  8
DAMAN
100
AcDbCircle
 10
3.214999999999999
 20
1.5175
 30
0.0
 40
0.125063
  0
INSERT
  5
24D
330
23F
100
AcDbEntity
  8
DAMAN
100
AcDbBlockReference
  2
100CROSS
 10
3.214999999999999
 20
1.5175
 30
0.0
 41
0.250125
 42
0.250125
  0
CIRCLE
  5
24E
330
23F
100
AcDbEntity
  8
DAMAN
100
AcDbCircle
 10
3.214999999999999
 20
2.857499999999999
 30
0.0
 40
0.104219
  0
CIRCLE
  5
24F
330
23F
100
AcDbEntity
  8
DAMAN
100
AcDbCircle
 10
3.214999999999999
 20
2.857499999999999
 30
0.0
 40
0.125063
  0
INSERT
  5
250
330
23F
100
AcDbEntity
  8
DAMAN
100
AcDbBlockReference
  2
100CROSS
 10
3.214999999999999
 20
2.857499999999999
 30
0.0
 41
0.250125
 42
0.250125
  0
CIRCLE
  5
251
330
23F
100
AcDbEntity
  8
DAMAN
100
AcDbCircle
 10
1.534999999999999
 20
2.857499999999999
 30
0.0
 40
0.104219
  0
CIRCLE
  5
252
330
23F
100
AcDbEntity
  8
DAMAN
100
AcDbCircle
 10
1.534999999999999
 20
2.857499999999999
 30
0.0
 40
0.125063
  0
INSERT
  5
253
330
23F
100
AcDbEntity
  8
DAMAN
100
AcDbBlockReference
  2
100CROSS
 10
1.534999999999999
 20
2.857499999999999
 30
0.0
 41
0.250125
 42
0.250125
  0
CIRCLE
  5
254
330
23F
100
AcDbEntity
  8
DAMAN
100
AcDbCircle
 10
1.534999999999999
 20
1.5175
 30
0.0
 40
0.104219
  0
CIRCLE
  5
255
330
23F
100
AcDbEntity
  8
DAMAN
100
AcDbCircle
 10
1.534999999999999
 20
1.5175
 30
0.0
 40
0.125063
  0
INSERT
  5
256
330
23F
100
AcDbEntity
  8
DAMAN
100
AcDbBlockReference
  2
100CROSS
 10
1.534999999999999
 20
1.5175
 30
0.0
 41
0.250125
 42
0.250125
  0
ENDBLK
  5
257
330
23F
100
AcDbEntity
  8
0
100
AcDbBlockEnd
  0
BLOCK
  5
259
330
258
100
AcDbEntity
  8
0
100
AcDbBlockBegin
  2
S04
 70
     0
 10
0.0
 20
0.0
 30
0.0
  3
S04
  1

  0
CIRCLE
  5
25A
330
258
100
AcDbEntity
  8
DAMAN
100
AcDbCircle
 10
3.0
 20
7.0
 30
0.0
 40
0.1715
  0
CIRCLE
  5
25B
330
258
100
AcDbEntity
  8
DAMAN
100
AcDbCircle
 10
4.75
 20
7.0
 30
0.0
 40
0.1715
  0
CIRCLE
  5
25C
330
258
100
AcDbEntity
  8
DAMAN
100
AcDbCircle
 10
4.75
 20
4.44
 30
0.0
 40
0.1715
  0
CIRCLE
  5
25D
330
258
100
AcDbEntity
  8
DAMAN
100
AcDbCircle
 10
3.0
 20
4.44
 30
0.0
 40
0.1715
  0
CIRCLE
  5
25E
330
258
100
AcDbEntity
  8
DAMAN
100
AcDbCircle
 10
3.209999999999999
 20
6.389999999999999
 30
0.0
 40
0.08
  0
CIRCLE
  5
25F
330
258
100
AcDbEntity
  8
DAMAN
100
AcDbCircle
 10
3.439999999999999
 20
4.78
 30
0.0
 40
0.08
  0
CIRCLE
  5
260
330
258
100
AcDbEntity
  8
DAMAN
100
AcDbCircle
 10
3.879999999999999
 20
6.16
 30
0.0
 40
0.155
  0
CIRCLE
  5
261
330
258
100
AcDbEntity
  8
DAMAN
100
AcDbCircle
 10
3.439999999999999
 20
5.719999999999999
 30
0.0
 40
0.155
  0
CIRCLE
  5
262
330
258
100
AcDbEntity
  8
DAMAN
100
AcDbCircle
 10
3.879999999999999
 20
5.28
 30
0.0
 40
0.155
  0
CIRCLE
  5
263
330
258
100
AcDbEntity
  8
DAMAN
100
AcDbCircle
 10
4.309999999999999
 20
5.719999999999999
 30
0.0
 40
0.155
  0
CIRCLE
  5
264
330
258
100
AcDbEntity
  8
DAMAN
100
AcDbCircle
 10
4.269999999999999
 20
5.219999999999999
 30
0.0
 40
0.08
  0
LINE
  5
265
330
258
100
AcDbEntity
  8
DAMAN
  6
CENTER
100
AcDbLine
 10
4.75
 20
4.1275
 30
0.0
 11
4.75
 21
4.7525
 31
0.0
  0
LINE
  5
266
330
258
100
AcDbEntity
  8
DAMAN
  6
CENTER
100
AcDbLine
 10
4.437509999999999
 20
4.4375
 30
0.0
 11
5.06249
 21
4.4375
 31
0.0
  0
LINE
  5
267
330
258
100
AcDbEntity
  8
DAMAN
  6
CENTER
100
AcDbLine
 10
2.68751
 20
4.4375
 30
0.0
 11
3.312489999999999
 21
4.4375
 31
0.0
  0
LINE
  5
268
330
258
100
AcDbEntity
  8
DAMAN
  6
CENTER
100
AcDbLine
 10
3.0
 20
4.1275
 30
0.0
 11
3.0
 21
4.7525
 31
0.0
  0
LINE
  5
269
330
258
100
AcDbEntity
  8
DAMAN
  6
CENTER
100
AcDbLine
 10
3.244693999999999
 20
4.778437999999999
 30
0.0
 11
3.635305999999999
 21
4.778437999999999
 31
0.0
  0
LINE
  5
26A
330
258
100
AcDbEntity
  8
DAMAN
  6
CENTER
100
AcDbLine
 10
3.439999999999999
 20
4.584687999999999
 30
0.0
 11
3.439999999999999
 21
4.975312999999999
 31
0.0
  0
LINE
  5
26B
330
258
100
AcDbEntity
  8
DAMAN
  6
CENTER
100
AcDbLine
 10
4.113755
 20
5.21875
 30
0.0
 11
4.426244999999999
 21
5.21875
 31
0.0
  0
LINE
  5
26C
330
258
100
AcDbEntity
  8
DAMAN
  6
CENTER
100
AcDbLine
 10
4.269999999999999
 20
5.063749999999999
 30
0.0
 11
4.269999999999999
 21
5.376249999999999
 31
0.0
  0
LINE
  5
26D
330
258
100
AcDbEntity
  8
DAMAN
  6
CENTER
100
AcDbLine
 10
3.567509999999999
 20
5.277499999999999
 30
0.0
 11
4.19249
 21
5.277499999999999
 31
0.0
  0
LINE
  5
26E
330
258
100
AcDbEntity
  8
DAMAN
  6
CENTER
100
AcDbLine
 10
3.879999999999999
 20
4.9675
 30
0.0
 11
3.879999999999999
 21
5.5925
 31
0.0
  0
LINE
  5
26F
330
258
100
AcDbEntity
  8
DAMAN
  6
CENTER
100
AcDbLine
 10
3.12751
 20
5.7175
 30
0.0
 11
3.75249
 21
5.7175
 31
0.0
  0
LINE
  5
270
330
258
100
AcDbEntity
  8
DAMAN
  6
CENTER
100
AcDbLine
 10
3.439999999999999
 20
5.407499999999999
 30
0.0
 11
3.439999999999999
 21
6.032499999999999
 31
0.0
  0
LINE
  5
271
330
258
100
AcDbEntity
  8
DAMAN
  6
CENTER
100
AcDbLine
 10
3.567509999999999
 20
6.157499999999999
 30
0.0
 11
4.19249
 21
6.157499999999999
 31
0.0
  0
LINE
  5
272
330
258
100
AcDbEntity
  8
DAMAN
  6
CENTER
100
AcDbLine
 10
3.879999999999999
 20
5.8475
 30
0.0
 11
3.879999999999999
 21
6.4725
 31
0.0
  0
LINE
  5
273
330
258
100
AcDbEntity
  8
DAMAN
  6
CENTER
100
AcDbLine
 10
3.997509999999999
 20
5.7175
 30
0.0
 11
4.622489999999999
 21
5.7175
 31
0.0
  0
LINE
  5
274
330
258
100
AcDbEntity
  8
DAMAN
  6
CENTER
100
AcDbLine
 10
4.309999999999999
 20
5.407499999999999
 30
0.0
 11
4.309999999999999
 21
6.032499999999999
 31
0.0
  0
LINE
  5
275
330
258
100
AcDbEntity
  8
DAMAN
  6
CENTER
100
AcDbLine
 10
4.437509999999999
 20
6.997499999999999
 30
0.0
 11
5.06249
 21
6.997499999999999
 31
0.0
  0
LINE
  5
276
330
258
100
AcDbEntity
  8
DAMAN
  6
CENTER
100
AcDbLine
 10
4.75
 20
6.6875
 30
0.0
 11
4.75
 21
7.3125
 31
0.0
  0
LINE
  5
277
330
258
100
AcDbEntity
  8
DAMAN
  6
CENTER
100
AcDbLine
 10
2.68751
 20
6.997499999999999
 30
0.0
 11
3.312489999999999
 21
6.997499999999999
 31
0.0
  0
LINE
  5
278
330
258
100
AcDbEntity
  8
DAMAN
  6
CENTER
100
AcDbLine
 10
3.0
 20
6.6875
 30
0.0
 11
3.0
 21
7.3125
 31
0.0
  0
LINE
  5
279
330
258
100
AcDbEntity
  8
DAMAN
  6
CENTER
100
AcDbLine
 10
3.053754999999999
 20
6.388749999999999
 30
0.0
 11
3.366244999999999
 21
6.388749999999999
 31
0.0
  0
LINE
  5
27A
330
258
100
AcDbEntity
  8
DAMAN
  6
CENTER
100
AcDbLine
 10
3.209999999999999
 20
6.233749999999999
 30
0.0
 11
3.209999999999999
 21
6.546249999999999
 31
0.0
  0
ENDBLK
  5
27B
330
258
100
AcDbEntity
  8
0
100
AcDbBlockEnd
  0
BLOCK
  5
27D
330
27C
100
AcDbEntity
  8
0
100
AcDbBlockBegin
  2
D05
 70
     0
 10
0.0
 20
0.0
 30
0.0
  3
D05
  1

  0
CIRCLE
  5
27E
330
27C
100
AcDbEntity
  8
DAMAN
  6
HIDDEN
100
AcDbCircle
 10
1.8125
 20
0.0
 30
0.0
 40
0.125
  0
CIRCLE
  5
27F
330
27C
100
AcDbEntity
  8
DAMAN
  6
HIDDEN
100
AcDbCircle
 10
1.8125
 20
-2.125
 30
0.0
 40
0.125
  0
CIRCLE
  5
280
330
27C
100
AcDbEntity
  8
DAMAN
  6
HIDDEN
100
AcDbCircle
 10
0.0
 20
0.0
 30
0.0
 40
0.125
  0
CIRCLE
  5
281
330
27C
100
AcDbEntity
  8
DAMAN
  6
HIDDEN
100
AcDbCircle
 10
0.0
 20
-2.125
 30
0.0
 40
0.125
  0
INSERT
  5
282
330
27C
100
AcDbEntity
  8
DAMAN
100
AcDbBlockReference
  2
100CROSS
 10
0.0
 20
0.0
 30
0.0
 41
0.25
 42
0.25
  0
CIRCLE
  5
283
330
27C
100
AcDbEntity
  8
DAMAN
100
AcDbCircle
 10
0.0
 20
0.0
 30
0.0
 40
0.1055
  0
CIRCLE
  5
284
330
27C
100
AcDbEntity
  8
DAMAN
100
AcDbCircle
 10
0.0
 20
-2.125
 30
0.0
 40
0.1055
  0
INSERT
  5
285
330
27C
100
AcDbEntity
  8
DAMAN
100
AcDbBlockReference
  2
100CROSS
 10
0.0
 20
-2.125
 30
0.0
 41
0.25
 42
0.25
  0
CIRCLE
  5
286
330
27C
100
AcDbEntity
  8
DAMAN
100
AcDbCircle
 10
1.8125
 20
0.0
 30
0.0
 40
0.1055
  0
INSERT
  5
287
330
27C
100
AcDbEntity
  8
DAMAN
100
AcDbBlockReference
  2
100CROSS
 10
1.8125
 20
0.0
 30
0.0
 41
0.25
 42
0.25
  0
CIRCLE
  5
288
330
27C
100
AcDbEntity
  8
DAMAN
100
AcDbCircle
 10
1.8125
 20
-2.125
 30
0.0
 40
0.1055
  0
INSERT
  5
289
330
27C
100
AcDbEntity
  8
DAMAN
100
AcDbBlockReference
  2
100CROSS
 10
1.8125
 20
-2.125
 30
0.0
 41
0.25
 42
0.25
  0
INSERT
  5
28A
330
27C
100
AcDbEntity
  8
DAMAN
100
AcDbBlockReference
  2
100CROSS
 10
0.5310000000000001
 20
-0.125
 30
0.0
 41
0.4379999999999999
 42
0.4379999999999999
  0
CIRCLE
  5
28B
330
27C
100
AcDbEntity
  8
DAMAN
100
AcDbCircle
 10
0.5310000000000001
 20
-0.125
 30
0.0
 40
0.21875
  0
CIRCLE
  5
28C
330
27C
100
AcDbEntity
  8
DAMAN
100
AcDbCircle
 10
0.9685
 20
-0.6559999999999999
 30
0.0
 40
0.21875
  0
INSERT
  5
28D
330
27C
100
AcDbEntity
  8
DAMAN
100
AcDbBlockReference
  2
100CROSS
 10
0.9685
 20
-0.6559999999999999
 30
0.0
 41
0.4379999999999999
 42
0.4379999999999999
  0
INSERT
  5
28E
330
27C
100
AcDbEntity
  8
DAMAN
100
AcDbBlockReference
  2
100CROSS
 10
0.9685
 20
-1.468499999999999
 30
0.0
 41
0.4379999999999999
 42
0.4379999999999999
  0
CIRCLE
  5
28F
330
27C
100
AcDbEntity
  8
DAMAN
100
AcDbCircle
 10
0.9685
 20
-1.468499999999999
 30
0.0
 40
0.21875
  0
CIRCLE
  5
290
330
27C
100
AcDbEntity
  8
DAMAN
100
AcDbCircle
 10
1.5625
 20
-1.062249999999999
 30
0.0
 40
0.21875
  0
INSERT
  5
291
330
27C
100
AcDbEntity
  8
DAMAN
100
AcDbBlockReference
  2
100CROSS
 10
1.5625
 20
-1.062249999999999
 30
0.0
 41
0.4379999999999999
 42
0.4379999999999999
  0
ENDBLK
  5
292
330
27C
100
AcDbEntity
  8
0
100
AcDbBlockEnd
  0
BLOCK
  5
294
330
293
100
AcDbEntity
  8
0
100
AcDbBlockBegin
  2
04SAET
 70
     0
 10
0.0
 20
0.0
 30
0.0
  3
04SAET
  1

  0
CIRCLE
  5
295
330
293
100
AcDbEntity
  8
DAMAN
100
AcDbCircle
 10
0.0
 20
0.0
 30
0.0
 40
0.4375
  0
INSERT
  5
296
330
293
100
AcDbEntity
  8
DAMAN
100
AcDbBlockReference
  2
100CROSS
 10
0.0
 20
0.0
 30
0.0
 41
0.8
 42
0.8
  0
CIRCLE
  5
297
330
293
100
AcDbEntity
  8
DAMAN
  6
HIDDEN
100
AcDbCircle
 10
0.0
 20
0.0
 30
0.0
 40
0.21875
  0
CIRCLE
  5
298
330
293
100
AcDbEntity
  8
DAMAN
100
AcDbCircle
 10
0.0
 20
0.0
 30
0.0
 40
0.1875
  0
CIRCLE
  5
299
330
293
100
AcDbEntity
  8
DAMAN
100
AcDbCircle
 10
0.0
 20
0.0
 30
0.0
 40
0.2435
  0
ENDBLK
  5
29A
330
293
100
AcDbEntity
  8
0
100
AcDbBlockEnd
  0
BLOCK
  5
29C
330
29B
100
AcDbEntity
  8
0
100
AcDbBlockBegin
  2
025BSPPT
 70
     0
 10
0.0
 20
0.0
 30
0.0
  3
025BSPPT
  1

  0
CIRCLE
  5
29D
330
29B
100
AcDbEntity
  8
DAMAN
100
AcDbCircle
 10
0.0
 20
0.0
 30
0.0
 40
0.425
  0
CIRCLE
  5
29E
330
29B
100
AcDbEntity
  8
DAMAN
100
AcDbCircle
 10
0.0
 20
0.0
 30
0.0
 40
0.225
  0
CIRCLE
  5
29F
330
29B
100
AcDbEntity
  8
DAMAN
100
AcDbCircle
 10
0.0
 20
0.0
 30
0.0
 40
0.26
  0
INSERT
  5
2A0
330
29B
100
AcDbEntity
  8
DAMAN
100
AcDbBlockReference
  2
100CROSS
 10
0.0
 20
0.0
 30
0.0
 41
0.7480000000000001
 42
0.7480000000000001
  0
ENDBLK
  5
2A1
330
29B
100
AcDbEntity
  8
0
100
AcDbBlockEnd
  0
BLOCK
  5
2A3
330
2A2
100
AcDbEntity
  8
0
100
AcDbBlockBegin
  2
0375BSPPT
 70
     0
 10
0.0
 20
0.0
 30
0.0
  3
0375BSPPT
  1

  0
CIRCLE
  5
2A4
330
2A2
100
AcDbEntity
  8
CSOLID
  6
HIDDEN
100
AcDbCircle
 10
0.0
 20
0.0
 30
0.0
 40
0.3279999999999999
  0
CIRCLE
  5
2A5
330
2A2
100
AcDbEntity
  8
CSOLID
100
AcDbCircle
 10
0.0
 20
0.0
 30
0.0
 40
0.3325
  0
CIRCLE
  5
2A6
330
2A2
100
AcDbEntity
  8
CSOLID
100
AcDbCircle
 10
0.0
 20
0.0
 30
0.0
 40
0.3035
  0
CIRCLE
  5
2A7
330
2A2
100
AcDbEntity
  8
CSOLID
100
AcDbCircle
 10
0.0
 20
0.0
 30
0.0
 40
0.51
  0
INSERT
  5
2A8
330
2A2
100
AcDbEntity
  8
DAMAN
100
AcDbBlockReference
  2
100CROSS
 10
0.0
 20
0.0
 30
0.0
 41
0.88
 42
0.88
  0
ENDBLK
  5
2A9
330
2A2
100
AcDbEntity
  8
0
100
AcDbBlockEnd
  0
BLOCK
  5
2AB
330
2AA
100
AcDbEntity
  8
0
100
AcDbBlockBegin
  2
M10T
 70
     0
 10
0.0
 20
0.0
 30
0.0
  3
M10T
  1

  0
INSERT
  5
2AC
330
2AA
100
AcDbEntity
  8
DAMAN
100
AcDbBlockReference
  2
100CROSS
 10
0.0
 20
0.0
 30
0.0
 41
0.59
 42
0.59
 43
0.59
  0
CIRCLE
  5
2AD
330
2AA
100
AcDbEntity
  8
DAMAN
100
AcDbCircle
 10
0.0
 20
0.0
 30
0.0
 40
0.3145
  0
CIRCLE
  5
2AE
330
2AA
100
AcDbEntity
  8
DAMAN
100
AcDbCircle
 10
0.0
 20
0.0
 30
0.0
 40
0.3935
  0
CIRCLE
  5
2AF
330
2AA
100
AcDbEntity
  8
DAMAN
100
AcDbCircle
 10
0.0
 20
0.0
 30
0.0
 40
0.2185
  0
CIRCLE
  5
2B0
330
2AA
100
AcDbEntity
  8
DAMAN
  6
HIDDEN
100
AcDbCircle
 10
0.0
 20
0.0
 30
0.0
 40
0.19685
  0
CIRCLE
  5
2B1
330
2AA
100
AcDbEntity
  8
DAMAN
100
AcDbCircle
 10
0.0
 20
0.0
 30
0.0
 40
0.1775
  0
ENDBLK
  5
2B2
330
2AA
100
AcDbEntity
  8
0
100
AcDbBlockEnd
  0
BLOCK
  5
2B4
330
2B3
100
AcDbEntity
  8
0
100
AcDbBlockBegin
  2
12SAET
 70
     0
 10
0.0
 20
0.0
 30
0.0
  3
12SAET
  1

  0
CIRCLE
  5
2B5
330
2B3
100
AcDbEntity
  8
DAMAN
100
AcDbCircle
 10
0.0
 20
0.0
 30
0.0
 40
0.53125
  0
INSERT
  5
2B6
330
2B3
100
AcDbEntity
  8
DAMAN
100
AcDbBlockReference
  2
100CROSS
 10
0.0
 20
0.0
 30
0.0
 41
1.33
 42
1.33
  0
CIRCLE
  5
2B7
330
2B3
100
AcDbEntity
  8
DAMAN
100
AcDbCircle
 10
0.0
 20
0.0
 30
0.0
 40
0.8125
  0
CIRCLE
  5
2B8
330
2B3
100
AcDbEntity
  8
DAMAN
100
AcDbCircle
 10
0.0
 20
0.0
 30
0.0
 40
0.453
  0
CIRCLE
  5
2B9
330
2B3
100
AcDbEntity
  8
DAMAN
100
AcDbCircle
 10
0.0
 20
0.0
 30
0.0
 40
0.4920000000000001
  0
ENDBLK
  5
2BA
330
2B3
100
AcDbEntity
  8
0
100
AcDbBlockEnd
  0
BLOCK
  5
2BC
330
2BB
100
AcDbEntity
  8
0
100
AcDbBlockBegin
  2
M27T
 70
     0
 10
0.0
 20
0.0
 30
0.0
  3
M27T
  1

  0
CIRCLE
  5
2BD
330
2BB
100
AcDbEntity
  8
DAMAN
100
AcDbCircle
 10
0.0
 20
0.0
 30
0.0
 40
0.5787
  0
CIRCLE
  5
2BE
330
2BB
100
AcDbEntity
  8
DAMAN
  6
HIDDEN
100
AcDbCircle
 10
0.0
 20
0.0
 30
0.0
 40
0.53145
  0
CIRCLE
  5
2BF
330
2BB
100
AcDbEntity
  8
DAMAN
100
AcDbCircle
 10
0.0
 20
0.0
 30
0.0
 40
0.7874
  0
INSERT
  5
2C0
330
2BB
100
AcDbEntity
  8
DAMAN
100
AcDbBlockReference
  2
100CROSS
 10
0.0
 20
0.0
 30
0.0
 41
1.33
 42
1.33
  0
CIRCLE
  5
2C1
330
2BB
100
AcDbEntity
  8
DAMAN
100
AcDbCircle
 10
0.0
 20
0.0
 30
0.0
 40
0.66929
  0
CIRCLE
  5
2C2
330
2BB
100
AcDbEntity
  8
DAMAN
100
AcDbCircle
 10
0.0
 20
0.0
 30
0.0
 40
0.4955
  0
ENDBLK
  5
2C3
330
2BB
100
AcDbEntity
  8
0
100
AcDbBlockEnd
  0
BLOCK
  5
2C5
330
2C4
100
AcDbEntity
  8
0
100
AcDbBlockBegin
  2
106SAET
 70
     0
 10
0.0
 20
0.0
 30
0.0
  3
106SAET
  1

  0
CIRCLE
  5
2C6
330
2C4
100
AcDbEntity
  8
CSOLID
100
AcDbCircle
 10
0.0
 20
0.0
 30
0.0
 40
0.4920000000000001
  0
CIRCLE
  5
2C7
330
2C4
100
AcDbEntity
  8
CSOLID
100
AcDbCircle
 10
0.0
 20
0.0
 30
0.0
 40
0.453
  0
CIRCLE
  5
2C8
330
2C4
100
AcDbEntity
  8
CSOLID
100
AcDbCircle
 10
0.0
 20
0.0
 30
0.0
 40
0.8125
  0
INSERT
  5
2C9
330
2C4
100
AcDbEntity
  8
CCENTER
100
AcDbBlockReference
  2
100CROSS
 10
0.0
 20
0.0
 30
0.0
 41
1.33
 42
1.33
  0
CIRCLE
  5
2CA
330
2C4
100
AcDbEntity
  8
CHIDDEN
100
AcDbCircle
 10
0.0
 20
0.0
 30
0.0
 40
0.53125
  0
CIRCLE
  5
2CB
330
2C4
100
AcDbEntity
  8
PHANTOM
100
AcDbCircle
 10
0.0
 20
0.0
 30
0.0
 40
0.725
  0
ENDBLK
  5
2CC
330
2C4
100
AcDbEntity
  8
0
100
AcDbBlockEnd
  0
BLOCK
  5
2CE
330
2CD
100
AcDbEntity
  8
0
100
AcDbBlockBegin
  2
S73
 70
     0
 10
0.0
 20
0.0
 30
0.0
  3
S73
  1

  0
CIRCLE
  5
2CF
330
2CD
100
AcDbEntity
  8
DAMAN
100
AcDbCircle
 10
3.145982
 20
1.769554999999999
 30
0.0
 40
0.25
  0
CIRCLE
  5
2D0
330
2CD
100
AcDbEntity
  8
DAMAN
100
AcDbCircle
 10
3.833482
 20
2.457054999999999
 30
0.0
 40
0.25
  0
CIRCLE
  5
2D1
330
2CD
100
AcDbEntity
  8
DAMAN
100
AcDbCircle
 10
3.145982
 20
3.144554999999999
 30
0.0
 40
0.25
  0
CIRCLE
  5
2D2
330
2CD
100
AcDbEntity
  8
DAMAN
100
AcDbCircle
 10
2.458482
 20
2.457054999999999
 30
0.0
 40
0.25
  0
INSERT
  5
2D3
330
2CD
100
AcDbEntity
  8
DAMAN
100
AcDbBlockReference
  2
100CROSS
 10
1.395982
 20
3.332055
 30
0.0
 41
0.31125
 42
0.31125
  0
CIRCLE
  5
2D4
330
2CD
100
AcDbEntity
  8
DAMAN
100
AcDbCircle
 10
1.395982
 20
3.332055
 30
0.0
 40
0.129688
  0
CIRCLE
  5
2D5
330
2CD
100
AcDbEntity
  8
DAMAN
100
AcDbCircle
 10
1.395982
 20
3.332055
 30
0.0
 40
0.155625
  0
INSERT
  5
2D6
330
2CD
100
AcDbEntity
  8
DAMAN
100
AcDbBlockReference
  2
100CROSS
 10
1.395982
 20
1.582054999999999
 30
0.0
 41
0.31125
 42
0.31125
  0
CIRCLE
  5
2D7
330
2CD
100
AcDbEntity
  8
DAMAN
100
AcDbCircle
 10
1.395982
 20
1.582054999999999
 30
0.0
 40
0.129688
  0
CIRCLE
  5
2D8
330
2CD
100
AcDbEntity
  8
DAMAN
100
AcDbCircle
 10
1.395982
 20
1.582054999999999
 30
0.0
 40
0.155625
  0
INSERT
  5
2D9
330
2CD
100
AcDbEntity
  8
DAMAN
100
AcDbBlockReference
  2
100CROSS
 10
4.895982
 20
3.332055
 30
0.0
 41
0.31125
 42
0.31125
  0
CIRCLE
  5
2DA
330
2CD
100
AcDbEntity
  8
DAMAN
100
AcDbCircle
 10
4.895982
 20
3.332055
 30
0.0
 40
0.129688
  0
CIRCLE
  5
2DB
330
2CD
100
AcDbEntity
  8
DAMAN
100
AcDbCircle
 10
4.895982
 20
3.332055
 30
0.0
 40
0.155625
  0
INSERT
  5
2DC
330
2CD
100
AcDbEntity
  8
DAMAN
100
AcDbBlockReference
  2
100CROSS
 10
4.895982
 20
1.582054999999999
 30
0.0
 41
0.31125
 42
0.31125
  0
CIRCLE
  5
2DD
330
2CD
100
AcDbEntity
  8
DAMAN
100
AcDbCircle
 10
4.895982
 20
1.582054999999999
 30
0.0
 40
0.129688
  0
CIRCLE
  5
2DE
330
2CD
100
AcDbEntity
  8
DAMAN
100
AcDbCircle
 10
4.895982
 20
1.582054999999999
 30
0.0
 40
0.155625
  0
INSERT
  5
2DF
330
2CD
100
AcDbEntity
  8
DAMAN
100
AcDbBlockReference
  2
100CROSS
 10
2.458482
 20
2.457054999999999
 30
0.0
 41
0.389063
 42
0.389063
  0
INSERT
  5
2E0
330
2CD
100
AcDbEntity
  8
DAMAN
100
AcDbBlockReference
  2
100CROSS
 10
3.145982
 20
1.769554999999999
 30
0.0
 41
0.389063
 42
0.389063
  0
INSERT
  5
2E1
330
2CD
100
AcDbEntity
  8
DAMAN
100
AcDbBlockReference
  2
100CROSS
 10
3.833482
 20
2.457054999999999
 30
0.0
 41
0.389063
 42
0.389063
  0
INSERT
  5
2E2
330
2CD
100
AcDbEntity
  8
DAMAN
100
AcDbBlockReference
  2
100CROSS
 10
3.145982
 20
3.144554999999999
 30
0.0
 41
0.389063
 42
0.389063
  0
CIRCLE
  5
2E3
330
2CD
100
AcDbEntity
  8
DAMAN
100
AcDbCircle
 10
2.365981999999999
 20
1.582054999999999
 30
0.0
 40
0.09375
  0
INSERT
  5
2E4
330
2CD
100
AcDbEntity
  8
DAMAN
100
AcDbBlockReference
  2
100CROSS
 10
2.365981999999999
 20
1.582054999999999
 30
0.0
 41
0.233438
 42
0.233438
  0
ENDBLK
  5
2E5
330
2CD
100
AcDbEntity
  8
0
100
AcDbBlockEnd
  0
BLOCK
  5
2E7
330
2E6
100
AcDbEntity
  8
0
100
AcDbBlockBegin
  2
M33T
 70
     0
 10
0.0
 20
0.0
 30
0.0
  3
M33T
  1

  0
CIRCLE
  5
2E8
330
2E6
100
AcDbEntity
  8
DAMAN
100
AcDbCircle
 10
0.0
 20
0.0
 30
0.0
 40
0.6970000000000001
  0
CIRCLE
  5
2E9
330
2E6
100
AcDbEntity
  8
DAMAN
  6
HIDDEN
100
AcDbCircle
 10
0.0
 20
0.0
 30
0.0
 40
0.649606
  0
CIRCLE
  5
2EA
330
2E6
100
AcDbEntity
  8
DAMAN
100
AcDbCircle
 10
0.0
 20
0.0
 30
0.0
 40
0.9644999999999999
  0
INSERT
  5
2EB
330
2E6
100
AcDbEntity
  8
DAMAN
100
AcDbBlockReference
  2
100CROSS
 10
0.0
 20
0.0
 30
0.0
 41
1.33
 42
1.33
  0
CIRCLE
  5
2EC
330
2E6
100
AcDbEntity
  8
DAMAN
100
AcDbCircle
 10
0.0
 20
0.0
 30
0.0
 40
0.8464999999999999
  0
CIRCLE
  5
2ED
330
2E6
100
AcDbEntity
  8
DAMAN
100
AcDbCircle
 10
0.0
 20
0.0
 30
0.0
 40
0.614
  0
ENDBLK
  5
2EE
330
2E6
100
AcDbEntity
  8
0
100
AcDbBlockEnd
  0
BLOCK
  5
2F0
330
2EF
100
AcDbEntity
  8
0
100
AcDbBlockBegin
  2
S74
 70
     0
 10
0.0
 20
0.0
 30
0.0
  3
S74
  1

  0
CIRCLE
  5
2F1
330
2EF
100
AcDbEntity
  8
DAMAN
100
AcDbCircle
 10
2.742879999999999
 20
2.894938999999999
 30
0.0
 40
0.375
  0
CIRCLE
  5
2F2
330
2EF
100
AcDbEntity
  8
DAMAN
100
AcDbCircle
 10
3.61788
 20
2.019938999999999
 30
0.0
 40
0.375
  0
CIRCLE
  5
2F3
330
2EF
100
AcDbEntity
  8
DAMAN
100
AcDbCircle
 10
4.49288
 20
2.894938999999999
 30
0.0
 40
0.375
  0
CIRCLE
  5
2F4
330
2EF
100
AcDbEntity
  8
DAMAN
100
AcDbCircle
 10
3.61788
 20
3.769938999999999
 30
0.0
 40
0.375
  0
CIRCLE
  5
2F5
330
2EF
100
AcDbEntity
  8
DAMAN
100
AcDbCircle
 10
5.42788
 20
4.549939
 30
0.0
 40
0.129688
  0
INSERT
  5
2F6
330
2EF
100
AcDbEntity
  8
DAMAN
100
AcDbBlockReference
  2
100CROSS
 10
5.42788
 20
4.549939
 30
0.0
 41
0.31125
 42
0.31125
  0
CIRCLE
  5
2F7
330
2EF
100
AcDbEntity
  8
DAMAN
100
AcDbCircle
 10
5.42788
 20
4.549939
 30
0.0
 40
0.155625
  0
CIRCLE
  5
2F8
330
2EF
100
AcDbEntity
  8
DAMAN
100
AcDbCircle
 10
5.42788
 20
1.239938999999999
 30
0.0
 40
0.129688
  0
INSERT
  5
2F9
330
2EF
100
AcDbEntity
  8
DAMAN
100
AcDbBlockReference
  2
100CROSS
 10
5.42788
 20
1.239938999999999
 30
0.0
 41
0.31125
 42
0.31125
  0
CIRCLE
  5
2FA
330
2EF
100
AcDbEntity
  8
DAMAN
100
AcDbCircle
 10
5.42788
 20
1.239938999999999
 30
0.0
 40
0.155625
  0
CIRCLE
  5
2FB
330
2EF
100
AcDbEntity
  8
DAMAN
100
AcDbCircle
 10
1.807879999999999
 20
1.239938999999999
 30
0.0
 40
0.129688
  0
INSERT
  5
2FC
330
2EF
100
AcDbEntity
  8
DAMAN
100
AcDbBlockReference
  2
100CROSS
 10
1.807879999999999
 20
1.239938999999999
 30
0.0
 41
0.31125
 42
0.31125
  0
CIRCLE
  5
2FD
330
2EF
100
AcDbEntity
  8
DAMAN
100
AcDbCircle
 10
1.807879999999999
 20
1.239938999999999
 30
0.0
 40
0.155625
  0
CIRCLE
  5
2FE
330
2EF
100
AcDbEntity
  8
DAMAN
100
AcDbCircle
 10
1.807879999999999
 20
4.549939
 30
0.0
 40
0.129688
  0
INSERT
  5
2FF
330
2EF
100
AcDbEntity
  8
DAMAN
100
AcDbBlockReference
  2
100CROSS
 10
1.807879999999999
 20
4.549939
 30
0.0
 41
0.31125
 42
0.31125
  0
CIRCLE
  5
300
330
2EF
100
AcDbEntity
  8
DAMAN
100
AcDbCircle
 10
1.807879999999999
 20
4.549939
 30
0.0
 40
0.155625
  0
INSERT
  5
301
330
2EF
100
AcDbEntity
  8
DAMAN
100
AcDbBlockReference
  2
100CROSS
 10
3.61788
 20
3.769938999999999
 30
0.0
 41
0.6225000000000001
 42
0.6225000000000001
  0
INSERT
  5
302
330
2EF
100
AcDbEntity
  8
DAMAN
100
AcDbBlockReference
  2
100CROSS
 10
4.49288
 20
2.894938999999999
 30
0.0
 41
0.6225000000000001
 42
0.6225000000000001
  0
INSERT
  5
303
330
2EF
100
AcDbEntity
  8
DAMAN
100
AcDbBlockReference
  2
100CROSS
 10
3.61788
 20
2.019938999999999
 30
0.0
 41
0.6225000000000001
 42
0.6225000000000001
  0
INSERT
  5
304
330
2EF
100
AcDbEntity
  8
DAMAN
100
AcDbBlockReference
  2
100CROSS
 10
2.742879999999999
 20
2.894938999999999
 30
0.0
 41
0.6225000000000001
 42
0.6225000000000001
  0
CIRCLE
  5
305
330
2EF
100
AcDbEntity
  8
DAMAN
100
AcDbCircle
 10
2.747879999999999
 20
4.549939
 30
0.0
 40
0.155625
  0
INSERT
  5
306
330
2EF
100
AcDbEntity
  8
DAMAN
100
AcDbBlockReference
  2
100CROSS
 10
2.747879999999999
 20
4.549939
 30
0.0
 41
0.31125
 42
0.31125
  0
CIRCLE
  5
307
330
2EF
100
AcDbEntity
  8
DAMAN
100
AcDbCircle
 10
2.747879999999999
 20
4.549939
 30
0.0
 40
0.129688
  0
CIRCLE
  5
308
330
2EF
100
AcDbEntity
  8
DAMAN
100
AcDbCircle
 10
4.495379999999999
 20
4.549939
 30
0.0
 40
0.155625
  0
INSERT
  5
309
330
2EF
100
AcDbEntity
  8
DAMAN
100
AcDbBlockReference
  2
100CROSS
 10
4.495379999999999
 20
4.549939
 30
0.0
 41
0.31125
 42
0.31125
  0
CIRCLE
  5
30A
330
2EF
100
AcDbEntity
  8
DAMAN
100
AcDbCircle
 10
4.495379999999999
 20
4.549939
 30
0.0
 40
0.129688
  0
CIRCLE
  5
30B
330
2EF
100
AcDbEntity
  8
DAMAN
100
AcDbCircle
 10
4.495379999999999
 20
1.239938999999999
 30
0.0
 40
0.155625
  0
INSERT
  5
30C
330
2EF
100
AcDbEntity
  8
DAMAN
100
AcDbBlockReference
  2
100CROSS
 10
4.495379999999999
 20
1.239938999999999
 30
0.0
 41
0.31125
 42
0.31125
  0
CIRCLE
  5
30D
330
2EF
100
AcDbEntity
  8
DAMAN
100
AcDbCircle
 10
4.495379999999999
 20
1.239938999999999
 30
0.0
 40
0.129688
  0
CIRCLE
  5
30E
330
2EF
100
AcDbEntity
  8
DAMAN
100
AcDbCircle
 10
2.747879999999999
 20
1.239938999999999
 30
0.0
 40
0.155625
  0
INSERT
  5
30F
330
2EF
100
AcDbEntity
  8
DAMAN
100
AcDbBlockReference
  2
100CROSS
 10
2.747879999999999
 20
1.239938999999999
 30
0.0
 41
0.31125
 42
0.31125
  0
CIRCLE
  5
310
330
2EF
100
AcDbEntity
  8
DAMAN
100
AcDbCircle
 10
2.747879999999999
 20
1.239938999999999
 30
0.0
 40
0.129688
  0
CIRCLE
  5
311
330
2EF
100
AcDbEntity
  8
DAMAN
100
AcDbCircle
 10
2.807879999999999
 20
2.111939
 30
0.0
 40
0.08
  0
ENDBLK
  5
312
330
2EF
100
AcDbEntity
  8
0
100
AcDbBlockEnd
  0
BLOCK
  5
314
330
313
100
AcDbEntity
  8
0
100
AcDbBlockBegin
  2
S06
 70
     0
 10
0.0
 20
0.0
 30
0.0
  3
S06
  1

  0
CIRCLE
  5
315
330
313
100
AcDbEntity
  8
DAMAN
100
AcDbCircle
 10
1.919961999999999
 20
1.510945999999999
 30
0.0
 40
0.203
  0
CIRCLE
  5
316
330
313
100
AcDbEntity
  8
DAMAN
100
AcDbCircle
 10
4.794961999999999
 20
1.510945999999999
 30
0.0
 40
0.203
  0
CIRCLE
  5
317
330
313
100
AcDbEntity
  8
DAMAN
100
AcDbCircle
 10
4.794961999999999
 20
4.885945999999999
 30
0.0
 40
0.203
  0
CIRCLE
  5
318
330
313
100
AcDbEntity
  8
DAMAN
100
AcDbCircle
 10
1.919961999999999
 20
4.885945999999999
 30
0.0
 40
0.203
  0
CIRCLE
  5
319
330
313
100
AcDbEntity
  8
DAMAN
100
AcDbCircle
 10
3.359962
 20
4.195946
 30
0.0
 40
0.34375
  0
CIRCLE
  5
31A
330
313
100
AcDbEntity
  8
DAMAN
100
AcDbCircle
 10
2.359961999999999
 20
3.195945999999999
 30
0.0
 40
0.34375
  0
CIRCLE
  5
31B
330
313
100
AcDbEntity
  8
DAMAN
100
AcDbCircle
 10
3.359962
 20
2.195945999999999
 30
0.0
 40
0.34375
  0
CIRCLE
  5
31C
330
313
100
AcDbEntity
  8
DAMAN
100
AcDbCircle
 10
4.359962
 20
3.195945999999999
 30
0.0
 40
0.34375
  0
CIRCLE
  5
31D
330
313
100
AcDbEntity
  8
DAMAN
100
AcDbCircle
 10
2.609961999999999
 20
1.698445999999999
 30
0.0
 40
0.125
  0
CIRCLE
  5
31E
330
313
100
AcDbEntity
  8
DAMAN
100
AcDbCircle
 10
4.359962
 20
2.445945999999999
 30
0.0
 40
0.08
  0
LINE
  5
31F
330
313
100
AcDbEntity
  8
DAMAN
  6
CENTER
100
AcDbLine
 10
2.922461999999999
 20
4.195946
 30
0.0
 11
3.797462
 21
4.195946
 31
0.0
  0
LINE
  5
320
330
313
100
AcDbEntity
  8
DAMAN
  6
CENTER
100
AcDbLine
 10
3.359962
 20
3.758445999999999
 30
0.0
 11
3.359962
 21
4.633446
 31
0.0
  0
LINE
  5
321
330
313
100
AcDbEntity
  8
DAMAN
  6
CENTER
100
AcDbLine
 10
1.922461999999999
 20
3.195945999999999
 30
0.0
 11
2.797461999999999
 21
3.195945999999999
 31
0.0
  0
LINE
  5
322
330
313
100
AcDbEntity
  8
DAMAN
  6
CENTER
100
AcDbLine
 10
2.359961999999999
 20
2.758445999999999
 30
0.0
 11
2.359961999999999
 21
3.633445999999999
 31
0.0
  0
LINE
  5
323
330
313
100
AcDbEntity
  8
DAMAN
  6
CENTER
100
AcDbLine
 10
2.922461999999999
 20
2.195945999999999
 30
0.0
 11
3.797462
 21
2.195945999999999
 31
0.0
  0
LINE
  5
324
330
313
100
AcDbEntity
  8
DAMAN
  6
CENTER
100
AcDbLine
 10
3.359962
 20
1.758445999999999
 30
0.0
 11
3.359962
 21
2.633445999999999
 31
0.0
  0
LINE
  5
325
330
313
100
AcDbEntity
  8
DAMAN
  6
CENTER
100
AcDbLine
 10
3.922462
 20
3.195945999999999
 30
0.0
 11
4.797462
 21
3.195945999999999
 31
0.0
  0
LINE
  5
326
330
313
100
AcDbEntity
  8
DAMAN
  6
CENTER
100
AcDbLine
 10
4.359962
 20
2.758445999999999
 30
0.0
 11
4.359962
 21
3.633445999999999
 31
0.0
  0
LINE
  5
327
330
313
100
AcDbEntity
  8
DAMAN
  6
CENTER
100
AcDbLine
 10
4.357461999999999
 20
4.885945999999999
 30
0.0
 11
5.232461999999999
 21
4.885945999999999
 31
0.0
  0
LINE
  5
328
330
313
100
AcDbEntity
  8
DAMAN
  6
CENTER
100
AcDbLine
 10
4.794961999999999
 20
4.448445999999999
 30
0.0
 11
4.794961999999999
 21
5.323445999999999
 31
0.0
  0
LINE
  5
329
330
313
100
AcDbEntity
  8
DAMAN
  6
CENTER
100
AcDbLine
 10
1.482462
 20
4.885945999999999
 30
0.0
 11
2.357461999999999
 21
4.885945999999999
 31
0.0
  0
LINE
  5
32A
330
313
100
AcDbEntity
  8
DAMAN
  6
CENTER
100
AcDbLine
 10
1.919961999999999
 20
4.448445999999999
 30
0.0
 11
1.919961999999999
 21
5.323445999999999
 31
0.0
  0
LINE
  5
32B
330
313
100
AcDbEntity
  8
DAMAN
  6
CENTER
100
AcDbLine
 10
1.482462
 20
1.510945999999999
 30
0.0
 11
2.357461999999999
 21
1.510945999999999
 31
0.0
  0
LINE
  5
32C
330
313
100
AcDbEntity
  8
DAMAN
  6
CENTER
100
AcDbLine
 10
1.919961999999999
 20
1.073445999999999
 30
0.0
 11
1.919961999999999
 21
1.948445999999999
 31
0.0
  0
LINE
  5
32D
330
313
100
AcDbEntity
  8
DAMAN
  6
CENTER
100
AcDbLine
 10
4.357461999999999
 20
1.510945999999999
 30
0.0
 11
5.232461999999999
 21
1.510945999999999
 31
0.0
  0
LINE
  5
32E
330
313
100
AcDbEntity
  8
DAMAN
  6
CENTER
100
AcDbLine
 10
4.794961999999999
 20
1.073445999999999
 30
0.0
 11
4.794961999999999
 21
1.948445999999999
 31
0.0
  0
LINE
  5
32F
330
313
100
AcDbEntity
  8
DAMAN
  6
CENTER
100
AcDbLine
 10
4.141212
 20
2.445945999999999
 30
0.0
 11
4.578712
 21
2.445945999999999
 31
0.0
  0
LINE
  5
330
330
313
100
AcDbEntity
  8
DAMAN
  6
CENTER
100
AcDbLine
 10
4.359962
 20
2.227195999999999
 30
0.0
 11
4.359962
 21
2.664695999999999
 31
0.0
  0
LINE
  5
331
330
313
100
AcDbEntity
  8
DAMAN
  6
CENTER
100
AcDbLine
 10
2.391211999999999
 20
1.698445999999999
 30
0.0
 11
2.828711999999999
 21
1.698445999999999
 31
0.0
  0
LINE
  5
332
330
313
100
AcDbEntity
  8
DAMAN
  6
CENTER
100
AcDbLine
 10
2.609961999999999
 20
1.479695999999999
 30
0.0
 11
2.609961999999999
 21
1.917195999999999
 31
0.0
  0
POINT
  5
333
330
313
100
AcDbEntity
  8
DAMAN
100
AcDbPoint
 10
3.359962
 20
2.195945999999999
 30
0.0
  0
ENDBLK
  5
334
330
313
100
AcDbEntity
  8
0
100
AcDbBlockEnd
  0
BLOCK
  5
336
330
335
100
AcDbEntity
  8
0
100
AcDbBlockBegin
  2
D02
 70
     0
 10
0.0
 20
0.0
 30
0.0
  3
D02
  1

  0
INSERT
  5
337
330
335
100
AcDbEntity
  8
DAMAN
 62
     5
100
AcDbBlockReference
  2
100CROSS
 10
2.119267999999999
 20
1.520488999999999
 30
0.0
 41
0.1875
 42
0.1875
  0
INSERT
  5
338
330
335
100
AcDbEntity
  8
DAMAN
 62
     5
100
AcDbBlockReference
  2
100CROSS
 10
1.862704
 20
0.646489
 30
0.0
 41
0.171
 42
0.171
  0
INSERT
  5
339
330
335
100
AcDbEntity
  8
DAMAN
 62
     5
100
AcDbBlockReference
  2
100CROSS
 10
1.647267999999999
 20
0.7444890000000001
 30
0.0
 41
0.188
 42
0.188
  0
CIRCLE
  5
33A
330
335
100
AcDbEntity
  8
DAMAN
  6
HIDDEN
 62
     5
100
AcDbCircle
 10
1.647267999999999
 20
0.7444890000000001
 30
0.0
 40
0.095
  0
CIRCLE
  5
33B
330
335
100
AcDbEntity
  8
DAMAN
 62
     5
100
AcDbCircle
 10
1.647267999999999
 20
0.7447390000000001
 30
0.0
 40
0.078
  0
INSERT
  5
33C
330
335
100
AcDbEntity
  8
DAMAN
 62
     5
100
AcDbBlockReference
  2
100CROSS
 10
1.676268
 20
1.689489
 30
0.0
 41
0.188
 42
0.188
  0
CIRCLE
  5
33D
330
335
100
AcDbEntity
  8
DAMAN
 62
     5
100
AcDbCircle
 10
1.676268
 20
1.689489
 30
0.0
 40
0.078
  0
CIRCLE
  5
33E
330
335
100
AcDbEntity
  8
DAMAN
  6
HIDDEN
 62
     5
100
AcDbCircle
 10
1.676268
 20
1.689489
 30
0.0
 40
0.095
  0
INSERT
  5
33F
330
335
100
AcDbEntity
  8
DAMAN
 62
     5
100
AcDbBlockReference
  2
100CROSS
 10
2.591267999999999
 20
0.7444890000000001
 30
0.0
 41
0.188
 42
0.188
  0
CIRCLE
  5
340
330
335
100
AcDbEntity
  8
DAMAN
  6
HIDDEN
 62
     5
100
AcDbCircle
 10
2.591267999999999
 20
0.7444890000000001
 30
0.0
 40
0.095
  0
CIRCLE
  5
341
330
335
100
AcDbEntity
  8
DAMAN
 62
     5
100
AcDbCircle
 10
2.591267999999999
 20
0.7447390000000001
 30
0.0
 40
0.078
  0
CIRCLE
  5
342
330
335
100
AcDbEntity
  8
DAMAN
 62
     5
100
AcDbCircle
 10
2.562267999999999
 20
1.689489
 30
0.0
 40
0.078
  0
INSERT
  5
343
330
335
100
AcDbEntity
  8
DAMAN
 62
     5
100
AcDbBlockReference
  2
100CROSS
 10
2.562267999999999
 20
1.689489
 30
0.0
 41
0.188
 42
0.188
  0
CIRCLE
  5
344
330
335
100
AcDbEntity
  8
DAMAN
  6
HIDDEN
 62
     5
100
AcDbCircle
 10
2.562267999999999
 20
1.689489
 30
0.0
 40
0.095
  0
CIRCLE
  5
345
330
335
100
AcDbEntity
  8
DAMAN
 62
     5
100
AcDbCircle
 10
2.119267999999999
 20
1.520488999999999
 30
0.0
 40
0.0885
  0
CIRCLE
  5
346
330
335
100
AcDbEntity
  8
DAMAN
 62
     5
100
AcDbCircle
 10
2.474267999999999
 20
1.217489
 30
0.0
 40
0.0885
  0
INSERT
  5
347
330
335
100
AcDbEntity
  8
DAMAN
 62
     5
100
AcDbBlockReference
  2
100CROSS
 10
2.474267999999999
 20
1.217489
 30
0.0
 41
0.1875
 42
0.1875
  0
CIRCLE
  5
348
330
335
100
AcDbEntity
  8
DAMAN
 62
     5
100
AcDbCircle
 10
2.119267999999999
 20
0.913489
 30
0.0
 40
0.0885
  0
INSERT
  5
349
330
335
100
AcDbEntity
  8
DAMAN
 62
     5
100
AcDbBlockReference
  2
100CROSS
 10
2.119267999999999
 20
0.913489
 30
0.0
 41
0.1875
 42
0.1875
  0
CIRCLE
  5
34A
330
335
100
AcDbEntity
  8
DAMAN
 62
     5
100
AcDbCircle
 10
1.765268
 20
1.217489
 30
0.0
 40
0.0885
  0
INSERT
  5
34B
330
335
100
AcDbEntity
  8
DAMAN
 62
     5
100
AcDbBlockReference
  2
100CROSS
 10
1.765268
 20
1.217489
 30
0.0
 41
0.1875
 42
0.1875
  0
CIRCLE
  5
34C
330
335
100
AcDbEntity
  8
DAMAN
 62
     5
100
AcDbCircle
 10
1.862704
 20
0.646489
 30
0.0
 40
0.0885
  0
ENDBLK
  5
34D
330
335
100
AcDbEntity
  8
0
100
AcDbBlockEnd
  0
BLOCK
  5
34F
330
34E
100
AcDbEntity
  8
0
100
AcDbBlockBegin
  2
D03
 70
     0
 10
0.0
 20
0.0
 30
0.0
  3
D03
  1

  0
INSERT
  5
350
330
34E
100
AcDbEntity
  8
DAMAN
100
AcDbBlockReference
  2
100CROSS
 10
0.61
 20
-1.1875
 30
0.0
 41
0.25
 42
0.25
  0
INSERT
  5
351
330
34E
100
AcDbEntity
  8
DAMAN
100
AcDbBlockReference
  2
100CROSS
 10
0.61
 20
-0.5
 30
0.0
 41
0.25
 42
0.25
  0
CIRCLE
  5
352
330
34E
100
AcDbEntity
  8
DAMAN
100
AcDbCircle
 10
0.61
 20
-0.5
 30
0.0
 40
0.141125
  0
CIRCLE
  5
353
330
34E
100
AcDbEntity
  8
DAMAN
100
AcDbCircle
 10
0.61
 20
-1.1875
 30
0.0
 40
0.141125
  0
INSERT
  5
354
330
34E
100
AcDbEntity
  8
DAMAN
100
AcDbBlockReference
  2
100CROSS
 10
0.2035
 20
-0.8440000000000001
 30
0.0
 41
0.25
 42
0.25
  0
CIRCLE
  5
355
330
34E
100
AcDbEntity
  8
DAMAN
100
AcDbCircle
 10
0.2035
 20
-0.8440000000000001
 30
0.0
 40
0.141375
  0
INSERT
  5
356
330
34E
100
AcDbEntity
  8
DAMAN
100
AcDbBlockReference
  2
100CROSS
 10
-0.03
 20
-1.3
 30
0.0
 41
0.171
 42
0.171
  0
INSERT
  5
357
330
34E
100
AcDbEntity
  8
DAMAN
100
AcDbBlockReference
  2
100CROSS
 10
-0.03
 20
-1.594
 30
0.0
 41
0.188
 42
0.188
  0
CIRCLE
  5
358
330
34E
100
AcDbEntity
  8
DAMAN
  6
HIDDEN
100
AcDbCircle
 10
-0.03
 20
-1.594
 30
0.0
 40
0.095
  0
CIRCLE
  5
359
330
34E
100
AcDbEntity
  8
DAMAN
100
AcDbCircle
 10
-0.03
 20
-1.59375
 30
0.0
 40
0.078
  0
CIRCLE
  5
35A
330
34E
100
AcDbEntity
  8
DAMAN
100
AcDbCircle
 10
-0.03
 20
-1.3
 30
0.0
 40
0.0855
  0
POINT
  5
35B
330
34E
100
AcDbEntity
  8
DAMAN
  6
BYBLOCK
 62
     0
100
AcDbPoint
 10
0.20425
 20
-0.75
 30
0.0
  0
POINT
  5
35C
330
34E
100
AcDbEntity
  8
DAMAN
  6
BYBLOCK
 62
     0
100
AcDbPoint
 10
0.20425
 20
-0.75
 30
0.0
  0
INSERT
  5
35D
330
34E
100
AcDbEntity
  8
DAMAN
100
AcDbBlockReference
  2
100CROSS
 10
0.0
 20
0.0
 30
0.0
 41
0.188
 42
0.188
  0
CIRCLE
  5
35E
330
34E
100
AcDbEntity
  8
DAMAN
100
AcDbCircle
 10
0.0
 20
0.0
 30
0.0
 40
0.078
  0
CIRCLE
  5
35F
330
34E
100
AcDbEntity
  8
DAMAN
  6
HIDDEN
100
AcDbCircle
 10
0.0
 20
0.0
 30
0.0
 40
0.095
  0
INSERT
  5
360
330
34E
100
AcDbEntity
  8
DAMAN
100
AcDbBlockReference
  2
100CROSS
 10
1.016
 20
-0.8440000000000001
 30
0.0
 41
0.25
 42
0.25
  0
CIRCLE
  5
361
330
34E
100
AcDbEntity
  8
DAMAN
100
AcDbCircle
 10
1.016
 20
-0.8440000000000001
 30
0.0
 40
0.141375
  0
INSERT
  5
362
330
34E
100
AcDbEntity
  8
DAMAN
100
AcDbBlockReference
  2
100CROSS
 10
1.25
 20
-1.594
 30
0.0
 41
0.188
 42
0.188
  0
CIRCLE
  5
363
330
34E
100
AcDbEntity
  8
DAMAN
  6
HIDDEN
100
AcDbCircle
 10
1.25
 20
-1.594
 30
0.0
 40
0.095
  0
CIRCLE
  5
364
330
34E
100
AcDbEntity
  8
DAMAN
100
AcDbCircle
 10
1.25
 20
-1.59375
 30
0.0
 40
0.078
  0
CIRCLE
  5
365
330
34E
100
AcDbEntity
  8
DAMAN
100
AcDbCircle
 10
1.219999999999999
 20
0.0
 30
0.0
 40
0.078
  0
INSERT
  5
366
330
34E
100
AcDbEntity
  8
DAMAN
100
AcDbBlockReference
  2
100CROSS
 10
1.219999999999999
 20
0.0
 30
0.0
 41
0.188
 42
0.188
  0
CIRCLE
  5
367
330
34E
100
AcDbEntity
  8
DAMAN
  6
HIDDEN
100
AcDbCircle
 10
1.219999999999999
 20
0.0
 30
0.0
 40
0.095
  0
ENDBLK
  5
368
330
34E
100
AcDbEntity
  8
0
100
AcDbBlockEnd
  0
BLOCK
  5
36A
330
369
100
AcDbEntity
  8
0
100
AcDbBlockBegin
  2
D03SF
 70
     0
 10
0.0
 20
0.0
 30
0.0
  3
D03SF
  1

  0
INSERT
  5
36C
330
369
100
AcDbEntity
  8
DAMAN
100
AcDbBlockReference
  2
D01I
 10
1.21875
 20
0.0
 30
0.0
 41
-1.0
  0
ENDBLK
  5
36D
330
369
100
AcDbEntity
  8
0
100
AcDbBlockEnd
  0
BLOCK
  5
36E
330
36B
100
AcDbEntity
  8
0
100
AcDbBlockBegin
  2
D01I
 70
     0
 10
9.0625
 20
9.75
 30
0.0
  3
D01I
  1

  0
CIRCLE
  5
36F
330
36B
100
AcDbEntity
  8
CSOLID
100
AcDbCircle
 10
9.03245
 20
8.450385
 30
0.0
 40
0.0625
  0
CIRCLE
  5
370
330
36B
100
AcDbEntity
  8
CSOLID
100
AcDbCircle
 10
10.07724999999999
 20
8.90625
 30
0.0
 40
0.2189999999999999
  0
CIRCLE
  5
371
330
36B
100
AcDbEntity
  8
CSOLID
100
AcDbCircle
 10
9.67125
 20
9.250249999999999
 30
0.0
 40
0.2189999999999999
  0
CIRCLE
  5
372
330
36B
100
AcDbEntity
  8
CSOLID
100
AcDbCircle
 10
9.265249999999999
 20
8.90625
 30
0.0
 40
0.2189999999999999
  0
CIRCLE
  5
373
330
36B
100
AcDbEntity
  8
CSOLID
100
AcDbCircle
 10
9.67125
 20
8.56225
 30
0.0
 40
0.2189999999999999
  0
CIRCLE
  5
374
330
36B
100
AcDbEntity
  8
CSOLID
100
AcDbCircle
 10
9.03125
 20
8.15625
 30
0.0
 40
0.1095
  0
CIRCLE
  5
375
330
36B
100
AcDbEntity
  8
CSOLID
100
AcDbCircle
 10
10.3125
 20
8.15625
 30
0.0
 40
0.1095
  0
CIRCLE
  5
376
330
36B
100
AcDbEntity
  8
CSOLID
100
AcDbCircle
 10
10.28124999999999
 20
9.75
 30
0.0
 40
0.1095
  0
CIRCLE
  5
377
330
36B
100
AcDbEntity
  8
CSOLID
100
AcDbCircle
 10
9.0625
 20
9.75
 30
0.0
 40
0.1095
  0
CIRCLE
  5
378
330
36B
100
AcDbEntity
  8
CSOLID
100
AcDbCircle
 10
9.672499999999999
 20
9.25
 30
0.0
 40
0.125
  0
CIRCLE
  5
379
330
36B
100
AcDbEntity
  8
CSOLID
100
AcDbCircle
 10
10.0785
 20
8.906
 30
0.0
 40
0.125
  0
CIRCLE
  5
37A
330
36B
100
AcDbEntity
  8
CSOLID
100
AcDbCircle
 10
9.266
 20
8.906
 30
0.0
 40
0.125
  0
CIRCLE
  5
37B
330
36B
100
AcDbEntity
  8
CSOLID
100
AcDbCircle
 10
9.672499999999999
 20
8.5625
 30
0.0
 40
0.125
  0
INSERT
  5
37C
330
36B
100
AcDbEntity
  8
CCENTER
100
AcDbBlockReference
  2
100CROSS
 10
9.0325
 20
8.449999999999999
 30
0.0
 41
0.171
 42
0.171
  0
INSERT
  5
37D
330
36B
100
AcDbEntity
  8
CCENTER
100
AcDbBlockReference
  2
100CROSS
 10
9.670999999999999
 20
8.562000000000001
 30
0.0
 41
0.4
 42
0.4
  0
INSERT
  5
37E
330
36B
100
AcDbEntity
  8
CCENTER
100
AcDbBlockReference
  2
100CROSS
 10
10.0775
 20
8.906
 30
0.0
 41
0.4
 42
0.4
  0
INSERT
  5
37F
330
36B
100
AcDbEntity
  8
CCENTER
100
AcDbBlockReference
  2
100CROSS
 10
9.670999999999999
 20
9.25
 30
0.0
 41
0.4
 42
0.4
  0
INSERT
  5
380
330
36B
100
AcDbEntity
  8
CCENTER
100
AcDbBlockReference
  2
100CROSS
 10
9.265
 20
8.906
 30
0.0
 41
0.4
 42
0.4
  0
INSERT
  5
381
330
36B
100
AcDbEntity
  8
CCENTER
100
AcDbBlockReference
  2
100CROSS
 10
9.03125
 20
8.15625
 30
0.0
 41
0.34
 42
0.34
 43
0.34
  0
INSERT
  5
382
330
36B
100
AcDbEntity
  8
CCENTER
100
AcDbBlockReference
  2
100CROSS
 10
10.3125
 20
8.15625
 30
0.0
 41
0.34
 42
0.34
 43
0.34
  0
INSERT
  5
383
330
36B
100
AcDbEntity
  8
CCENTER
100
AcDbBlockReference
  2
100CROSS
 10
10.28124999999999
 20
9.75
 30
0.0
 41
0.34
 42
0.34
 43
0.34
  0
INSERT
  5
384
330
36B
100
AcDbEntity
  8
CCENTER
100
AcDbBlockReference
  2
100CROSS
 10
9.0625
 20
9.75
 30
0.0
 41
0.34
 42
0.34
 43
0.34
  0
ENDBLK
  5
385
330
36B
100
AcDbEntity
  8
0
100
AcDbBlockEnd
  0
BLOCK
  5
387
330
386
100
AcDbEntity
  8
0
100
AcDbBlockBegin
  2
012NPTFT
 70
     0
 10
0.0
 20
0.0
 30
0.0
  3
012NPTFT
  1

  0
CIRCLE
  5
388
330
386
100
AcDbEntity
  8
DAMAN
  6
HIDDEN
100
AcDbCircle
 10
0.0
 20
0.0
 30
0.0
 40
0.1875
  0
CIRCLE
  5
389
330
386
100
AcDbEntity
  8
DAMAN
100
AcDbCircle
 10
0.0
 20
0.0
 30
0.0
 40
0.2105
  0
CIRCLE
  5
38A
330
386
100
AcDbEntity
  8
DAMAN
100
AcDbCircle
 10
0.0
 20
0.0
 30
0.0
 40
0.1695
  0
INSERT
  5
38B
330
386
100
AcDbEntity
  8
DAMAN
100
AcDbBlockReference
  2
100CROSS
 10
0.0
 20
0.0
 30
0.0
 41
0.43
 42
0.43
  0
ENDBLK
  5
38C
330
386
100
AcDbEntity
  8
0
100
AcDbBlockEnd
  0
BLOCK
  5
411
330
3F0
100
AcDbEntity
  8
0
100
AcDbBlockBegin
  2
A$C15EE21EE
 70
     0
 10
0.0
 20
0.0
 30
0.0
  3
A$C15EE21EE
  1

  0
CIRCLE
  5
3F1
330
3F0
100
AcDbEntity
  8
DAMAN
100
AcDbCircle
 10
0.7462500140218547
 20
1.991249990683024
 30
0.0
 40
0.34375
  0
LINE
  5
3F2
330
3F0
100
AcDbEntity
  8
DAMAN
  6
CENTER
100
AcDbLine
 10
0.7462500140218547
 20
1.553749990683023
 30
0.0
 11
0.7462500140218547
 21
2.428749990683024
 31
0.0
  0
LINE
  5
3F3
330
3F0
100
AcDbEntity
  8
DAMAN
  6
CENTER
100
AcDbLine
 10
0.3062500140218551
 20
-0.0000000093169756
 30
0.0
 11
0.3062500140218551
 21
0.6124999906830251
 31
0.0
  0
LINE
  5
3F4
330
3F0
100
AcDbEntity
  8
DAMAN
  6
CENTER
100
AcDbLine
 10
0.0000000140218548
 20
0.3062499906830247
 30
0.0
 11
0.6125000140218555
 21
0.3062499906830247
 31
0.0
  0
CIRCLE
  5
3F5
330
3F0
100
AcDbEntity
  8
DAMAN
100
AcDbCircle
 10
0.3062500140218551
 20
0.3062499906830247
 30
0.0
 40
0.156
  0
CIRCLE
  5
3F6
330
3F0
100
AcDbEntity
  8
DAMAN
100
AcDbCircle
 10
0.3062500140218551
 20
0.3062499906830247
 30
0.0
 40
0.1875
  0
LINE
  5
3F7
330
3F0
100
AcDbEntity
  8
DAMAN
  6
CENTER
100
AcDbLine
 10
0.3087500140218546
 20
1.991249990683024
 30
0.0
 11
1.183750014021854
 21
1.991249990683024
 31
0.0
  0
LINE
  5
3F8
330
3F0
100
AcDbEntity
  8
DAMAN
  6
CENTER
100
AcDbLine
 10
0.0000000140218548
 20
3.681249990683024
 30
0.0
 11
0.6125000140218555
 21
3.681249990683024
 31
0.0
  0
LINE
  5
3F9
330
3F0
100
AcDbEntity
  8
DAMAN
  6
CENTER
100
AcDbLine
 10
0.3062500140218551
 20
3.374999990683024
 30
0.0
 11
0.3062500140218551
 21
3.987499990683025
 31
0.0
  0
CIRCLE
  5
3FA
330
3F0
100
AcDbEntity
  8
DAMAN
100
AcDbCircle
 10
0.3062500140218551
 20
3.681249990683024
 30
0.0
 40
0.1875
  0
CIRCLE
  5
3FB
330
3F0
100
AcDbEntity
  8
DAMAN
100
AcDbCircle
 10
0.3062500140218551
 20
3.681249990683024
 30
0.0
 40
0.156
  0
CIRCLE
  5
3FC
330
3F0
100
AcDbEntity
  8
DAMAN
100
AcDbCircle
 10
2.746250014021855
 20
1.991249990683024
 30
0.0
 40
0.34375
  0
LINE
  5
3FD
330
3F0
100
AcDbEntity
  8
DAMAN
  6
CENTER
100
AcDbLine
 10
2.746250014021855
 20
1.553749990683023
 30
0.0
 11
2.746250014021855
 21
2.428749990683024
 31
0.0
  0
LINE
  5
3FE
330
3F0
100
AcDbEntity
  8
DAMAN
  6
CENTER
100
AcDbLine
 10
2.875000014021853
 20
0.3062499906830247
 30
0.0
 11
3.487500014021854
 21
0.3062499906830247
 31
0.0
  0
LINE
  5
3FF
330
3F0
100
AcDbEntity
  8
DAMAN
  6
CENTER
100
AcDbLine
 10
3.181250014021856
 20
-0.0000000093169756
 30
0.0
 11
3.181250014021856
 21
0.6124999906830251
 31
0.0
  0
CIRCLE
  5
400
330
3F0
100
AcDbEntity
  8
DAMAN
100
AcDbCircle
 10
1.746250014021854
 20
0.9912499906830234
 30
0.0
 40
0.34375
  0
LINE
  5
401
330
3F0
100
AcDbEntity
  8
DAMAN
  6
CENTER
100
AcDbLine
 10
1.746250014021854
 20
0.5537499906830235
 30
0.0
 11
1.746250014021854
 21
1.428749990683023
 31
0.0
  0
LINE
  5
402
330
3F0
100
AcDbEntity
  8
DAMAN
  6
CENTER
100
AcDbLine
 10
1.308750014021854
 20
0.9912499906830234
 30
0.0
 11
2.183750014021854
 21
0.9912499906830234
 31
0.0
  0
POINT
  5
403
330
3F0
100
AcDbEntity
  8
DAMAN
100
AcDbPoint
 10
1.746250014021854
 20
0.9912499906830234
 30
0.0
  0
LINE
  5
404
330
3F0
100
AcDbEntity
  8
DAMAN
  6
CENTER
100
AcDbLine
 10
2.746250014021855
 20
1.022499990683023
 30
0.0
 11
2.746250014021855
 21
1.459999990683023
 31
0.0
  0
CIRCLE
  5
405
330
3F0
100
AcDbEntity
  8
DAMAN
100
AcDbCircle
 10
3.181250014021856
 20
0.3062499906830247
 30
0.0
 40
0.1875
  0
CIRCLE
  5
406
330
3F0
100
AcDbEntity
  8
DAMAN
100
AcDbCircle
 10
3.181250014021856
 20
0.3062499906830247
 30
0.0
 40
0.156
  0
LINE
  5
407
330
3F0
100
AcDbEntity
  8
DAMAN
  6
CENTER
100
AcDbLine
 10
2.308750014021855
 20
1.991249990683024
 30
0.0
 11
3.183750014021855
 21
1.991249990683024
 31
0.0
  0
LINE
  5
408
330
3F0
100
AcDbEntity
  8
DAMAN
  6
CENTER
100
AcDbLine
 10
2.527500014021855
 20
1.241249990683023
 30
0.0
 11
2.965000014021855
 21
1.241249990683023
 31
0.0
  0
CIRCLE
  5
409
330
3F0
100
AcDbEntity
  8
DAMAN
100
AcDbCircle
 10
2.746250014021855
 20
1.241249990683023
 30
0.0
 40
0.08
  0
LINE
  5
40A
330
3F0
100
AcDbEntity
  8
DAMAN
  6
CENTER
100
AcDbLine
 10
2.875000014021853
 20
3.681249990683024
 30
0.0
 11
3.487500014021854
 21
3.681249990683024
 31
0.0
  0
LINE
  5
40B
330
3F0
100
AcDbEntity
  8
DAMAN
  6
CENTER
100
AcDbLine
 10
1.746250014021854
 20
2.553749990683024
 30
0.0
 11
1.746250014021854
 21
3.428749990683025
 31
0.0
  0
CIRCLE
  5
40C
330
3F0
100
AcDbEntity
  8
DAMAN
100
AcDbCircle
 10
1.746250014021854
 20
2.991249990683024
 30
0.0
 40
0.34375
  0
LINE
  5
40D
330
3F0
100
AcDbEntity
  8
DAMAN
  6
CENTER
100
AcDbLine
 10
1.308750014021854
 20
2.991249990683024
 30
0.0
 11
2.183750014021854
 21
2.991249990683024
 31
0.0
  0
LINE
  5
40E
330
3F0
100
AcDbEntity
  8
DAMAN
  6
CENTER
100
AcDbLine
 10
3.181250014021856
 20
3.374999990683024
 30
0.0
 11
3.181250014021856
 21
3.987499990683025
 31
0.0
  0
CIRCLE
  5
40F
330
3F0
100
AcDbEntity
  8
DAMAN
100
AcDbCircle
 10
3.181250014021856
 20
3.681249990683024
 30
0.0
 40
0.156
  0
CIRCLE
  5
410
330
3F0
100
AcDbEntity
  8
DAMAN
100
AcDbCircle
 10
3.181250014021856
 20
3.681249990683024
 30
0.0
 40
0.1875
  0
ENDBLK
  5
412
330
3F0
100
AcDbEntity
  8
0
100
AcDbBlockEnd
  0
ENDSEC
  0
SECTION
  2
ENTITIES
  0
TEXT
  5
38D
330
1E
100
AcDbEntity
  8
DAMAN
100
AcDbText
 10
8.623353999999999
 20
2.841258
 30
0.0
 40
0.188
  1
P
100
AcDbText
  0
TEXT
  5
38E
330
1E
100
AcDbEntity
  8
DAMAN
100
AcDbText
 10
6.53283
 20
10.765461
 30
0.0
 40
0.188
  1
T
 50
180.0
100
AcDbText
  0
TEXT
  5
38F
330
1E
100
AcDbEntity
  8
DAMAN
100
AcDbText
 10
3.429887999999999
 20
5.697853
 30
0.0
 40
0.188
  1
B
 50
270.0
100
AcDbText
  0
TEXT
  5
390
330
1E
100
AcDbEntity
  8
DAMAN
100
AcDbText
 10
11.428374
 20
7.76227
 30
0.0
 40
0.188
  1
A
 50
90.0
100
AcDbText
  0
CIRCLE
  5
391
330
1E
100
AcDbEntity
  8
S02
100
AcDbCircle
 10
5.40625
 20
4.53125
 30
0.0
 40
0.085
  0
CIRCLE
  5
392
330
1E
100
AcDbEntity
  8
S02
100
AcDbCircle
 10
5.71875
 20
4.21875
 30
0.0
 40
0.085
  0
CIRCLE
  5
393
330
1E
100
AcDbEntity
  8
S02
100
AcDbCircle
 10
6.03125
 20
4.53125
 30
0.0
 40
0.085
  0
CIRCLE
  5
394
330
1E
100
AcDbEntity
  8
S02
100
AcDbCircle
 10
5.71875
 20
4.84375
 30
0.0
 40
0.085
  0
CIRCLE
  5
395
330
1E
100
AcDbEntity
  8
S02
100
AcDbCircle
 10
6.558749999999999
 20
5.201249999999999
 30
0.0
 40
0.09375
  0
CIRCLE
  5
396
330
1E
100
AcDbEntity
  8
S02
100
AcDbCircle
 10
6.558749999999999
 20
5.201249999999999
 30
0.0
 40
0.078125
  0
INSERT
  5
397
330
1E
100
AcDbEntity
  8
S02
100
AcDbBlockReference
  2
100CROSS
 10
6.558749999999999
 20
5.201249999999999
 30
0.0
 41
0.1875
 42
0.1875
  0
CIRCLE
  5
398
330
1E
100
AcDbEntity
  8
S02
100
AcDbCircle
 10
4.87875
 20
5.201249999999999
 30
0.0
 40
0.078125
  0
CIRCLE
  5
399
330
1E
100
AcDbEntity
  8
S02
100
AcDbCircle
 10
4.87875
 20
5.201249999999999
 30
0.0
 40
0.09375
  0
CIRCLE
  5
39A
330
1E
100
AcDbEntity
  8
S02
100
AcDbCircle
 10
4.87875
 20
3.86125
 30
0.0
 40
0.078125
  0
CIRCLE
  5
39B
330
1E
100
AcDbEntity
  8
S02
100
AcDbCircle
 10
4.87875
 20
3.86125
 30
0.0
 40
0.09375
  0
INSERT
  5
39C
330
1E
100
AcDbEntity
  8
S02
100
AcDbBlockReference
  2
100CROSS
 10
4.87875
 20
3.86125
 30
0.0
 41
0.1875
 42
0.1875
  0
CIRCLE
  5
39D
330
1E
100
AcDbEntity
  8
S02
100
AcDbCircle
 10
6.558749999999999
 20
3.86125
 30
0.0
 40
0.078125
  0
CIRCLE
  5
39E
330
1E
100
AcDbEntity
  8
S02
100
AcDbCircle
 10
6.558749999999999
 20
3.86125
 30
0.0
 40
0.09375
  0
INSERT
  5
39F
330
1E
100
AcDbEntity
  8
S02
100
AcDbBlockReference
  2
100CROSS
 10
6.558749999999999
 20
3.86125
 30
0.0
 41
0.1875
 42
0.1875
  0
INSERT
  5
3A0
330
1E
100
AcDbEntity
  8
S02
100
AcDbBlockReference
  2
100CROSS
 10
5.71875
 20
4.84375
 30
0.0
 41
0.1875
 42
0.1875
  0
INSERT
  5
3A1
330
1E
100
AcDbEntity
  8
S02
100
AcDbBlockReference
  2
100CROSS
 10
5.40625
 20
4.53125
 30
0.0
 41
0.1875
 42
0.1875
  0
INSERT
  5
3A2
330
1E
100
AcDbEntity
  8
S02
100
AcDbBlockReference
  2
100CROSS
 10
5.71875
 20
4.21875
 30
0.0
 41
0.1875
 42
0.1875
  0
INSERT
  5
3A3
330
1E
100
AcDbEntity
  8
S02
100
AcDbBlockReference
  2
100CROSS
 10
6.03125
 20
4.53125
 30
0.0
 41
0.1875
 42
0.1875
  0
CIRCLE
  5
3A4
330
1E
100
AcDbEntity
  8
S02
100
AcDbCircle
 10
6.108749999999999
 20
4.03125
 30
0.0
 40
0.08
  0
INSERT
  5
3A5
330
1E
100
AcDbEntity
  8
S02
100
AcDbBlockReference
  2
100CROSS
 10
6.108749999999999
 20
4.03125
 30
0.0
 41
0.1875
 42
0.1875
  0
INSERT
  5
3A6
330
1E
100
AcDbEntity
  8
S02
100
AcDbBlockReference
  2
100CROSS
 10
4.87875
 20
5.201249999999999
 30
0.0
 41
0.1875
 42
0.1875
  0
INSERT
  5
3A7
330
1E
100
AcDbEntity
  8
S03
100
AcDbBlockReference
  2
S03
 10
3.34375
 20
2.34375
 30
0.0
  0
TEXT
  5
3A8
330
1E
100
AcDbEntity
  8
DAMAN
100
AcDbText
 10
5.193173
 20
2.757668999999999
 30
0.0
 40
0.188
  1
DAMAN
100
AcDbText
  0
TEXT
  5
3A9
330
1E
100
AcDbEntity
  8
DAMAN
100
AcDbText
 10
5.193173
 20
2.444334999999999
 30
0.0
 40
0.188
  1
****
100
AcDbText
  0
LINE
  5
3AA
330
1E
100
AcDbEntity
  8
DAMAN
100
AcDbLine
 10
5.040046
 20
4.248568999999999
 30
0.0
 11
5.040046
 21
9.248568999999999
 31
0.0
  0
LINE
  5
3AB
330
1E
100
AcDbEntity
  8
DAMAN
100
AcDbLine
 10
5.040046
 20
9.248568999999999
 30
0.0
 11
10.040046
 21
9.248568999999999
 31
0.0
  0
LINE
  5
3AC
330
1E
100
AcDbEntity
  8
DAMAN
100
AcDbLine
 10
10.040046
 20
4.248568999999999
 30
0.0
 11
10.040046
 21
9.248568999999999
 31
0.0
  0
LINE
  5
3AD
330
1E
100
AcDbEntity
  8
DAMAN
100
AcDbLine
 10
5.040046
 20
4.248568999999999
 30
0.0
 11
10.040046
 21
4.248568999999999
 31
0.0
  0
LINE
  5
3AE
330
1E
100
AcDbEntity
  8
DAMAN
100
AcDbLine
 10
4.040046
 20
4.248568999999999
 30
0.0
 11
4.040046
 21
9.248568999999999
 31
0.0
  0
LINE
  5
3AF
330
1E
100
AcDbEntity
  8
DAMAN
100
AcDbLine
 10
5.040046
 20
3.248568999999999
 30
0.0
 11
10.040046
 21
3.248568999999999
 31
0.0
  0
LINE
  5
3B0
330
1E
100
AcDbEntity
  8
DAMAN
100
AcDbLine
 10
5.040046
 20
10.248569
 30
0.0
 11
10.040046
 21
10.248569
 31
0.0
  0
LINE
  5
3B1
330
1E
100
AcDbEntity
  8
DAMAN
100
AcDbLine
 10
11.040046
 20
4.248568999999999
 30
0.0
 11
11.040046
 21
9.248568999999999
 31
0.0
  0
LINE
  5
3B2
330
1E
100
AcDbEntity
  8
DAMAN
100
AcDbLine
 10
1.540045999999999
 20
4.248568999999999
 30
0.0
 11
1.540045999999999
 21
9.248568999999999
 31
0.0
  0
LINE
  5
3B3
330
1E
100
AcDbEntity
  8
DAMAN
100
AcDbLine
 10
5.040046
 20
0.7485689999999999
 30
0.0
 11
10.040046
 21
0.7485689999999999
 31
0.0
  0
LINE
  5
3B4
330
1E
100
AcDbEntity
  8
DAMAN
100
AcDbLine
 10
13.54004599999999
 20
4.248568999999999
 30
0.0
 11
13.54004599999999
 21
9.248568999999999
 31
0.0
  0
LINE
  5
3B5
330
1E
100
AcDbEntity
  8
DAMAN
100
AcDbLine
 10
5.040046
 20
12.748569
 30
0.0
 11
10.040046
 21
12.748569
 31
0.0
  0
LINE
  5
3B6
330
1E
100
AcDbEntity
  8
DAMAN
100
AcDbLine
 10
5.040046
 20
0.7485689999999999
 30
0.0
 11
5.040046
 21
3.248568999999999
 31
0.0
  0
LINE
  5
3B7
330
1E
100
AcDbEntity
  8
DAMAN
100
AcDbLine
 10
4.040046
 20
4.248568999999999
 30
0.0
 11
1.540045999999999
 21
4.248568999999999
 31
0.0
  0
LINE
  5
3B8
330
1E
100
AcDbEntity
  8
DAMAN
100
AcDbLine
 10
1.540045999999999
 20
9.248568999999999
 30
0.0
 11
4.040046
 21
9.248568999999999
 31
0.0
  0
LINE
  5
3B9
330
1E
100
AcDbEntity
  8
DAMAN
100
AcDbLine
 10
5.040046
 20
10.248569
 30
0.0
 11
5.040046
 21
12.748569
 31
0.0
  0
LINE
  5
3BA
330
1E
100
AcDbEntity
  8
DAMAN
100
AcDbLine
 10
10.040046
 20
12.748569
 30
0.0
 11
10.040046
 21
10.248569
 31
0.0
  0
LINE
  5
3BB
330
1E
100
AcDbEntity
  8
DAMAN
100
AcDbLine
 10
11.040046
 20
9.248568999999999
 30
0.0
 11
13.54004599999999
 21
9.248568999999999
 31
0.0
  0
LINE
  5
3BC
330
1E
100
AcDbEntity
  8
DAMAN
100
AcDbLine
 10
11.040046
 20
4.248568999999999
 30
0.0
 11
13.54004599999999
 21
4.248568999999999
 31
0.0
  0
LINE
  5
3BD
330
1E
100
AcDbEntity
  8
DAMAN
100
AcDbLine
 10
10.040046
 20
0.7485689999999999
 30
0.0
 11
10.040046
 21
3.248568999999999
 31
0.0
  0
INSERT
  5
3BE
330
1E
100
AcDbEntity
  8
ISO
100
AcDbBlockReference
  2
M42T
 10
12.290046
 20
6.748568999999999
 30
0.0
  0
INSERT
  5
3BF
330
1E
100
AcDbEntity
  8
SAE
100
AcDbBlockReference
  2
20SAET
 10
12.290046
 20
6.748568999999999
 30
0.0
  0
INSERT
  5
3C0
330
1E
100
AcDbEntity
  8
ISO
100
AcDbBlockReference
  2
M42T
 10
7.540046
 20
11.498569
 30
0.0
  0
INSERT
  5
3C1
330
1E
100
AcDbEntity
  8
SAE
100
AcDbBlockReference
  2
20SAET
 10
7.540046
 20
11.498569
 30
0.0
  0
INSERT
  5
3C2
330
1E
100
AcDbEntity
  8
ISO
100
AcDbBlockReference
  2
M42T
 10
2.790045999999999
 20
6.748568999999999
 30
0.0
  0
INSERT
  5
3C3
330
1E
100
AcDbEntity
  8
SAE
100
AcDbBlockReference
  2
20SAET
 10
2.790045999999999
 20
6.748568999999999
 30
0.0
  0
INSERT
  5
3C4
330
1E
100
AcDbEntity
  8
ISO
100
AcDbBlockReference
  2
M42T
 10
7.540046
 20
1.998568999999999
 30
0.0
  0
INSERT
  5
3C5
330
1E
100
AcDbEntity
  8
SAE
100
AcDbBlockReference
  2
20SAET
 10
7.540046
 20
1.998568999999999
 30
0.0
  0
CIRCLE
  5
3C6
330
1E
100
AcDbEntity
  8
DAMAN
100
AcDbCircle
 10
5.415046
 20
4.623568999999999
 30
0.0
 40
0.203
  0
CIRCLE
  5
3C7
330
1E
100
AcDbEntity
  8
DAMAN
100
AcDbCircle
 10
5.415046
 20
4.623568999999999
 30
0.0
 40
0.3125
  0
LINE
  5
3E7
330
1E
100
AcDbEntity
  8
DAMAN
  6
CENTER
100
AcDbLine
 10
5.415046
 20
4.186068999999999
 30
0.0
 11
5.415046
 21
5.061068999999999
 31
0.0
  0
LINE
  5
3E8
330
1E
100
AcDbEntity
  8
DAMAN
  6
CENTER
100
AcDbLine
 10
4.977546
 20
4.623568999999999
 30
0.0
 11
5.852546
 21
4.623568999999999
 31
0.0
  0
POINT
  5
3E9
330
1E
100
AcDbEntity
  8
DAMAN
100
AcDbPoint
 10
5.415046
 20
4.623568999999999
 30
0.0
  0
CIRCLE
  5
3EA
330
1E
100
AcDbEntity
  8
DAMAN
100
AcDbCircle
 10
9.665046
 20
8.873568999999999
 30
0.0
 40
0.3125
  0
CIRCLE
  5
3EB
330
1E
100
AcDbEntity
  8
DAMAN
100
AcDbCircle
 10
9.665046
 20
8.873568999999999
 30
0.0
 40
0.203
  0
LINE
  5
3EC
330
1E
100
AcDbEntity
  8
DAMAN
  6
CENTER
100
AcDbLine
 10
9.227546
 20
8.873568999999999
 30
0.0
 11
10.102546
 21
8.873568999999999
 31
0.0
  0
POINT
  5
3ED
330
1E
100
AcDbEntity
  8
DAMAN
100
AcDbPoint
 10
9.665046
 20
8.873568999999999
 30
0.0
  0
LINE
  5
3EE
330
1E
100
AcDbEntity
  8
DAMAN
  6
CENTER
100
AcDbLine
 10
9.665046
 20
8.436068999999999
 30
0.0
 11
9.665046
 21
9.311068999999999
 31
0.0
  0
CIRCLE
  5
414
330
1E
100
AcDbEntity
  8
DAMAN
100
AcDbCircle
 10
6.540047999999999
 20
6.748527
 30
0.0
 40
0.34375
  0
LINE
  5
415
330
1E
100
AcDbEntity
  8
DAMAN
  6
CENTER
100
AcDbLine
 10
6.540047999999999
 20
6.311026999999999
 30
0.0
 11
6.540047999999999
 21
7.186027
 31
0.0
  0
LINE
  5
416
330
1E
100
AcDbEntity
  8
DAMAN
  6
CENTER
100
AcDbLine
 10
6.100048
 20
4.757277
 30
0.0
 11
6.100048
 21
5.369777
 31
0.0
  0
LINE
  5
417
330
1E
100
AcDbEntity
  8
DAMAN
  6
CENTER
100
AcDbLine
 10
5.793797999999999
 20
5.063527
 30
0.0
 11
6.406298
 21
5.063527
 31
0.0
  0
CIRCLE
  5
418
330
1E
100
AcDbEntity
  8
DAMAN
100
AcDbCircle
 10
6.100048
 20
5.063527
 30
0.0
 40
0.156
  0
CIRCLE
  5
419
330
1E
100
AcDbEntity
  8
DAMAN
100
AcDbCircle
 10
6.100048
 20
5.063527
 30
0.0
 40
0.1875
  0
LINE
  5
41A
330
1E
100
AcDbEntity
  8
DAMAN
  6
CENTER
100
AcDbLine
 10
6.102547999999999
 20
6.748527
 30
0.0
 11
6.977547999999999
 21
6.748527
 31
0.0
  0
LINE
  5
41B
330
1E
100
AcDbEntity
  8
DAMAN
  6
CENTER
100
AcDbLine
 10
5.793797999999999
 20
8.438527
 30
0.0
 11
6.406298
 21
8.438527
 31
0.0
  0
LINE
  5
41C
330
1E
100
AcDbEntity
  8
DAMAN
  6
CENTER
100
AcDbLine
 10
6.100048
 20
8.132277
 30
0.0
 11
6.100048
 21
8.744777
 31
0.0
  0
CIRCLE
  5
41D
330
1E
100
AcDbEntity
  8
DAMAN
100
AcDbCircle
 10
6.100048
 20
8.438527
 30
0.0
 40
0.1875
  0
CIRCLE
  5
41E
330
1E
100
AcDbEntity
  8
DAMAN
100
AcDbCircle
 10
6.100048
 20
8.438527
 30
0.0
 40
0.156
  0
CIRCLE
  5
41F
330
1E
100
AcDbEntity
  8
DAMAN
100
AcDbCircle
 10
8.540048
 20
6.748527
 30
0.0
 40
0.34375
  0
LINE
  5
420
330
1E
100
AcDbEntity
  8
DAMAN
  6
CENTER
100
AcDbLine
 10
8.540048
 20
6.311026999999999
 30
0.0
 11
8.540048
 21
7.186027
 31
0.0
  0
LINE
  5
421
330
1E
100
AcDbEntity
  8
DAMAN
  6
CENTER
100
AcDbLine
 10
8.668797999999998
 20
5.063527
 30
0.0
 11
9.281297999999999
 21
5.063527
 31
0.0
  0
LINE
  5
422
330
1E
100
AcDbEntity
  8
DAMAN
  6
CENTER
100
AcDbLine
 10
8.975048000000001
 20
4.757277
 30
0.0
 11
8.975048000000001
 21
5.369777
 31
0.0
  0
CIRCLE
  5
423
330
1E
100
AcDbEntity
  8
DAMAN
100
AcDbCircle
 10
7.540047999999999
 20
5.748526999999999
 30
0.0
 40
0.34375
  0
LINE
  5
424
330
1E
100
AcDbEntity
  8
DAMAN
  6
CENTER
100
AcDbLine
 10
7.540047999999999
 20
5.311026999999999
 30
0.0
 11
7.540047999999999
 21
6.186026999999999
 31
0.0
  0
LINE
  5
425
330
1E
100
AcDbEntity
  8
DAMAN
  6
CENTER
100
AcDbLine
 10
7.102547999999999
 20
5.748526999999999
 30
0.0
 11
7.977547999999999
 21
5.748526999999999
 31
0.0
  0
POINT
  5
426
330
1E
100
AcDbEntity
  8
DAMAN
100
AcDbPoint
 10
7.540047999999999
 20
5.748526999999999
 30
0.0
  0
LINE
  5
427
330
1E
100
AcDbEntity
  8
DAMAN
  6
CENTER
100
AcDbLine
 10
8.540048
 20
5.779776999999999
 30
0.0
 11
8.540048
 21
6.217276999999999
 31
0.0
  0
CIRCLE
  5
428
330
1E
100
AcDbEntity
  8
DAMAN
100
AcDbCircle
 10
8.975048000000001
 20
5.063527
 30
0.0
 40
0.1875
  0
CIRCLE
  5
429
330
1E
100
AcDbEntity
  8
DAMAN
100
AcDbCircle
 10
8.975048000000001
 20
5.063527
 30
0.0
 40
0.156
  0
LINE
  5
42A
330
1E
100
AcDbEntity
  8
DAMAN
  6
CENTER
100
AcDbLine
 10
8.102548
 20
6.748527
 30
0.0
 11
8.977548
 21
6.748527
 31
0.0
  0
LINE
  5
42B
330
1E
100
AcDbEntity
  8
DAMAN
  6
CENTER
100
AcDbLine
 10
8.321298
 20
5.998526999999999
 30
0.0
 11
8.758798
 21
5.998526999999999
 31
0.0
  0
CIRCLE
  5
42C
330
1E
100
AcDbEntity
  8
DAMAN
100
AcDbCircle
 10
8.540048
 20
5.998526999999999
 30
0.0
 40
0.08
  0
LINE
  5
42D
330
1E
100
AcDbEntity
  8
DAMAN
  6
CENTER
100
AcDbLine
 10
8.668797999999998
 20
8.438527
 30
0.0
 11
9.281297999999999
 21
8.438527
 31
0.0
  0
LINE
  5
42E
330
1E
100
AcDbEntity
  8
DAMAN
  6
CENTER
100
AcDbLine
 10
7.540047999999999
 20
7.311027
 30
0.0
 11
7.540047999999999
 21
8.186027000000001
 31
0.0
  0
CIRCLE
  5
42F
330
1E
100
AcDbEntity
  8
DAMAN
100
AcDbCircle
 10
7.540047999999999
 20
7.748527
 30
0.0
 40
0.34375
  0
LINE
  5
430
330
1E
100
AcDbEntity
  8
DAMAN
  6
CENTER
100
AcDbLine
 10
7.102547999999999
 20
7.748527
 30
0.0
 11
7.977547999999999
 21
7.748527
 31
0.0
  0
LINE
  5
431
330
1E
100
AcDbEntity
  8
DAMAN
  6
CENTER
100
AcDbLine
 10
8.975048000000001
 20
8.132277
 30
0.0
 11
8.975048000000001
 21
8.744777
 31
0.0
  0
CIRCLE
  5
432
330
1E
100
AcDbEntity
  8
DAMAN
100
AcDbCircle
 10
8.975048000000001
 20
8.438527
 30
0.0
 40
0.156
  0
CIRCLE
  5
433
330
1E
100
AcDbEntity
  8
DAMAN
100
AcDbCircle
 10
8.975048000000001
 20
8.438527
 30
0.0
 40
0.1875
  0
ENDSEC
  0
SECTION
  2
OBJECTS
  0
DICTIONARY
  5
C
330
0
100
AcDbDictionary
  3
ACAD_GROUP
350
D
  3
ACAD_LAYOUT
350
19
  3
ACAD_MLINESTYLE
350
16
  3
ACAD_PLOTSETTINGS
350
18
  3
ACAD_PLOTSTYLENAME
350
E
  3
ACDBHEADERROUNDTRIPXREC
350
435
  0
DICTIONARY
  5
457
330
1E
100
AcDbDictionary
280
     1
  3
ACAD_LAYOUTSELFREF
360
458
  0
DICTIONARY
  5
455
330
1A
100
AcDbDictionary
280
     1
  3
ACAD_LAYOUTSELFREF
360
456
  0
DICTIONARY
  5
D
102
{ACAD_REACTORS
330
C
102
}
330
C
100
AcDbDictionary
  0
DICTIONARY
  5
19
102
{ACAD_REACTORS
330
C
102
}
330
C
100
AcDbDictionary
  0
DICTIONARY
  5
16
102
{ACAD_REACTORS
330
C
102
}
330
C
100
AcDbDictionary
  3
STANDARD
350
17
  0
DICTIONARY
  5
18
102
{ACAD_REACTORS
330
C
102
}
330
C
100
AcDbDictionary
  0
ACDBDICTIONARYWDFLT
  5
E
102
{ACAD_REACTORS
330
C
102
}
330
C
100
AcDbDictionary
281
     1
  3
Normal
350
F
100
AcDbDictionaryWithDefault
340
F
  0
DICTIONARY
  5
435
102
{ACAD_REACTORS
330
C
102
}
330
C
100
AcDbDictionary
  3
CEPSNTYPE
350
43F
  3
FINGERPRINTGUID
350
440
  3
HYPERLINKBASE
350
438
  3
INSUNITS
350
43E
  3
LAYOUTDICT
350
43A
  3
LWETCUNION
350
43D
  3
PLOTSETDICT
350
43B
  3
PLOTSTYLNAMDICT
350
43C
  3
PSVPSCALE
350
442
  3
PUCSBASE
350
445
  3
PUCSORGBACK
350
44B
  3
PUCSORGBOTTOM
350
447
  3
PUCSORGFRONT
350
44A
  3
PUCSORGLEFT
350
448
  3
PUCSORGRIGHT
350
449
  3
PUCSORGTOP
350
446
  3
PUCSORTHOREF
350
443
  3
PUCSORTHOVIEW
350
444
  3
STYLESHEET
350
439
  3
TSTACKALIGN
350
436
  3
TSTACKSIZE
350
437
  3
UCSBASE
350
44E
  3
UCSORGBACK
350
454
  3
UCSORGBOTTOM
350
450
  3
UCSORGFRONT
350
453
  3
UCSORGLEFT
350
451
  3
UCSORGRIGHT
350
452
  3
UCSORGTOP
350
44F
  3
UCSORTHOREF
350
44C
  3
UCSORTHOVIEW
350
44D
  3
VERSIONGUID
350
441
  0
XRECORD
  5
458
102
{ACAD_REACTORS
330
457
102
}
330
457
100
AcDbXrecord
340
1E
  0
XRECORD
  5
456
102
{ACAD_REACTORS
330
455
102
}
330
455
100
AcDbXrecord
340
1A
  0
MLINESTYLE
  5
17
102
{ACAD_REACTORS
330
16
102
}
330
16
100
AcDbMlineStyle
  2
STANDARD
 70
     0
  3

 62
   256
 51
90.0
 52
90.0
 71
     2
 49
0.5
 62
   256
  6
BYLAYER
 49
-0.5
 62
   256
  6
BYLAYER
  0
ACDBPLACEHOLDER
  5
F
102
{ACAD_REACTORS
330
E
102
}
330
E
100
AcDbPlaceHolder
280
     0
  0
XRECORD
  5
43F
102
{ACAD_REACTORS
330
435
102
}
330
435
100
AcDbXrecord
 90
        0
  0
XRECORD
  5
440
102
{ACAD_REACTORS
330
435
102
}
330
435
100
AcDbXrecord
  1
{6F479D7B-FFD1-4AA8-A433-0A770383C914}
  0
XRECORD
  5
438
102
{ACAD_REACTORS
330
435
102
}
330
435
100
AcDbXrecord
  1

  0
XRECORD
  5
43E
102
{ACAD_REACTORS
330
435
102
}
330
435
100
AcDbXrecord
 90
        0
  0
XRECORD
  5
43A
102
{ACAD_REACTORS
330
435
102
}
330
435
100
AcDbXrecord
340
19
  0
XRECORD
  5
43D
102
{ACAD_REACTORS
330
435
102
}
330
435
100
AcDbXrecord
 90
    10781
  0
XRECORD
  5
43B
102
{ACAD_REACTORS
330
435
102
}
330
435
100
AcDbXrecord
340
18
  0
XRECORD
  5
43C
102
{ACAD_REACTORS
330
435
102
}
330
435
100
AcDbXrecord
340
E
  0
XRECORD
  5
442
102
{ACAD_REACTORS
330
435
102
}
330
435
100
AcDbXrecord
 40
0.0
  0
XRECORD
  5
445
102
{ACAD_REACTORS
330
435
102
}
330
435
100
AcDbXrecord
340
0
  0
XRECORD
  5
44B
102
{ACAD_REACTORS
330
435
102
}
330
435
100
AcDbXrecord
 10
0.0
 20
0.0
 30
0.0
  0
XRECORD
  5
447
102
{ACAD_REACTORS
330
435
102
}
330
435
100
AcDbXrecord
 10
0.0
 20
0.0
 30
0.0
  0
XRECORD
  5
44A
102
{ACAD_REACTORS
330
435
102
}
330
435
100
AcDbXrecord
 10
0.0
 20
0.0
 30
0.0
  0
XRECORD
  5
448
102
{ACAD_REACTORS
330
435
102
}
330
435
100
AcDbXrecord
 10
0.0
 20
0.0
 30
0.0
  0
XRECORD
  5
449
102
{ACAD_REACTORS
330
435
102
}
330
435
100
AcDbXrecord
 10
0.0
 20
0.0
 30
0.0
  0
XRECORD
  5
446
102
{ACAD_REACTORS
330
435
102
}
330
435
100
AcDbXrecord
 10
0.0
 20
0.0
 30
0.0
  0
XRECORD
  5
443
102
{ACAD_REACTORS
330
435
102
}
330
435
100
AcDbXrecord
340
0
  0
XRECORD
  5
444
102
{ACAD_REACTORS
330
435
102
}
330
435
100
AcDbXrecord
 70
     0
  0
XRECORD
  5
439
102
{ACAD_REACTORS
330
435
102
}
330
435
100
AcDbXrecord
  1

  0
XRECORD
  5
436
102
{ACAD_REACTORS
330
435
102
}
330
435
100
AcDbXrecord
 90
        1
  0
XRECORD
  5
437
102
{ACAD_REACTORS
330
435
102
}
330
435
100
AcDbXrecord
 90
       70
  0
XRECORD
  5
44E
102
{ACAD_REACTORS
330
435
102
}
330
435
100
AcDbXrecord
340
0
  0
XRECORD
  5
454
102
{ACAD_REACTORS
330
435
102
}
330
435
100
AcDbXrecord
 10
0.0
 20
0.0
 30
0.0
  0
XRECORD
  5
450
102
{ACAD_REACTORS
330
435
102
}
330
435
100
AcDbXrecord
 10
0.0
 20
0.0
 30
0.0
  0
XRECORD
  5
453
102
{ACAD_REACTORS
330
435
102
}
330
435
100
AcDbXrecord
 10
0.0
 20
0.0
 30
0.0
  0
XRECORD
  5
451
102
{ACAD_REACTORS
330
435
102
}
330
435
100
AcDbXrecord
 10
0.0
 20
0.0
 30
0.0
  0
XRECORD
  5
452
102
{ACAD_REACTORS
330
435
102
}
330
435
100
AcDbXrecord
 10
0.0
 20
0.0
 30
0.0
  0
XRECORD
  5
44F
102
{ACAD_REACTORS
330
435
102
}
330
435
100
AcDbXrecord
 10
0.0
 20
0.0
 30
0.0
  0
XRECORD
  5
44C
102
{ACAD_REACTORS
330
435
102
}
330
435
100
AcDbXrecord
340
0
  0
XRECORD
  5
44D
102
{ACAD_REACTORS
330
435
102
}
330
435
100
AcDbXrecord
 70
     0
  0
XRECORD
  5
441
102
{ACAD_REACTORS
330
435
102
}
330
435
100
AcDbXrecord
  1
{076F5A3E-7AAE-4EF6-8979-58574CA7FA7D}
  0
ENDSEC
  0
EOF
