  0
SECTION
  2
HEADER
  9
$ACADVER
  1
AC1014
  9
$ACADMAINTVER
 70
     9
  9
$DWGCODEPAGE
  3
ANSI_1252
  9
$INSBASE
 10
0.0
 20
0.0
 30
0.0
  9
$EXTMIN
 10
1.411743200630581
 20
4.587341341873795
 30
-0.0015258207003583
  9
$EXTMAX
 10
8.063049343255173
 20
8.088317894479629
 30
0.0000000349246037
  9
$LIMMIN
 10
0.0
 20
0.0
  9
$LIMMAX
 10
15.0
 20
12.0
  9
$ORTHOMODE
 70
     1
  9
$REGENMODE
 70
     1
  9
$FILLMODE
 70
     1
  9
$QTEXTMODE
 70
     0
  9
$MIRRTEXT
 70
     1
  9
$DRAGMODE
 70
     2
  9
$LTSCALE
 40
0.25
  9
$OSMODE
 70
    37
  9
$ATTMODE
 70
     1
  9
$TEXTSIZE
 40
0.188
  9
$TRACEWID
 40
0.05
  9
$TEXTSTYLE
  7
STANDARD
  9
$CLAYER
  8
DAMAN
  9
$CELTYPE
  6
BYLAYER
  9
$CECOLOR
 62
   256
  9
$CELTSCALE
 40
1.0
  9
$DELOBJ
 70
     1
  9
$DISPSILH
 70
     0
  9
$DIMSCALE
 40
1.0
  9
$DIMASZ
 40
0.18
  9
$DIMEXO
 40
0.0625
  9
$DIMDLI
 40
0.38
  9
$DIMRND
 40
0.0
  9
$DIMDLE
 40
0.0
  9
$DIMEXE
 40
0.18
  9
$DIMTP
 40
0.0
  9
$DIMTM
 40
0.0
  9
$DIMTXT
 40
0.18
  9
$DIMCEN
 40
0.09
  9
$DIMTSZ
 40
0.0
  9
$DIMTOL
 70
     0
  9
$DIMLIM
 70
     0
  9
$DIMTIH
 70
     1
  9
$DIMTOH
 70
     1
  9
$DIMSE1
 70
     0
  9
$DIMSE2
 70
     0
  9
$DIMTAD
 70
     0
  9
$DIMZIN
 70
     0
  9
$DIMBLK
  1

  9
$DIMASO
 70
     1
  9
$DIMSHO
 70
     1
  9
$DIMPOST
  1

  9
$DIMAPOST
  1

  9
$DIMALT
 70
     0
  9
$DIMALTD
 70
     2
  9
$DIMALTF
 40
25.4
  9
$DIMLFAC
 40
1.0
  9
$DIMTOFL
 70
     0
  9
$DIMTVP
 40
0.0
  9
$DIMTIX
 70
     0
  9
$DIMSOXD
 70
     0
  9
$DIMSAH
 70
     0
  9
$DIMBLK1
  1

  9
$DIMBLK2
  1

  9
$DIMSTYLE
  2
STANDARD
  9
$DIMCLRD
 70
     0
  9
$DIMCLRE
 70
     0
  9
$DIMCLRT
 70
     0
  9
$DIMTFAC
 40
1.0
  9
$DIMGAP
 40
0.09
  9
$DIMJUST
 70
     0
  9
$DIMSD1
 70
     0
  9
$DIMSD2
 70
     0
  9
$DIMTOLJ
 70
     1
  9
$DIMTZIN
 70
     0
  9
$DIMALTZ
 70
     0
  9
$DIMALTTZ
 70
     0
  9
$DIMFIT
 70
     3
  9
$DIMUPT
 70
     0
  9
$DIMUNIT
 70
     2
  9
$DIMDEC
 70
     4
  9
$DIMTDEC
 70
     4
  9
$DIMALTU
 70
     2
  9
$DIMALTTD
 70
     2
  9
$DIMTXSTY
  7
STANDARD
  9
$DIMAUNIT
 70
     0
  9
$LUNITS
 70
     2
  9
$LUPREC
 70
     4
  9
$SKETCHINC
 40
0.1
  9
$FILLETRAD
 40
0.0
  9
$AUNITS
 70
     0
  9
$AUPREC
 70
     0
  9
$MENU
  1
tom
  9
$ELEVATION
 40
0.0
  9
$PELEVATION
 40
0.0
  9
$THICKNESS
 40
0.0
  9
$LIMCHECK
 70
     0
  9
$BLIPMODE
 70
     0
  9
$CHAMFERA
 40
0.0
  9
$CHAMFERB
 40
0.0
  9
$CHAMFERC
 40
0.0
  9
$CHAMFERD
 40
0.0
  9
$SKPOLY
 70
     0
  9
$TDCREATE
 40
2449735.645322974
  9
$TDUPDATE
 40
2453439.380905173
  9
$TDINDWG
 40
0.0038149306
  9
$TDUSRTIMER
 40
0.0038149306
  9
$USRTIMER
 70
     1
  9
$ANGBASE
 50
0.0
  9
$ANGDIR
 70
     0
  9
$PDMODE
 70
     0
  9
$PDSIZE
 40
0.0
  9
$PLINEWID
 40
0.0
  9
$COORDS
 70
     1
  9
$SPLFRAME
 70
     0
  9
$SPLINETYPE
 70
     6
  9
$SPLINESEGS
 70
     8
  9
$ATTDIA
 70
     0
  9
$ATTREQ
 70
     1
  9
$HANDLING
 70
-16383
  9
$HANDSEED
  5
15C
  9
$SURFTAB1
 70
     6
  9
$SURFTAB2
 70
     6
  9
$SURFTYPE
 70
     6
  9
$SURFU
 70
     6
  9
$SURFV
 70
     6
  9
$UCSNAME
  2

  9
$UCSORG
 10
0.0
 20
0.0
 30
0.0
  9
$UCSXDIR
 10
1.0
 20
0.0
 30
0.0
  9
$UCSYDIR
 10
0.0
 20
1.0
 30
0.0
  9
$PUCSNAME
  2

  9
$PUCSORG
 10
0.0
 20
0.0
 30
0.0
  9
$PUCSXDIR
 10
1.0
 20
0.0
 30
0.0
  9
$PUCSYDIR
 10
0.0
 20
1.0
 30
0.0
  9
$USERI1
 70
     0
  9
$USERI2
 70
     0
  9
$USERI3
 70
     0
  9
$USERI4
 70
     0
  9
$USERI5
 70
     0
  9
$USERR1
 40
0.0
  9
$USERR2
 40
0.0
  9
$USERR3
 40
0.0
  9
$USERR4
 40
0.0
  9
$USERR5
 40
0.0
  9
$WORLDVIEW
 70
     1
  9
$SHADEDGE
 70
     3
  9
$SHADEDIF
 70
    70
  9
$TILEMODE
 70
     1
  9
$MAXACTVP
 70
    16
  9
$PINSBASE
 10
0.0
 20
0.0
 30
0.0
  9
$PLIMCHECK
 70
     0
  9
$PEXTMIN
 10
1.000000000000000E+20
 20
1.000000000000000E+20
 30
1.000000000000000E+20
  9
$PEXTMAX
 10
-1.000000000000000E+20
 20
-1.000000000000000E+20
 30
-1.000000000000000E+20
  9
$PLIMMIN
 10
0.0
 20
0.0
  9
$PLIMMAX
 10
12.0
 20
9.0
  9
$UNITMODE
 70
     0
  9
$VISRETAIN
 70
     0
  9
$PLINEGEN
 70
     0
  9
$PSLTSCALE
 70
     1
  9
$TREEDEPTH
 70
  3020
  9
$PICKSTYLE
 70
     1
  9
$CMLSTYLE
  2
STANDARD
  9
$CMLJUST
 70
     0
  9
$CMLSCALE
 40
1.0
  9
$PROXYGRAPHICS
 70
     1
  9
$MEASUREMENT
 70
     0
  0
ENDSEC
  0
SECTION
  2
CLASSES
  0
CLASS
  1
ACDBDICTIONARYWDFLT
  2
AcDbDictionaryWithDefault
  3
AutoCAD 2000
 90
        0
280
     0
281
     0
  0
CLASS
  1
ACDBPLACEHOLDER
  2
AcDbPlaceHolder
  3
AutoCAD 2000
 90
        0
280
     0
281
     0
  0
CLASS
  1
LAYOUT
  2
AcDbLayout
  3
AutoCAD 2000
 90
        0
280
     0
281
     0
  0
CLASS
  1
LONG_TRANSACTION
  2
AcDbLongTransaction
  3
AutoCAD 2000
 90
        0
280
     0
281
     0
  0
CLASS
  1
LWPOLYLINE
  2
AcDbPolyline
  3
AutoCAD 2000
 90
        0
280
     0
281
     1
  0
CLASS
  1
HATCH
  2
AcDbHatch
  3
AutoCAD 2000
 90
        0
280
     0
281
     1
  0
CLASS
  1
XRECORD
  2
AcDbXrecord
  3
AutoCAD 2000
 90
        0
280
     0
281
     0
  0
ENDSEC
  0
SECTION
  2
TABLES
  0
TABLE
  2
VPORT
  5
8
330
0
100
AcDbSymbolTable
 70
     4
  0
VPORT
  5
137
330
8
100
AcDbSymbolTableRecord
100
AcDbViewportTableRecord
  2
*ACTIVE
 70
     0
 10
0.0
 20
0.0
 11
1.0
 21
1.0
 12
4.737396277165078
 22
6.390043482547667
 13
0.0
 23
0.0
 14
0.03125
 24
0.03125
 15
0.0
 25
0.0
 16
0.0
 26
0.0
 36
1.0
 17
0.0
 27
0.0
 37
0.0
 40
4.907178203488883
 41
1.647569444444444
 42
50.0
 43
0.0
 44
0.0
 50
0.0
 51
0.0
 71
     0
 72
   100
 73
     1
 74
     1
 75
     0
 76
     0
 77
     0
 78
     0
  0
ENDTAB
  0
TABLE
  2
LTYPE
  5
5
330
0
100
AcDbSymbolTable
 70
     4
  0
LTYPE
  5
13
330
5
100
AcDbSymbolTableRecord
100
AcDbLinetypeTableRecord
  2
BYBLOCK
 70
     0
  3

 72
    65
 73
     0
 40
0.0
  0
LTYPE
  5
14
330
5
100
AcDbSymbolTableRecord
100
AcDbLinetypeTableRecord
  2
BYLAYER
 70
     0
  3

 72
    65
 73
     0
 40
0.0
  0
LTYPE
  5
15
330
5
100
AcDbSymbolTableRecord
100
AcDbLinetypeTableRecord
  2
CONTINUOUS
 70
     0
  3
Solid line
 72
    65
 73
     0
 40
0.0
  0
LTYPE
  5
24
330
5
100
AcDbSymbolTableRecord
100
AcDbLinetypeTableRecord
  2
HIDDEN
 70
     0
  3
_ _ _ _ _ _ _ _ _ _ _ _ _ _ _ _ _ _ _ _ _ _ _
 72
    65
 73
     2
 40
0.375
 49
0.25
 74
     0
 49
-0.125
 74
     0
  0
LTYPE
  5
25
330
5
100
AcDbSymbolTableRecord
100
AcDbLinetypeTableRecord
  2
CENTER
 70
     0
  3
____ _ ____ _ ____ _ ____ _ ____ _ ____ _ ____
 72
    65
 73
     4
 40
2.0
 49
1.25
 74
     0
 49
-0.25
 74
     0
 49
0.25
 74
     0
 49
-0.25
 74
     0
  0
LTYPE
  5
26
330
5
100
AcDbSymbolTableRecord
100
AcDbLinetypeTableRecord
  2
PHANTOM
 70
     0
  3
_____ _ _ _____ _ _ _____ _ _ _____ _ _ ____
 72
    65
 73
     6
 40
2.5
 49
1.25
 74
     0
 49
-0.25
 74
     0
 49
0.25
 74
     0
 49
-0.25
 74
     0
 49
0.25
 74
     0
 49
-0.25
 74
     0
  0
ENDTAB
  0
TABLE
  2
LAYER
  5
2
330
0
100
AcDbSymbolTable
 70
     6
  0
LAYER
  5
10
330
2
100
AcDbSymbolTableRecord
100
AcDbLayerTableRecord
  2
0
 70
     0
 62
     7
  6
CONTINUOUS
  0
LAYER
  5
22
330
2
100
AcDbSymbolTableRecord
100
AcDbLayerTableRecord
  2
DAMAN
 70
     0
 62
     5
  6
CONTINUOUS
  0
LAYER
  5
27
330
2
100
AcDbSymbolTableRecord
100
AcDbLayerTableRecord
  2
CSOLID
 70
     0
 62
     3
  6
CONTINUOUS
  0
LAYER
  5
28
330
2
100
AcDbSymbolTableRecord
100
AcDbLayerTableRecord
  2
CCENTER
 70
     0
 62
     4
  6
CENTER
  0
LAYER
  5
29
330
2
100
AcDbSymbolTableRecord
100
AcDbLayerTableRecord
  2
CHIDDEN
 70
     0
 62
     3
  6
HIDDEN
  0
LAYER
  5
2A
330
2
100
AcDbSymbolTableRecord
100
AcDbLayerTableRecord
  2
PHANTOM
 70
     0
 62
     1
  6
PHANTOM
  0
ENDTAB
  0
TABLE
  2
STYLE
  5
3
330
0
100
AcDbSymbolTable
 70
     1
  0
STYLE
  5
11
330
3
100
AcDbSymbolTableRecord
100
AcDbTextStyleTableRecord
  2
STANDARD
 70
     0
 40
0.0
 41
1.0
 50
0.0
 71
     0
 42
0.188
  3
txt
  4

  0
ENDTAB
  0
TABLE
  2
VIEW
  5
6
330
0
100
AcDbSymbolTable
 70
     0
  0
ENDTAB
  0
TABLE
  2
UCS
  5
7
330
0
100
AcDbSymbolTable
 70
     0
  0
ENDTAB
  0
TABLE
  2
APPID
  5
9
330
0
100
AcDbSymbolTable
 70
     1
  0
APPID
  5
12
330
9
100
AcDbSymbolTableRecord
100
AcDbRegAppTableRecord
  2
ACAD
 70
     0
  0
ENDTAB
  0
TABLE
  2
DIMSTYLE
  5
A
330
0
100
AcDbSymbolTable
 70
     1
  0
DIMSTYLE
105
DB
330
A
100
AcDbSymbolTableRecord
100
AcDbDimStyleTableRecord
  2
STANDARD
 70
     0
  3

  4

  5

  6

  7

 40
1.0
 41
0.18
 42
0.0625
 43
0.38
 44
0.18
 45
0.0
 46
0.0
 47
0.0
 48
0.0
140
0.18
141
0.09
142
0.0
143
25.4
144
1.0
145
0.0
146
1.0
147
0.09
 71
     0
 72
     0
 73
     1
 74
     1
 75
     0
 76
     0
 77
     0
 78
     0
170
     0
171
     2
172
     0
173
     0
174
     0
175
     0
176
     0
177
     0
178
     0
270
     2
271
     4
272
     4
273
     2
274
     2
340
11
275
     0
280
     0
281
     0
282
     0
283
     1
284
     0
285
     0
286
     0
287
     3
288
     0
  0
ENDTAB
  0
TABLE
  2
BLOCK_RECORD
  5
1
330
0
100
AcDbSymbolTable
 70
    12
  0
BLOCK_RECORD
  5
1E
102
{ACAD_XDICTIONARY
360
15A
102
}
330
1
100
AcDbSymbolTableRecord
100
AcDbBlockTableRecord
  2
*MODEL_SPACE
  0
BLOCK_RECORD
  5
1A
102
{ACAD_XDICTIONARY
360
158
102
}
330
1
100
AcDbSymbolTableRecord
100
AcDbBlockTableRecord
  2
*PAPER_SPACE
  0
BLOCK_RECORD
  5
2C
330
1
100
AcDbSymbolTableRecord
100
AcDbBlockTableRecord
  2
D05
  0
BLOCK_RECORD
  5
32
330
1
100
AcDbSymbolTableRecord
100
AcDbBlockTableRecord
  2
100CROSS
  0
BLOCK_RECORD
  5
45
330
1
100
AcDbSymbolTableRecord
100
AcDbBlockTableRecord
  2
050CROSS
  0
BLOCK_RECORD
  5
50
330
1
100
AcDbSymbolTableRecord
100
AcDbBlockTableRecord
  2
025NPTFT
  0
BLOCK_RECORD
  5
52
330
1
100
AcDbSymbolTableRecord
100
AcDbBlockTableRecord
  2
250NPTFT
  0
BLOCK_RECORD
  5
5E
330
1
100
AcDbSymbolTableRecord
100
AcDbBlockTableRecord
  2
04SAET
  0
BLOCK_RECORD
  5
66
330
1
100
AcDbSymbolTableRecord
100
AcDbBlockTableRecord
  2
025BSPPT
  0
BLOCK_RECORD
  5
6D
330
1
100
AcDbSymbolTableRecord
100
AcDbBlockTableRecord
  2
0375BSPPT
  0
BLOCK_RECORD
  5
75
330
1
100
AcDbSymbolTableRecord
100
AcDbBlockTableRecord
  2
M10T
  0
BLOCK_RECORD
  5
7E
330
1
100
AcDbSymbolTableRecord
100
AcDbBlockTableRecord
  2
S04
  0
BLOCK_RECORD
  5
A2
330
1
100
AcDbSymbolTableRecord
100
AcDbBlockTableRecord
  2
S04SF
  0
ENDTAB
  0
ENDSEC
  0
SECTION
  2
BLOCKS
  0
BLOCK
  5
1F
330
1E
100
AcDbEntity
  8
0
100
AcDbBlockBegin
  2
*MODEL_SPACE
 70
     0
 10
0.0
 20
0.0
 30
0.0
  3
*MODEL_SPACE
  1

  0
ENDBLK
  5
20
330
1E
100
AcDbEntity
  8
0
100
AcDbBlockEnd
  0
BLOCK
  5
1B
330
1A
100
AcDbEntity
 67
     1
  8
0
100
AcDbBlockBegin
  2
*PAPER_SPACE
 70
     0
 10
0.0
 20
0.0
 30
0.0
  3
*PAPER_SPACE
  1

  0
ENDBLK
  5
1C
330
1A
100
AcDbEntity
 67
     1
  8
0
100
AcDbBlockEnd
  0
BLOCK
  5
2D
330
2C
100
AcDbEntity
  8
0
100
AcDbBlockBegin
  2
D05
 70
     0
 10
0.0
 20
0.0
 30
0.0
  3
D05
  1

  0
CIRCLE
  5
2E
330
2C
100
AcDbEntity
  8
DAMAN
  6
HIDDEN
100
AcDbCircle
 10
1.8125
 20
0.0
 30
0.0
 40
0.125
  0
CIRCLE
  5
2F
330
2C
100
AcDbEntity
  8
DAMAN
  6
HIDDEN
100
AcDbCircle
 10
1.8125
 20
-2.125
 30
0.0
 40
0.125
  0
CIRCLE
  5
30
330
2C
100
AcDbEntity
  8
DAMAN
  6
HIDDEN
100
AcDbCircle
 10
0.0
 20
0.0
 30
0.0
 40
0.125
  0
CIRCLE
  5
31
330
2C
100
AcDbEntity
  8
DAMAN
  6
HIDDEN
100
AcDbCircle
 10
0.0
 20
-2.125
 30
0.0
 40
0.125
  0
INSERT
  5
33
330
2C
100
AcDbEntity
  8
DAMAN
100
AcDbBlockReference
  2
100CROSS
 10
0.0
 20
0.0
 30
0.0
 41
0.25
 42
0.25
  0
CIRCLE
  5
34
330
2C
100
AcDbEntity
  8
DAMAN
100
AcDbCircle
 10
0.0
 20
0.0
 30
0.0
 40
0.1055
  0
CIRCLE
  5
35
330
2C
100
AcDbEntity
  8
DAMAN
100
AcDbCircle
 10
0.0
 20
-2.125
 30
0.0
 40
0.1055
  0
INSERT
  5
36
330
2C
100
AcDbEntity
  8
DAMAN
100
AcDbBlockReference
  2
100CROSS
 10
0.0
 20
-2.125
 30
0.0
 41
0.25
 42
0.25
  0
CIRCLE
  5
37
330
2C
100
AcDbEntity
  8
DAMAN
100
AcDbCircle
 10
1.8125
 20
0.0
 30
0.0
 40
0.1055
  0
INSERT
  5
38
330
2C
100
AcDbEntity
  8
DAMAN
100
AcDbBlockReference
  2
100CROSS
 10
1.8125
 20
0.0
 30
0.0
 41
0.25
 42
0.25
  0
CIRCLE
  5
39
330
2C
100
AcDbEntity
  8
DAMAN
100
AcDbCircle
 10
1.8125
 20
-2.125
 30
0.0
 40
0.1055
  0
INSERT
  5
3A
330
2C
100
AcDbEntity
  8
DAMAN
100
AcDbBlockReference
  2
100CROSS
 10
1.8125
 20
-2.125
 30
0.0
 41
0.25
 42
0.25
  0
INSERT
  5
3B
330
2C
100
AcDbEntity
  8
DAMAN
100
AcDbBlockReference
  2
100CROSS
 10
0.5310000000000001
 20
-0.125
 30
0.0
 41
0.4379999999999999
 42
0.4379999999999999
  0
CIRCLE
  5
3C
330
2C
100
AcDbEntity
  8
DAMAN
100
AcDbCircle
 10
0.5310000000000001
 20
-0.125
 30
0.0
 40
0.21875
  0
CIRCLE
  5
3D
330
2C
100
AcDbEntity
  8
DAMAN
100
AcDbCircle
 10
0.9685
 20
-0.6559999999999999
 30
0.0
 40
0.21875
  0
INSERT
  5
3E
330
2C
100
AcDbEntity
  8
DAMAN
100
AcDbBlockReference
  2
100CROSS
 10
0.9685
 20
-0.6559999999999999
 30
0.0
 41
0.4379999999999999
 42
0.4379999999999999
  0
INSERT
  5
3F
330
2C
100
AcDbEntity
  8
DAMAN
100
AcDbBlockReference
  2
100CROSS
 10
0.9685
 20
-1.468499999999999
 30
0.0
 41
0.4379999999999999
 42
0.4379999999999999
  0
CIRCLE
  5
40
330
2C
100
AcDbEntity
  8
DAMAN
100
AcDbCircle
 10
0.9685
 20
-1.468499999999999
 30
0.0
 40
0.21875
  0
CIRCLE
  5
41
330
2C
100
AcDbEntity
  8
DAMAN
100
AcDbCircle
 10
1.5625
 20
-1.062249999999999
 30
0.0
 40
0.21875
  0
INSERT
  5
42
330
2C
100
AcDbEntity
  8
DAMAN
100
AcDbBlockReference
  2
100CROSS
 10
1.5625
 20
-1.062249999999999
 30
0.0
 41
0.4379999999999999
 42
0.4379999999999999
  0
ENDBLK
  5
43
330
2C
100
AcDbEntity
  8
0
100
AcDbBlockEnd
  0
BLOCK
  5
44
330
32
100
AcDbEntity
  8
0
100
AcDbBlockBegin
  2
100CROSS
 70
     0
 10
5.625
 20
4.59375
 30
0.0
  3
100CROSS
  1

  0
INSERT
  5
46
330
32
100
AcDbEntity
  8
0
100
AcDbBlockReference
  2
050CROSS
 10
5.625
 20
4.59375
 30
0.0
  0
ENDBLK
  5
47
330
32
100
AcDbEntity
  8
0
100
AcDbBlockEnd
  0
BLOCK
  5
48
330
45
100
AcDbEntity
  8
0
100
AcDbBlockBegin
  2
050CROSS
 70
     0
 10
5.0
 20
5.0
 30
0.0
  3
050CROSS
  1

  0
LINE
  5
49
330
45
100
AcDbEntity
  8
0
100
AcDbLine
 10
5.0
 20
5.28125
 30
0.0
 11
5.0
 21
5.78125
 31
0.0
  0
LINE
  5
4A
330
45
100
AcDbEntity
  8
0
100
AcDbLine
 10
5.0
 20
4.875
 30
0.0
 11
5.0
 21
5.125
 31
0.0
  0
LINE
  5
4B
330
45
100
AcDbEntity
  8
0
100
AcDbLine
 10
5.0
 20
4.15625
 30
0.0
 11
5.0
 21
4.71875
 31
0.0
  0
LINE
  5
4C
330
45
100
AcDbEntity
  8
0
100
AcDbLine
 10
5.25
 20
5.0
 30
0.0
 11
5.8125
 21
5.0
 31
0.0
  0
LINE
  5
4D
330
45
100
AcDbEntity
  8
0
100
AcDbLine
 10
4.90625
 20
5.0
 30
0.0
 11
5.09375
 21
5.0
 31
0.0
  0
LINE
  5
4E
330
45
100
AcDbEntity
  8
0
100
AcDbLine
 10
4.1875
 20
5.0
 30
0.0
 11
4.75
 21
5.0
 31
0.0
  0
ENDBLK
  5
4F
330
45
100
AcDbEntity
  8
0
100
AcDbBlockEnd
  0
BLOCK
  5
51
330
50
100
AcDbEntity
  8
0
100
AcDbBlockBegin
  2
025NPTFT
 70
     0
 10
0.0
 20
0.0
 30
0.0
  3
025NPTFT
  1

  0
INSERT
  5
53
330
50
100
AcDbEntity
  8
DAMAN
100
AcDbBlockReference
  2
250NPTFT
 10
0.0
 20
0.0
 30
0.0
  0
ENDBLK
  5
54
330
50
100
AcDbEntity
  8
0
100
AcDbBlockEnd
  0
BLOCK
  5
55
330
52
100
AcDbEntity
  8
0
100
AcDbBlockBegin
  2
250NPTFT
 70
     0
 10
0.0
 20
0.0
 30
0.0
  3
250NPTFT
  1

  0
CIRCLE
  5
56
330
52
100
AcDbEntity
  8
DAMAN
100
AcDbCircle
 10
0.0
 20
0.0
 30
0.0
 40
0.273
  0
CIRCLE
  5
57
330
52
100
AcDbEntity
  8
DAMAN
100
AcDbCircle
 10
0.0
 20
0.0
 30
0.0
 40
0.211
  0
INSERT
  5
58
330
52
100
AcDbEntity
  8
DAMAN
100
AcDbBlockReference
  2
100CROSS
 10
0.0
 20
0.0
 30
0.0
 41
0.4220000000000001
 42
0.4220000000000001
  0
CIRCLE
  5
59
330
52
100
AcDbEntity
  8
DAMAN
100
AcDbCircle
 10
0.0
 20
0.0
 30
0.0
 40
0.242251
  0
POINT
  5
5A
330
52
100
AcDbEntity
  8
CHIDDEN
100
AcDbPoint
 10
-0.087928
 20
0.191806
 30
0.0
  0
POINT
  5
5B
330
52
100
AcDbEntity
  8
CHIDDEN
100
AcDbPoint
 10
-0.137717
 20
-0.15986
 30
0.0
  0
POINT
  5
5C
330
52
100
AcDbEntity
  8
CHIDDEN
100
AcDbPoint
 10
0.202707
 20
-0.058572
 30
0.0
  0
ENDBLK
  5
5D
330
52
100
AcDbEntity
  8
0
100
AcDbBlockEnd
  0
BLOCK
  5
5F
330
5E
100
AcDbEntity
  8
0
100
AcDbBlockBegin
  2
04SAET
 70
     0
 10
0.0
 20
0.0
 30
0.0
  3
04SAET
  1

  0
CIRCLE
  5
60
330
5E
100
AcDbEntity
  8
DAMAN
100
AcDbCircle
 10
0.0
 20
0.0
 30
0.0
 40
0.4375
  0
INSERT
  5
61
330
5E
100
AcDbEntity
  8
DAMAN
100
AcDbBlockReference
  2
100CROSS
 10
0.0
 20
0.0
 30
0.0
 41
0.8
 42
0.8
  0
CIRCLE
  5
62
330
5E
100
AcDbEntity
  8
DAMAN
  6
HIDDEN
100
AcDbCircle
 10
0.0
 20
0.0
 30
0.0
 40
0.21875
  0
CIRCLE
  5
63
330
5E
100
AcDbEntity
  8
DAMAN
100
AcDbCircle
 10
0.0
 20
0.0
 30
0.0
 40
0.1875
  0
CIRCLE
  5
64
330
5E
100
AcDbEntity
  8
DAMAN
100
AcDbCircle
 10
0.0
 20
0.0
 30
0.0
 40
0.2435
  0
ENDBLK
  5
65
330
5E
100
AcDbEntity
  8
0
100
AcDbBlockEnd
  0
BLOCK
  5
67
330
66
100
AcDbEntity
  8
0
100
AcDbBlockBegin
  2
025BSPPT
 70
     0
 10
0.0
 20
0.0
 30
0.0
  3
025BSPPT
  1

  0
CIRCLE
  5
68
330
66
100
AcDbEntity
  8
DAMAN
100
AcDbCircle
 10
0.0
 20
0.0
 30
0.0
 40
0.425
  0
CIRCLE
  5
69
330
66
100
AcDbEntity
  8
DAMAN
100
AcDbCircle
 10
0.0
 20
0.0
 30
0.0
 40
0.225
  0
CIRCLE
  5
6A
330
66
100
AcDbEntity
  8
DAMAN
100
AcDbCircle
 10
0.0
 20
0.0
 30
0.0
 40
0.26
  0
INSERT
  5
6B
330
66
100
AcDbEntity
  8
DAMAN
100
AcDbBlockReference
  2
100CROSS
 10
0.0
 20
0.0
 30
0.0
 41
0.7480000000000001
 42
0.7480000000000001
  0
ENDBLK
  5
6C
330
66
100
AcDbEntity
  8
0
100
AcDbBlockEnd
  0
BLOCK
  5
6E
330
6D
100
AcDbEntity
  8
0
100
AcDbBlockBegin
  2
0375BSPPT
 70
     0
 10
0.0
 20
0.0
 30
0.0
  3
0375BSPPT
  1

  0
CIRCLE
  5
6F
330
6D
100
AcDbEntity
  8
CSOLID
  6
HIDDEN
100
AcDbCircle
 10
0.0
 20
0.0
 30
0.0
 40
0.3279999999999999
  0
CIRCLE
  5
70
330
6D
100
AcDbEntity
  8
CSOLID
100
AcDbCircle
 10
0.0
 20
0.0
 30
0.0
 40
0.3325
  0
CIRCLE
  5
71
330
6D
100
AcDbEntity
  8
CSOLID
100
AcDbCircle
 10
0.0
 20
0.0
 30
0.0
 40
0.3035
  0
CIRCLE
  5
72
330
6D
100
AcDbEntity
  8
CSOLID
100
AcDbCircle
 10
0.0
 20
0.0
 30
0.0
 40
0.51
  0
INSERT
  5
73
330
6D
100
AcDbEntity
  8
DAMAN
100
AcDbBlockReference
  2
100CROSS
 10
0.0
 20
0.0
 30
0.0
 41
0.88
 42
0.88
  0
ENDBLK
  5
74
330
6D
100
AcDbEntity
  8
0
100
AcDbBlockEnd
  0
BLOCK
  5
76
330
75
100
AcDbEntity
  8
0
100
AcDbBlockBegin
  2
M10T
 70
     0
 10
0.0
 20
0.0
 30
0.0
  3
M10T
  1

  0
INSERT
  5
77
330
75
100
AcDbEntity
  8
DAMAN
100
AcDbBlockReference
  2
100CROSS
 10
0.0
 20
0.0
 30
0.0
 41
0.59
 42
0.59
 43
0.59
  0
CIRCLE
  5
78
330
75
100
AcDbEntity
  8
DAMAN
100
AcDbCircle
 10
0.0
 20
0.0
 30
0.0
 40
0.3145
  0
CIRCLE
  5
79
330
75
100
AcDbEntity
  8
DAMAN
100
AcDbCircle
 10
0.0
 20
0.0
 30
0.0
 40
0.3935
  0
CIRCLE
  5
7A
330
75
100
AcDbEntity
  8
DAMAN
100
AcDbCircle
 10
0.0
 20
0.0
 30
0.0
 40
0.2185
  0
CIRCLE
  5
7B
330
75
100
AcDbEntity
  8
DAMAN
  6
HIDDEN
100
AcDbCircle
 10
0.0
 20
0.0
 30
0.0
 40
0.19685
  0
CIRCLE
  5
7C
330
75
100
AcDbEntity
  8
DAMAN
100
AcDbCircle
 10
0.0
 20
0.0
 30
0.0
 40
0.1775
  0
ENDBLK
  5
7D
330
75
100
AcDbEntity
  8
0
100
AcDbBlockEnd
  0
BLOCK
  5
7F
330
7E
100
AcDbEntity
  8
0
100
AcDbBlockBegin
  2
S04
 70
     0
 10
0.0
 20
0.0
 30
0.0
  3
S04
  1

  0
CIRCLE
  5
80
330
7E
100
AcDbEntity
  8
DAMAN
100
AcDbCircle
 10
3.0
 20
7.0
 30
0.0
 40
0.1715
  0
CIRCLE
  5
81
330
7E
100
AcDbEntity
  8
DAMAN
100
AcDbCircle
 10
4.75
 20
7.0
 30
0.0
 40
0.1715
  0
CIRCLE
  5
82
330
7E
100
AcDbEntity
  8
DAMAN
100
AcDbCircle
 10
4.75
 20
4.44
 30
0.0
 40
0.1715
  0
CIRCLE
  5
83
330
7E
100
AcDbEntity
  8
DAMAN
100
AcDbCircle
 10
3.0
 20
4.44
 30
0.0
 40
0.1715
  0
CIRCLE
  5
84
330
7E
100
AcDbEntity
  8
DAMAN
100
AcDbCircle
 10
3.209999999999999
 20
6.389999999999999
 30
0.0
 40
0.08
  0
CIRCLE
  5
85
330
7E
100
AcDbEntity
  8
DAMAN
100
AcDbCircle
 10
3.439999999999999
 20
4.78
 30
0.0
 40
0.08
  0
CIRCLE
  5
86
330
7E
100
AcDbEntity
  8
DAMAN
100
AcDbCircle
 10
3.879999999999999
 20
6.16
 30
0.0
 40
0.155
  0
CIRCLE
  5
87
330
7E
100
AcDbEntity
  8
DAMAN
100
AcDbCircle
 10
3.439999999999999
 20
5.719999999999999
 30
0.0
 40
0.155
  0
CIRCLE
  5
88
330
7E
100
AcDbEntity
  8
DAMAN
100
AcDbCircle
 10
3.879999999999999
 20
5.28
 30
0.0
 40
0.155
  0
CIRCLE
  5
89
330
7E
100
AcDbEntity
  8
DAMAN
100
AcDbCircle
 10
4.309999999999999
 20
5.719999999999999
 30
0.0
 40
0.155
  0
CIRCLE
  5
8A
330
7E
100
AcDbEntity
  8
DAMAN
100
AcDbCircle
 10
4.269999999999999
 20
5.219999999999999
 30
0.0
 40
0.08
  0
LINE
  5
8B
330
7E
100
AcDbEntity
  8
DAMAN
  6
CENTER
100
AcDbLine
 10
4.75
 20
4.1275
 30
0.0
 11
4.75
 21
4.7525
 31
0.0
  0
LINE
  5
8C
330
7E
100
AcDbEntity
  8
DAMAN
  6
CENTER
100
AcDbLine
 10
4.437509999999999
 20
4.4375
 30
0.0
 11
5.06249
 21
4.4375
 31
0.0
  0
LINE
  5
8D
330
7E
100
AcDbEntity
  8
DAMAN
  6
CENTER
100
AcDbLine
 10
2.68751
 20
4.4375
 30
0.0
 11
3.312489999999999
 21
4.4375
 31
0.0
  0
LINE
  5
8E
330
7E
100
AcDbEntity
  8
DAMAN
  6
CENTER
100
AcDbLine
 10
3.0
 20
4.1275
 30
0.0
 11
3.0
 21
4.7525
 31
0.0
  0
LINE
  5
8F
330
7E
100
AcDbEntity
  8
DAMAN
  6
CENTER
100
AcDbLine
 10
3.244693999999999
 20
4.778437999999999
 30
0.0
 11
3.635305999999999
 21
4.778437999999999
 31
0.0
  0
LINE
  5
90
330
7E
100
AcDbEntity
  8
DAMAN
  6
CENTER
100
AcDbLine
 10
3.439999999999999
 20
4.584687999999999
 30
0.0
 11
3.439999999999999
 21
4.975312999999999
 31
0.0
  0
LINE
  5
91
330
7E
100
AcDbEntity
  8
DAMAN
  6
CENTER
100
AcDbLine
 10
4.113755
 20
5.21875
 30
0.0
 11
4.426244999999999
 21
5.21875
 31
0.0
  0
LINE
  5
92
330
7E
100
AcDbEntity
  8
DAMAN
  6
CENTER
100
AcDbLine
 10
4.269999999999999
 20
5.063749999999999
 30
0.0
 11
4.269999999999999
 21
5.376249999999999
 31
0.0
  0
LINE
  5
93
330
7E
100
AcDbEntity
  8
DAMAN
  6
CENTER
100
AcDbLine
 10
3.567509999999999
 20
5.277499999999999
 30
0.0
 11
4.19249
 21
5.277499999999999
 31
0.0
  0
LINE
  5
94
330
7E
100
AcDbEntity
  8
DAMAN
  6
CENTER
100
AcDbLine
 10
3.879999999999999
 20
4.9675
 30
0.0
 11
3.879999999999999
 21
5.5925
 31
0.0
  0
LINE
  5
95
330
7E
100
AcDbEntity
  8
DAMAN
  6
CENTER
100
AcDbLine
 10
3.12751
 20
5.7175
 30
0.0
 11
3.75249
 21
5.7175
 31
0.0
  0
LINE
  5
96
330
7E
100
AcDbEntity
  8
DAMAN
  6
CENTER
100
AcDbLine
 10
3.439999999999999
 20
5.407499999999999
 30
0.0
 11
3.439999999999999
 21
6.032499999999999
 31
0.0
  0
LINE
  5
97
330
7E
100
AcDbEntity
  8
DAMAN
  6
CENTER
100
AcDbLine
 10
3.567509999999999
 20
6.157499999999999
 30
0.0
 11
4.19249
 21
6.157499999999999
 31
0.0
  0
LINE
  5
98
330
7E
100
AcDbEntity
  8
DAMAN
  6
CENTER
100
AcDbLine
 10
3.879999999999999
 20
5.8475
 30
0.0
 11
3.879999999999999
 21
6.4725
 31
0.0
  0
LINE
  5
99
330
7E
100
AcDbEntity
  8
DAMAN
  6
CENTER
100
AcDbLine
 10
3.997509999999999
 20
5.7175
 30
0.0
 11
4.622489999999999
 21
5.7175
 31
0.0
  0
LINE
  5
9A
330
7E
100
AcDbEntity
  8
DAMAN
  6
CENTER
100
AcDbLine
 10
4.309999999999999
 20
5.407499999999999
 30
0.0
 11
4.309999999999999
 21
6.032499999999999
 31
0.0
  0
LINE
  5
9B
330
7E
100
AcDbEntity
  8
DAMAN
  6
CENTER
100
AcDbLine
 10
4.437509999999999
 20
6.997499999999999
 30
0.0
 11
5.06249
 21
6.997499999999999
 31
0.0
  0
LINE
  5
9C
330
7E
100
AcDbEntity
  8
DAMAN
  6
CENTER
100
AcDbLine
 10
4.75
 20
6.6875
 30
0.0
 11
4.75
 21
7.3125
 31
0.0
  0
LINE
  5
9D
330
7E
100
AcDbEntity
  8
DAMAN
  6
CENTER
100
AcDbLine
 10
2.68751
 20
6.997499999999999
 30
0.0
 11
3.312489999999999
 21
6.997499999999999
 31
0.0
  0
LINE
  5
9E
330
7E
100
AcDbEntity
  8
DAMAN
  6
CENTER
100
AcDbLine
 10
3.0
 20
6.6875
 30
0.0
 11
3.0
 21
7.3125
 31
0.0
  0
LINE
  5
9F
330
7E
100
AcDbEntity
  8
DAMAN
  6
CENTER
100
AcDbLine
 10
3.053754999999999
 20
6.388749999999999
 30
0.0
 11
3.366244999999999
 21
6.388749999999999
 31
0.0
  0
LINE
  5
A0
330
7E
100
AcDbEntity
  8
DAMAN
  6
CENTER
100
AcDbLine
 10
3.209999999999999
 20
6.233749999999999
 30
0.0
 11
3.209999999999999
 21
6.546249999999999
 31
0.0
  0
ENDBLK
  5
A1
330
7E
100
AcDbEntity
  8
0
100
AcDbBlockEnd
  0
BLOCK
  5
A3
330
A2
100
AcDbEntity
  8
0
100
AcDbBlockBegin
  2
S04SF
 70
     0
 10
0.0
 20
0.0
 30
0.0
  3
S04SF
  1

  0
LINE
  5
A4
330
A2
100
AcDbEntity
  8
DAMAN
  6
CENTER
100
AcDbLine
 10
3.651244999999999
 20
1.603445999999999
 30
0.0
 11
3.651244999999999
 21
2.228445999999999
 31
0.0
  0
LINE
  5
A5
330
A2
100
AcDbEntity
  8
DAMAN
  6
CENTER
100
AcDbLine
 10
1.901245
 20
1.603445999999999
 30
0.0
 11
1.901245
 21
2.228445999999999
 31
0.0
  0
CIRCLE
  5
A6
330
A2
100
AcDbEntity
  8
DAMAN
100
AcDbCircle
 10
3.651244999999999
 20
1.915945999999999
 30
0.0
 40
0.1715
  0
CIRCLE
  5
A7
330
A2
100
AcDbEntity
  8
DAMAN
100
AcDbCircle
 10
1.901245
 20
1.915945999999999
 30
0.0
 40
0.1715
  0
LINE
  5
A8
330
A2
100
AcDbEntity
  8
DAMAN
  6
CENTER
100
AcDbLine
 10
3.963734999999999
 20
1.913446
 30
0.0
 11
3.338755
 21
1.913446
 31
0.0
  0
LINE
  5
A9
330
A2
100
AcDbEntity
  8
DAMAN
  6
CENTER
100
AcDbLine
 10
2.213734999999999
 20
1.913446
 30
0.0
 11
1.588754999999999
 21
1.913446
 31
0.0
  0
LINE
  5
AA
330
A2
100
AcDbEntity
  8
DAMAN
  6
CENTER
100
AcDbLine
 10
2.53749
 20
2.694695999999999
 30
0.0
 11
2.225
 21
2.694695999999999
 31
0.0
  0
LINE
  5
AB
330
A2
100
AcDbEntity
  8
DAMAN
  6
CENTER
100
AcDbLine
 10
2.653734999999999
 20
3.193445999999999
 30
0.0
 11
2.028754999999999
 21
3.193445999999999
 31
0.0
  0
LINE
  5
AC
330
A2
100
AcDbEntity
  8
DAMAN
  6
CENTER
100
AcDbLine
 10
3.083734999999999
 20
3.633445999999999
 30
0.0
 11
2.458755
 21
3.633445999999999
 31
0.0
  0
LINE
  5
AD
330
A2
100
AcDbEntity
  8
DAMAN
  6
CENTER
100
AcDbLine
 10
3.083734999999999
 20
2.753445999999999
 30
0.0
 11
2.458755
 21
2.753445999999999
 31
0.0
  0
LINE
  5
AE
330
A2
100
AcDbEntity
  8
DAMAN
  6
CENTER
100
AcDbLine
 10
2.771244999999999
 20
3.323446
 30
0.0
 11
2.771244999999999
 21
3.948446
 31
0.0
  0
LINE
  5
AF
330
A2
100
AcDbEntity
  8
DAMAN
  6
CENTER
100
AcDbLine
 10
3.211244999999999
 20
2.883445999999999
 30
0.0
 11
3.211244999999999
 21
3.508445999999999
 31
0.0
  0
LINE
  5
B0
330
A2
100
AcDbEntity
  8
DAMAN
  6
CENTER
100
AcDbLine
 10
3.523734999999999
 20
3.193445999999999
 30
0.0
 11
2.898754999999999
 21
3.193445999999999
 31
0.0
  0
LINE
  5
B1
330
A2
100
AcDbEntity
  8
DAMAN
  6
CENTER
100
AcDbLine
 10
2.771244999999999
 20
2.443445999999999
 30
0.0
 11
2.771244999999999
 21
3.068445999999999
 31
0.0
  0
CIRCLE
  5
B2
330
A2
100
AcDbEntity
  8
DAMAN
100
AcDbCircle
 10
2.771244999999999
 20
2.755945999999999
 30
0.0
 40
0.155
  0
CIRCLE
  5
B3
330
A2
100
AcDbEntity
  8
DAMAN
100
AcDbCircle
 10
3.211244999999999
 20
3.195945999999999
 30
0.0
 40
0.155
  0
LINE
  5
B4
330
A2
100
AcDbEntity
  8
DAMAN
  6
CENTER
100
AcDbLine
 10
3.963734999999999
 20
4.473446
 30
0.0
 11
3.338755
 21
4.473446
 31
0.0
  0
LINE
  5
B5
330
A2
100
AcDbEntity
  8
DAMAN
  6
CENTER
100
AcDbLine
 10
3.651244999999999
 20
4.163445999999999
 30
0.0
 11
3.651244999999999
 21
4.788445999999999
 31
0.0
  0
CIRCLE
  5
B6
330
A2
100
AcDbEntity
  8
DAMAN
100
AcDbCircle
 10
3.651244999999999
 20
4.475945999999999
 30
0.0
 40
0.1715
  0
CIRCLE
  5
B7
330
A2
100
AcDbEntity
  8
DAMAN
100
AcDbCircle
 10
2.771244999999999
 20
3.635946
 30
0.0
 40
0.155
  0
LINE
  5
B8
330
A2
100
AcDbEntity
  8
DAMAN
  6
CENTER
100
AcDbLine
 10
2.341245
 20
2.883445999999999
 30
0.0
 11
2.341245
 21
3.508445999999999
 31
0.0
  0
LINE
  5
B9
330
A2
100
AcDbEntity
  8
DAMAN
  6
CENTER
100
AcDbLine
 10
2.381245
 20
2.539695999999999
 30
0.0
 11
2.381245
 21
2.852195999999999
 31
0.0
  0
CIRCLE
  5
BA
330
A2
100
AcDbEntity
  8
DAMAN
100
AcDbCircle
 10
2.381245
 20
2.695945999999999
 30
0.0
 40
0.08
  0
CIRCLE
  5
BB
330
A2
100
AcDbEntity
  8
DAMAN
100
AcDbCircle
 10
2.341245
 20
3.195945999999999
 30
0.0
 40
0.155
  0
LINE
  5
BC
330
A2
100
AcDbEntity
  8
DAMAN
  6
CENTER
100
AcDbLine
 10
2.213734999999999
 20
4.473446
 30
0.0
 11
1.588754999999999
 21
4.473446
 31
0.0
  0
CIRCLE
  5
BD
330
A2
100
AcDbEntity
  8
DAMAN
100
AcDbCircle
 10
1.901245
 20
4.475945999999999
 30
0.0
 40
0.1715
  0
LINE
  5
BE
330
A2
100
AcDbEntity
  8
DAMAN
  6
CENTER
100
AcDbLine
 10
1.901245
 20
4.163445999999999
 30
0.0
 11
1.901245
 21
4.788445999999999
 31
0.0
  0
CIRCLE
  5
BF
330
A2
100
AcDbEntity
  8
DAMAN
100
AcDbCircle
 10
2.771244999999999
 20
2.755945999999999
 30
0.0
 40
0.2814999999999999
  0
CIRCLE
  5
C0
330
A2
100
AcDbEntity
  8
DAMAN
100
AcDbCircle
 10
3.211244999999999
 20
3.195945999999999
 30
0.0
 40
0.2814999999999999
  0
CIRCLE
  5
C1
330
A2
100
AcDbEntity
  8
DAMAN
100
AcDbCircle
 10
2.771244999999999
 20
3.635946
 30
0.0
 40
0.2814999999999999
  0
CIRCLE
  5
C2
330
A2
100
AcDbEntity
  8
DAMAN
100
AcDbCircle
 10
2.341245
 20
3.195945999999999
 30
0.0
 40
0.2814999999999999
  0
ENDBLK
  5
C3
330
A2
100
AcDbEntity
  8
0
100
AcDbBlockEnd
  0
ENDSEC
  0
SECTION
  2
ENTITIES
  0
LINE
  5
C4
330
1E
100
AcDbEntity
  8
DAMAN
100
AcDbLine
 10
3.562791999999999
 20
8.087837999999999
 30
0.0
 11
3.562791999999999
 21
4.587837999999999
 31
0.0
  0
LINE
  5
C5
330
1E
100
AcDbEntity
  8
DAMAN
100
AcDbLine
 10
3.562791999999999
 20
4.587837999999999
 30
0.0
 11
6.062791999999999
 21
4.587837999999999
 31
0.0
  0
LINE
  5
C6
330
1E
100
AcDbEntity
  8
DAMAN
100
AcDbLine
 10
2.562791999999999
 20
8.087837999999999
 30
0.0
 11
2.562791999999999
 21
4.587837999999999
 31
0.0
  0
LINE
  5
C7
330
1E
100
AcDbEntity
  8
DAMAN
100
AcDbLine
 10
1.562791999999999
 20
8.087837999999999
 30
0.0
 11
1.562791999999999
 21
4.587837999999999
 31
0.0
  0
LINE
  5
C8
330
1E
100
AcDbEntity
  8
DAMAN
100
AcDbLine
 10
6.062791999999999
 20
8.087837999999999
 30
0.0
 11
6.062791999999999
 21
4.587837999999999
 31
0.0
  0
LINE
  5
C9
330
1E
100
AcDbEntity
  8
DAMAN
100
AcDbLine
 10
3.562791999999999
 20
8.087837999999999
 30
0.0
 11
6.062791999999999
 21
8.087837999999999
 31
0.0
  0
LINE
  5
CA
330
1E
100
AcDbEntity
  8
DAMAN
100
AcDbLine
 10
7.062791999999999
 20
8.087837999999999
 30
0.0
 11
7.062791999999999
 21
4.587837999999999
 31
0.0
  0
LINE
  5
CB
330
1E
100
AcDbEntity
  8
DAMAN
100
AcDbLine
 10
8.062791999999999
 20
8.087837999999999
 30
0.0
 11
8.062791999999999
 21
4.587837999999999
 31
0.0
  0
LINE
  5
CE
330
1E
100
AcDbEntity
  8
DAMAN
100
AcDbLine
 10
7.062791999999999
 20
4.587837999999999
 30
0.0
 11
8.062791999999999
 21
4.587837999999999
 31
0.0
  0
LINE
  5
D1
330
1E
100
AcDbEntity
  8
DAMAN
100
AcDbLine
 10
7.062791999999999
 20
8.087837999999999
 30
0.0
 11
8.062791999999999
 21
8.087837999999999
 31
0.0
  0
LINE
  5
D2
330
1E
100
AcDbEntity
  8
DAMAN
100
AcDbLine
 10
1.562791999999999
 20
4.587837999999999
 30
0.0
 11
2.562791999999999
 21
4.587837999999999
 31
0.0
  0
LINE
  5
D3
330
1E
100
AcDbEntity
  8
DAMAN
100
AcDbLine
 10
1.562791999999999
 20
8.087837999999999
 30
0.0
 11
2.562791999999999
 21
8.087837999999999
 31
0.0
  0
TEXT
  5
D4
330
1E
100
AcDbEntity
  8
DAMAN
100
AcDbText
 10
2.386444
 20
7.352291999999999
 30
0.0
 40
0.188
  1
x
100
AcDbText
  0
TEXT
  5
D5
330
1E
100
AcDbEntity
  8
DAMAN
100
AcDbText
 10
2.386444
 20
5.928992
 30
0.0
 40
0.188
  1
x
100
AcDbText
  0
TEXT
  5
D8
330
1E
100
AcDbEntity
  8
DAMAN
100
AcDbText
 10
7.50231112806059
 20
5.412544074853554
 30
0.0
 40
0.188
  1
DMAN ****
 50
90.0
100
AcDbText
  0
CIRCLE
  5
DD
330
1E
100
AcDbEntity
  8
DAMAN
100
AcDbCircle
 10
3.937791
 20
7.618864999999999
 30
0.0
 40
0.1715
  0
CIRCLE
  5
DE
330
1E
100
AcDbEntity
  8
DAMAN
100
AcDbCircle
 10
5.687790999999999
 20
7.618864999999999
 30
0.0
 40
0.1715
  0
CIRCLE
  5
DF
330
1E
100
AcDbEntity
  8
DAMAN
100
AcDbCircle
 10
5.687790999999999
 20
5.058864999999999
 30
0.0
 40
0.1715
  0
CIRCLE
  5
E0
330
1E
100
AcDbEntity
  8
DAMAN
100
AcDbCircle
 10
3.937791
 20
5.058864999999999
 30
0.0
 40
0.1715
  0
CIRCLE
  5
E1
330
1E
100
AcDbEntity
  8
DAMAN
100
AcDbCircle
 10
4.147790999999999
 20
7.008864999999999
 30
0.0
 40
0.08
  0
CIRCLE
  5
E2
330
1E
100
AcDbEntity
  8
DAMAN
100
AcDbCircle
 10
4.377790999999999
 20
5.398864999999999
 30
0.0
 40
0.08
  0
CIRCLE
  5
E3
330
1E
100
AcDbEntity
  8
DAMAN
100
AcDbCircle
 10
4.817790999999999
 20
6.778864999999999
 30
0.0
 40
0.155
  0
CIRCLE
  5
E4
330
1E
100
AcDbEntity
  8
DAMAN
100
AcDbCircle
 10
4.377790999999999
 20
6.338864999999999
 30
0.0
 40
0.155
  0
CIRCLE
  5
E5
330
1E
100
AcDbEntity
  8
DAMAN
100
AcDbCircle
 10
4.817790999999999
 20
5.898864999999999
 30
0.0
 40
0.155
  0
CIRCLE
  5
E6
330
1E
100
AcDbEntity
  8
DAMAN
100
AcDbCircle
 10
5.247790999999999
 20
6.338864999999999
 30
0.0
 40
0.155
  0
CIRCLE
  5
E7
330
1E
100
AcDbEntity
  8
DAMAN
100
AcDbCircle
 10
5.207790999999999
 20
5.838864999999999
 30
0.0
 40
0.08
  0
LINE
  5
EA
330
1E
100
AcDbEntity
  8
DAMAN
  6
CENTER
100
AcDbLine
 10
3.703423499999999
 20
5.056989999999999
 30
0.0
 11
4.172158499999999
 21
5.056989999999999
 31
0.0
  0
LINE
  5
EB
330
1E
100
AcDbEntity
  8
DAMAN
  6
CENTER
100
AcDbLine
 10
3.937791
 20
4.824489999999999
 30
0.0
 11
3.937791
 21
5.293239999999999
 31
0.0
  0
LINE
  5
EC
330
1E
100
AcDbEntity
  8
DAMAN
  6
CENTER
100
AcDbLine
 10
4.182484999999999
 20
5.397302999999999
 30
0.0
 11
4.573096999999999
 21
5.397302999999999
 31
0.0
  0
LINE
  5
ED
330
1E
100
AcDbEntity
  8
DAMAN
  6
CENTER
100
AcDbLine
 10
4.377790999999999
 20
5.203552999999999
 30
0.0
 11
4.377790999999999
 21
5.594177999999999
 31
0.0
  0
LINE
  5
EE
330
1E
100
AcDbEntity
  8
DAMAN
  6
CENTER
100
AcDbLine
 10
5.051546
 20
5.837614999999999
 30
0.0
 11
5.364035999999999
 21
5.837614999999999
 31
0.0
  0
LINE
  5
EF
330
1E
100
AcDbEntity
  8
DAMAN
  6
CENTER
100
AcDbLine
 10
5.207790999999999
 20
5.682614999999999
 30
0.0
 11
5.207790999999999
 21
5.995114999999999
 31
0.0
  0
LINE
  5
F4
330
1E
100
AcDbEntity
  8
DAMAN
  6
CENTER
100
AcDbLine
 10
4.583423499999999
 20
6.776364999999999
 30
0.0
 11
5.052158499999999
 21
6.776364999999999
 31
0.0
  0
LINE
  5
F5
330
1E
100
AcDbEntity
  8
DAMAN
  6
CENTER
100
AcDbLine
 10
4.817790999999999
 20
6.543864999999999
 30
0.0
 11
4.817790999999999
 21
7.012614999999999
 31
0.0
  0
LINE
  5
FC
330
1E
100
AcDbEntity
  8
DAMAN
  6
CENTER
100
AcDbLine
 10
3.991545999999999
 20
7.007614999999999
 30
0.0
 11
4.304035999999999
 21
7.007614999999999
 31
0.0
  0
LINE
  5
FD
330
1E
100
AcDbEntity
  8
DAMAN
  6
CENTER
100
AcDbLine
 10
4.147790999999999
 20
6.852614999999999
 30
0.0
 11
4.147790999999999
 21
7.165114999999999
 31
0.0
  0
LINE
  5
FE
330
1E
100
AcDbEntity
  8
DAMAN
  6
CENTER
100
AcDbLine
 10
5.247790999999999
 20
6.106364999999999
 30
0.0
 11
5.247790999999999
 21
6.575114999999999
 31
0.0
  0
LINE
  5
FF
330
1E
100
AcDbEntity
  8
DAMAN
  6
CENTER
100
AcDbLine
 10
5.013423499999999
 20
6.338864999999999
 30
0.0
 11
5.482158499999999
 21
6.338864999999999
 31
0.0
  0
LINE
  5
100
330
1E
100
AcDbEntity
  8
DAMAN
  6
CENTER
100
AcDbLine
 10
4.817790999999999
 20
5.666364999999999
 30
0.0
 11
4.817790999999999
 21
6.135114999999999
 31
0.0
  0
LINE
  5
101
330
1E
100
AcDbEntity
  8
DAMAN
  6
CENTER
100
AcDbLine
 10
4.583423499999999
 20
5.898864999999999
 30
0.0
 11
5.052158499999999
 21
5.898864999999999
 31
0.0
  0
LINE
  5
102
330
1E
100
AcDbEntity
  8
DAMAN
  6
CENTER
100
AcDbLine
 10
4.377790999999999
 20
6.106364999999999
 30
0.0
 11
4.377790999999999
 21
6.575114999999999
 31
0.0
  0
LINE
  5
103
330
1E
100
AcDbEntity
  8
DAMAN
  6
CENTER
100
AcDbLine
 10
4.143423499999999
 20
6.338864999999999
 30
0.0
 11
4.612158499999999
 21
6.338864999999999
 31
0.0
  0
LINE
  5
104
330
1E
100
AcDbEntity
  8
DAMAN
  6
CENTER
100
AcDbLine
 10
3.703423499999999
 20
7.616989999999999
 30
0.0
 11
4.172158499999999
 21
7.616989999999999
 31
0.0
  0
LINE
  5
105
330
1E
100
AcDbEntity
  8
DAMAN
  6
CENTER
100
AcDbLine
 10
3.937791
 20
7.384489999999999
 30
0.0
 11
3.937791
 21
7.853239999999999
 31
0.0
  0
LINE
  5
106
330
1E
100
AcDbEntity
  8
DAMAN
  6
CENTER
100
AcDbLine
 10
5.453423499999999
 20
7.616989999999999
 30
0.0
 11
5.922158499999999
 21
7.616989999999999
 31
0.0
  0
LINE
  5
107
330
1E
100
AcDbEntity
  8
DAMAN
  6
CENTER
100
AcDbLine
 10
5.687790999999999
 20
7.384489999999999
 30
0.0
 11
5.687790999999999
 21
7.853239999999999
 31
0.0
  0
LINE
  5
108
330
1E
100
AcDbEntity
  8
DAMAN
  6
CENTER
100
AcDbLine
 10
5.453423499999999
 20
5.056989999999999
 30
0.0
 11
5.922158499999999
 21
5.056989999999999
 31
0.0
  0
LINE
  5
109
330
1E
100
AcDbEntity
  8
DAMAN
  6
CENTER
100
AcDbLine
 10
5.687790999999999
 20
4.824489999999999
 30
0.0
 11
5.687790999999999
 21
5.293239999999999
 31
0.0
  0
INSERT
  5
135
330
1E
100
AcDbEntity
  8
DAMAN
100
AcDbBlockReference
  2
04SAET
 10
2.062791999999999
 20
7.009865844541954
 30
0.0
  0
INSERT
  5
136
330
1E
100
AcDbEntity
  8
DAMAN
100
AcDbBlockReference
  2
04SAET
 10
2.062791999999999
 20
5.571865844541953
 30
0.0
  0
ENDSEC
  0
SECTION
  2
OBJECTS
  0
DICTIONARY
  5
C
330
0
100
AcDbDictionary
  3
ACAD_GROUP
350
D
  3
ACAD_LAYOUT
350
19
  3
ACAD_MLINESTYLE
350
16
  3
ACAD_PLOTSETTINGS
350
18
  3
ACAD_PLOTSTYLENAME
350
E
  3
ACDBHEADERROUNDTRIPXREC
350
138
  0
DICTIONARY
  5
15A
330
1E
100
AcDbDictionary
280
     1
  3
ACAD_LAYOUTSELFREF
360
15B
  0
DICTIONARY
  5
158
330
1A
100
AcDbDictionary
280
     1
  3
ACAD_LAYOUTSELFREF
360
159
  0
DICTIONARY
  5
D
102
{ACAD_REACTORS
330
C
102
}
330
C
100
AcDbDictionary
  0
DICTIONARY
  5
19
102
{ACAD_REACTORS
330
C
102
}
330
C
100
AcDbDictionary
  0
DICTIONARY
  5
16
102
{ACAD_REACTORS
330
C
102
}
330
C
100
AcDbDictionary
  3
STANDARD
350
17
  0
DICTIONARY
  5
18
102
{ACAD_REACTORS
330
C
102
}
330
C
100
AcDbDictionary
  0
ACDBDICTIONARYWDFLT
  5
E
102
{ACAD_REACTORS
330
C
102
}
330
C
100
AcDbDictionary
281
     1
  3
Normal
350
F
100
AcDbDictionaryWithDefault
340
F
  0
DICTIONARY
  5
138
102
{ACAD_REACTORS
330
C
102
}
330
C
100
AcDbDictionary
  3
CEPSNTYPE
350
142
  3
FINGERPRINTGUID
350
143
  3
HYPERLINKBASE
350
13B
  3
INSUNITS
350
141
  3
LAYOUTDICT
350
13D
  3
LWETCUNION
350
140
  3
PLOTSETDICT
350
13E
  3
PLOTSTYLNAMDICT
350
13F
  3
PSVPSCALE
350
145
  3
PUCSBASE
350
148
  3
PUCSORGBACK
350
14E
  3
PUCSORGBOTTOM
350
14A
  3
PUCSORGFRONT
350
14D
  3
PUCSORGLEFT
350
14B
  3
PUCSORGRIGHT
350
14C
  3
PUCSORGTOP
350
149
  3
PUCSORTHOREF
350
146
  3
PUCSORTHOVIEW
350
147
  3
STYLESHEET
350
13C
  3
TSTACKALIGN
350
139
  3
TSTACKSIZE
350
13A
  3
UCSBASE
350
151
  3
UCSORGBACK
350
157
  3
UCSORGBOTTOM
350
153
  3
UCSORGFRONT
350
156
  3
UCSORGLEFT
350
154
  3
UCSORGRIGHT
350
155
  3
UCSORGTOP
350
152
  3
UCSORTHOREF
350
14F
  3
UCSORTHOVIEW
350
150
  3
VERSIONGUID
350
144
  0
XRECORD
  5
15B
102
{ACAD_REACTORS
330
15A
102
}
330
15A
100
AcDbXrecord
340
1E
  0
XRECORD
  5
159
102
{ACAD_REACTORS
330
158
102
}
330
158
100
AcDbXrecord
340
1A
  0
MLINESTYLE
  5
17
102
{ACAD_REACTORS
330
16
102
}
330
16
100
AcDbMlineStyle
  2
STANDARD
 70
     0
  3

 62
   256
 51
90.0
 52
90.0
 71
     2
 49
0.5
 62
   256
  6
BYLAYER
 49
-0.5
 62
   256
  6
BYLAYER
  0
ACDBPLACEHOLDER
  5
F
102
{ACAD_REACTORS
330
E
102
}
330
E
100
AcDbPlaceHolder
280
     0
  0
XRECORD
  5
142
102
{ACAD_REACTORS
330
138
102
}
330
138
100
AcDbXrecord
 90
        0
  0
XRECORD
  5
143
102
{ACAD_REACTORS
330
138
102
}
330
138
100
AcDbXrecord
  1
{4344F9AC-3646-48B1-BEA2-DCA8CD60A126}
  0
XRECORD
  5
13B
102
{ACAD_REACTORS
330
138
102
}
330
138
100
AcDbXrecord
  1

  0
XRECORD
  5
141
102
{ACAD_REACTORS
330
138
102
}
330
138
100
AcDbXrecord
 90
        0
  0
XRECORD
  5
13D
102
{ACAD_REACTORS
330
138
102
}
330
138
100
AcDbXrecord
340
19
  0
XRECORD
  5
140
102
{ACAD_REACTORS
330
138
102
}
330
138
100
AcDbXrecord
 90
    10781
  0
XRECORD
  5
13E
102
{ACAD_REACTORS
330
138
102
}
330
138
100
AcDbXrecord
340
18
  0
XRECORD
  5
13F
102
{ACAD_REACTORS
330
138
102
}
330
138
100
AcDbXrecord
340
E
  0
XRECORD
  5
145
102
{ACAD_REACTORS
330
138
102
}
330
138
100
AcDbXrecord
 40
0.0
  0
XRECORD
  5
148
102
{ACAD_REACTORS
330
138
102
}
330
138
100
AcDbXrecord
340
0
  0
XRECORD
  5
14E
102
{ACAD_REACTORS
330
138
102
}
330
138
100
AcDbXrecord
 10
0.0
 20
0.0
 30
0.0
  0
XRECORD
  5
14A
102
{ACAD_REACTORS
330
138
102
}
330
138
100
AcDbXrecord
 10
0.0
 20
0.0
 30
0.0
  0
XRECORD
  5
14D
102
{ACAD_REACTORS
330
138
102
}
330
138
100
AcDbXrecord
 10
0.0
 20
0.0
 30
0.0
  0
XRECORD
  5
14B
102
{ACAD_REACTORS
330
138
102
}
330
138
100
AcDbXrecord
 10
0.0
 20
0.0
 30
0.0
  0
XRECORD
  5
14C
102
{ACAD_REACTORS
330
138
102
}
330
138
100
AcDbXrecord
 10
0.0
 20
0.0
 30
0.0
  0
XRECORD
  5
149
102
{ACAD_REACTORS
330
138
102
}
330
138
100
AcDbXrecord
 10
0.0
 20
0.0
 30
0.0
  0
XRECORD
  5
146
102
{ACAD_REACTORS
330
138
102
}
330
138
100
AcDbXrecord
340
0
  0
XRECORD
  5
147
102
{ACAD_REACTORS
330
138
102
}
330
138
100
AcDbXrecord
 70
     0
  0
XRECORD
  5
13C
102
{ACAD_REACTORS
330
138
102
}
330
138
100
AcDbXrecord
  1

  0
XRECORD
  5
139
102
{ACAD_REACTORS
330
138
102
}
330
138
100
AcDbXrecord
 90
        1
  0
XRECORD
  5
13A
102
{ACAD_REACTORS
330
138
102
}
330
138
100
AcDbXrecord
 90
       70
  0
XRECORD
  5
151
102
{ACAD_REACTORS
330
138
102
}
330
138
100
AcDbXrecord
340
0
  0
XRECORD
  5
157
102
{ACAD_REACTORS
330
138
102
}
330
138
100
AcDbXrecord
 10
0.0
 20
0.0
 30
0.0
  0
XRECORD
  5
153
102
{ACAD_REACTORS
330
138
102
}
330
138
100
AcDbXrecord
 10
0.0
 20
0.0
 30
0.0
  0
XRECORD
  5
156
102
{ACAD_REACTORS
330
138
102
}
330
138
100
AcDbXrecord
 10
0.0
 20
0.0
 30
0.0
  0
XRECORD
  5
154
102
{ACAD_REACTORS
330
138
102
}
330
138
100
AcDbXrecord
 10
0.0
 20
0.0
 30
0.0
  0
XRECORD
  5
155
102
{ACAD_REACTORS
330
138
102
}
330
138
100
AcDbXrecord
 10
0.0
 20
0.0
 30
0.0
  0
XRECORD
  5
152
102
{ACAD_REACTORS
330
138
102
}
330
138
100
AcDbXrecord
 10
0.0
 20
0.0
 30
0.0
  0
XRECORD
  5
14F
102
{ACAD_REACTORS
330
138
102
}
330
138
100
AcDbXrecord
340
0
  0
XRECORD
  5
150
102
{ACAD_REACTORS
330
138
102
}
330
138
100
AcDbXrecord
 70
     0
  0
XRECORD
  5
144
102
{ACAD_REACTORS
330
138
102
}
330
138
100
AcDbXrecord
  1
{0EAAC417-C8DB-44A8-A442-95F00B50E02F}
  0
ENDSEC
  0
EOF
