  0
SECTION
  2
HEADER
  9
$ACADVER
  1
AC1009
  9
$INSBASE
 10
0.0
 20
0.0
 30
0.0
  9
$EXTMIN
 10
3.1875
 20
1.875
 30
0.0
  9
$EXTMAX
 10
21.837499999999999
 20
14.875
 30
0.0
  9
$LIMMIN
 10
0.0
 20
0.0
  9
$LIMMAX
 10
12.0
 20
9.0
  9
$ORTHOMODE
 70
     0
  9
$REGENMODE
 70
     1
  9
$FILLMODE
 70
     1
  9
$QTEXTMODE
 70
     0
  9
$MIRRTEXT
 70
     0
  9
$DRAGMODE
 70
     2
  9
$LTSCALE
 40
1.0
  9
$OSMODE
 70
    37
  9
$ATTMODE
 70
     1
  9
$TEXTSIZE
 40
0.2
  9
$TRACEWID
 40
0.05
  9
$TEXTSTYLE
  7
STANDARD
  9
$CLAYER
  8
0
  9
$CELTYPE
  6
CONTINUOUS
  9
$CECOLOR
 62
   256
  9
$DIMSCALE
 40
1.0
  9
$DIMASZ
 40
0.18
  9
$DIMEXO
 40
0.0625
  9
$DIMDLI
 40
0.38
  9
$DIMRND
 40
0.0
  9
$DIMDLE
 40
0.0
  9
$DIMEXE
 40
0.18
  9
$DIMTP
 40
0.0
  9
$DIMTM
 40
0.0
  9
$DIMTXT
 40
0.18
  9
$DIMCEN
 40
0.09
  9
$DIMTSZ
 40
0.0
  9
$DIMTOL
 70
     0
  9
$DIMLIM
 70
     0
  9
$DIMTIH
 70
     1
  9
$DIMTOH
 70
     1
  9
$DIMSE1
 70
     0
  9
$DIMSE2
 70
     0
  9
$DIMTAD
 70
     0
  9
$DIMZIN
 70
     0
  9
$DIMBLK
  1

  9
$DIMASO
 70
     1
  9
$DIMSHO
 70
     1
  9
$DIMPOST
  1

  9
$DIMAPOST
  1

  9
$DIMALT
 70
     0
  9
$DIMALTD
 70
     2
  9
$DIMALTF
 40
25.399999999999999
  9
$DIMLFAC
 40
1.0
  9
$DIMTOFL
 70
     0
  9
$DIMTVP
 40
0.0
  9
$DIMTIX
 70
     0
  9
$DIMSOXD
 70
     0
  9
$DIMSAH
 70
     0
  9
$DIMBLK1
  1

  9
$DIMBLK2
  1

  9
$DIMSTYLE
  2
STANDARD
  9
$DIMCLRD
 70
     0
  9
$DIMCLRE
 70
     0
  9
$DIMCLRT
 70
     0
  9
$DIMTFAC
 40
1.0
  9
$DIMGAP
 40
0.09
  9
$LUNITS
 70
     2
  9
$LUPREC
 70
     4
  9
$SKETCHINC
 40
0.1
  9
$FILLETRAD
 40
0.0
  9
$AUNITS
 70
     0
  9
$AUPREC
 70
     0
  9
$MENU
  1
.
  9
$ELEVATION
 40
0.0
  9
$PELEVATION
 40
0.0
  9
$THICKNESS
 40
0.0
  9
$LIMCHECK
 70
     0
  9
$BLIPMODE
 70
     0
  9
$CHAMFERA
 40
0.0
  9
$CHAMFERB
 40
0.0
  9
$SKPOLY
 70
     0
  9
$TDCREATE
 40
2455609.6252772338
  9
$TDUPDATE
 40
2455609.6313111228
  9
$TDINDWG
 40
0.0040022801
  9
$TDUSRTIMER
 40
0.0040022801
  9
$USRTIMER
 70
     1
  9
$ANGBASE
 50
0.0
  9
$ANGDIR
 70
     0
  9
$PDMODE
 70
     0
  9
$PDSIZE
 40
0.0
  9
$PLINEWID
 40
0.0
  9
$COORDS
 70
     1
  9
$SPLFRAME
 70
     0
  9
$SPLINETYPE
 70
     6
  9
$SPLINESEGS
 70
     8
  9
$ATTDIA
 70
     0
  9
$ATTREQ
 70
     1
  9
$HANDLING
 70
     1
  9
$HANDSEED
  5
58C
  9
$SURFTAB1
 70
     6
  9
$SURFTAB2
 70
     6
  9
$SURFTYPE
 70
     6
  9
$SURFU
 70
     6
  9
$SURFV
 70
     6
  9
$UCSNAME
  2

  9
$UCSORG
 10
0.0
 20
0.0
 30
0.0
  9
$UCSXDIR
 10
1.0
 20
0.0
 30
0.0
  9
$UCSYDIR
 10
0.0
 20
1.0
 30
0.0
  9
$PUCSNAME
  2

  9
$PUCSORG
 10
0.0
 20
0.0
 30
0.0
  9
$PUCSXDIR
 10
1.0
 20
0.0
 30
0.0
  9
$PUCSYDIR
 10
0.0
 20
1.0
 30
0.0
  9
$USERI1
 70
     0
  9
$USERI2
 70
     0
  9
$USERI3
 70
     0
  9
$USERI4
 70
     0
  9
$USERI5
 70
     0
  9
$USERR1
 40
0.0
  9
$USERR2
 40
0.0
  9
$USERR3
 40
0.0
  9
$USERR4
 40
0.0
  9
$USERR5
 40
0.0
  9
$WORLDVIEW
 70
     1
  9
$SHADEDGE
 70
     3
  9
$SHADEDIF
 70
    70
  9
$TILEMODE
 70
     1
  9
$MAXACTVP
 70
    48
  9
$PLIMCHECK
 70
     0
  9
$PEXTMIN
 10
1.0000000000000000E+020
 20
1.0000000000000000E+020
 30
1.0000000000000000E+020
  9
$PEXTMAX
 10
-1.0000000000000000E+020
 20
-1.0000000000000000E+020
 30
-1.0000000000000000E+020
  9
$PLIMMIN
 10
0.0
 20
0.0
  9
$PLIMMAX
 10
12.0
 20
9.0
  9
$UNITMODE
 70
     0
  9
$VISRETAIN
 70
     1
  9
$PLINEGEN
 70
     0
  9
$PSLTSCALE
 70
     1
  0
ENDSEC
  0
SECTION
  2
TABLES
  0
TABLE
  2
VPORT
 70
     1
  0
VPORT
  2
*ACTIVE
 70
     0
 10
0.0
 20
0.0
 11
1.0
 21
1.0
 12
12.512618843395741
 22
9.6446027008904487
 13
0.0
 23
0.0
 14
1.0
 24
1.0
 15
0.0
 25
0.0
 16
0.0
 26
0.0
 36
1.0
 17
0.0
 27
0.0
 37
0.0
 40
13.08679197387924
 41
1.691410392364793
 42
50.0
 43
0.0
 44
0.0
 50
0.0
 51
0.0
 71
     0
 72
   100
 73
     1
 74
     1
 75
     0
 76
     0
 77
     0
 78
     0
  0
ENDTAB
  0
TABLE
  2
LTYPE
 70
    12
  0
LTYPE
  2
CONTINUOUS
 70
     0
  3
Solid line
 72
    65
 73
     0
 40
0.0
  0
LTYPE
  2
DASHED
 70
     0
  3
__ __ __ __ __ __ __ __ __ __ __ __ __ __ __
 72
    65
 73
     2
 40
0.332
 49
0.1245
 49
-0.06225
  0
LTYPE
  2
DOT
 70
     0
  3
...............................................
 72
    65
 73
     2
 40
0.06225
 49
0.0
 49
-0.06225
  0
LTYPE
  2
DASHDOT
 70
     0
  3
__ . __ . __ . __ . __ . __ . __ . __ . __ . __
 72
    65
 73
     4
 40
0.249
 49
0.1245
 49
-0.06225
 49
0.0
 49
-0.06225
  0
LTYPE
  2
CENTER
 70
     0
  3
____ _ ____ _ ____ _ ____ _ ____ _ ____ _ ____
 72
    65
 73
     4
 40
0.4980000000000001
 49
0.31125
 49
-0.06225
 49
0.06225
 49
-0.06225
  0
LTYPE
  2
PHANTOM
 70
     0
  3
_____ _ _ _____ _ _ _____ _ _ _____ _ _ ____
 72
    65
 73
     6
 40
0.6225000000000001
 49
0.31125
 49
-0.06225
 49
0.06225
 49
-0.06225
 49
0.06225
 49
-0.06225
  0
LTYPE
  2
HIDDEN
 70
     0
  3
_ _ _ _ _ _ _ _ _ _ _ _ _ _ _ _ _ _ _ _ _ _ _
 72
    65
 73
     2
 40
0.249
 49
0.166
 49
-0.083
  0
LTYPE
  2
BORDER
 70
     0
  3
__ __ . __ __ . __ __ . __ __ . __ __ . __ __
 72
    65
 73
     6
 40
0.435823
 49
0.06225
 49
-0.06225
 49
0.1245
 49
-0.06225
 49
0.0
 49
-0.06225
  0
LTYPE
  2
DIVIDE
 70
     0
  3
__ . . __ . . __ . . __ . . __ . . __ . . __
 72
    65
 73
     6
 40
-0.06225
 49
-0.06225
 49
-0.06225
 49
0.0
 49
-0.06225
 49
0.0
 49
-0.06225
  0
LTYPE
  2
POINT31
 70
     0
  3
+                                          +
 72
    65
 73
     0
 40
0.0
  0
LTYPE
  2
POINT63
 70
     0
  3
*                                          *
 72
    65
 73
     0
 40
0.0
  0
LTYPE
  2
DBLDASH
 70
     0
  3
-- -- -- -- -- -- -- -- -- -- -- -- -- -- --
 72
    65
 73
     4
 40
0.217911
 49
0.06225
 49
-0.06225
 49
0.06225
 49
-0.06225
  0
ENDTAB
  0
TABLE
  2
LAYER
 70
     2
  0
LAYER
  2
0
 70
     0
 62
     5
  6
CONTINUOUS
  0
LAYER
  2
PEN2
 70
     0
 62
     9
  6
PHANTOM
  0
ENDTAB
  0
TABLE
  2
STYLE
 70
     2
  0
STYLE
  2
STANDARD
 70
     0
 40
0.0
 41
1.0
 50
0.0
 71
     0
 42
0.2
  3
txt
  4

  0
STYLE
  2
ANNOTATIVE
 70
     0
 40
0.0
 41
1.0
 50
0.0
 71
     0
 42
0.2
  3
txt
  4

  0
ENDTAB
  0
TABLE
  2
VIEW
 70
     0
  0
ENDTAB
  0
TABLE
  2
UCS
 70
     0
  0
ENDTAB
  0
TABLE
  2
APPID
 70
     3
  0
APPID
  2
ACAD
 70
     0
  0
APPID
  2
ACADANNOTATIVE
 70
     0
  0
APPID
  2
ACAD_MLEADERVER
 70
     0
  0
ENDTAB
  0
TABLE
  2
DIMSTYLE
 70
     2
  0
DIMSTYLE
  2
STANDARD
 70
     0
  3

  4

  5

  6

  7

 40
1.0
 41
0.18
 42
0.0625
 43
0.38
 44
0.18
 45
0.0
 46
0.0
 47
0.0
 48
0.0
140
0.18
141
0.09
142
0.0
143
25.399999999999999
144
1.0
145
0.0
146
1.0
147
0.09
 71
     0
 72
     0
 73
     1
 74
     1
 75
     0
 76
     0
 77
     0
 78
     0
170
     0
171
     2
172
     0
173
     0
174
     0
175
     0
176
     0
177
     0
178
     0
  0
DIMSTYLE
  2
ANNOTATIVE
 70
     0
  3

  4

  5

  6

  7

 40
1.0
 41
0.18
 42
0.0625
 43
0.38
 44
0.18
 45
0.0
 46
0.0
 47
0.0
 48
0.0
140
0.18
141
0.09
142
0.0
143
25.399999999999999
144
1.0
145
0.0
146
1.0
147
0.09
 71
     0
 72
     0
 73
     1
 74
     1
 75
     0
 76
     0
 77
     0
 78
     0
170
     0
171
     2
172
     0
173
     0
174
     0
175
     0
176
     0
177
     0
178
     0
  0
ENDTAB
  0
ENDSEC
  0
SECTION
  2
BLOCKS
  0
BLOCK
  8
0
  2
$MODEL_SPACE
 70
     0
 10
0.0
 20
0.0
 30
0.0
  3
$MODEL_SPACE
  1

  0
ENDBLK
  5
6D
  8
0
  0
BLOCK
 67
     1
  8
0
  2
$PAPER_SPACE
 70
     0
 10
0.0
 20
0.0
 30
0.0
  3
$PAPER_SPACE
  1

  0
ENDBLK
  5
69
 67
     1
  8
0
  0
ENDSEC
  0
SECTION
  2
ENTITIES
  0
TEXT
  5
7D
  8
0
 62
     5
 10
17.685718000000001
 20
9.4133414999999996
 30
0.0
 40
0.2125
  1
P
 50
90.0
 41
0.825
 72
     4
 11
17.579467999999999
 21
9.4717789999999997
 31
0.0
  0
LINE
  5
86
  8
0
  6
CONTINUOUS
 62
     5
 10
12.366505
 20
13.542120000000001
 30
0.0
 11
12.422665
 21
13.457879999999999
 31
0.0
  0
POLYLINE
  5
87
  8
0
  6
CONTINUOUS
 62
     5
 66
     1
 10
0.0
 20
0.0
 30
0.0
 70
     1
  0
VERTEX
  5
559
  8
0
  6
CONTINUOUS
 62
     5
 10
13.873464999999999
 20
13.4064
 30
0.0
  0
VERTEX
  5
55A
  8
0
  6
CONTINUOUS
 62
     5
 10
13.873464999999999
 20
13.5936
 30
0.0
  0
VERTEX
  5
55B
  8
0
  6
CONTINUOUS
 62
     5
 10
13.817304999999999
 20
13.5936
 30
0.0
  0
VERTEX
  5
55C
  8
0
  6
CONTINUOUS
 62
     5
 10
13.798584999999999
 20
13.584239999999999
 30
0.0
  0
VERTEX
  5
55D
  8
0
  6
CONTINUOUS
 62
     5
 10
13.784545
 20
13.565519999999999
 30
0.0
  0
VERTEX
  5
55E
  8
0
  6
CONTINUOUS
 62
     5
 10
13.775185
 20
13.546799999999999
 30
0.0
  0
VERTEX
  5
55F
  8
0
  6
CONTINUOUS
 62
     5
 10
13.770505
 20
13.51404
 30
0.0
  0
VERTEX
  5
560
  8
0
  6
CONTINUOUS
 62
     5
 10
13.770505
 20
13.48596
 30
0.0
  0
VERTEX
  5
561
  8
0
  6
CONTINUOUS
 62
     5
 10
13.775185
 20
13.457879999999999
 30
0.0
  0
VERTEX
  5
562
  8
0
  6
CONTINUOUS
 62
     5
 10
13.784545
 20
13.434480000000001
 30
0.0
  0
VERTEX
  5
563
  8
0
  6
CONTINUOUS
 62
     5
 10
13.798584999999999
 20
13.415760000000001
 30
0.0
  0
VERTEX
  5
564
  8
0
  6
CONTINUOUS
 62
     5
 10
13.817304999999999
 20
13.4064
 30
0.0
  0
VERTEX
  5
565
  8
0
  6
CONTINUOUS
 62
     5
 10
13.873464999999999
 20
13.4064
 30
0.0
  0
SEQEND
  5
566
  8
0
  6
CONTINUOUS
 62
     5
  0
POLYLINE
  5
96
  8
0
  6
CONTINUOUS
 62
     5
 66
     1
 10
0.0
 20
0.0
 30
0.0
  0
VERTEX
  5
567
  8
0
  6
CONTINUOUS
 62
     5
 10
13.723705000000001
 20
13.5936
 30
0.0
  0
VERTEX
  5
568
  8
0
  6
CONTINUOUS
 62
     5
 10
13.672224999999999
 20
13.4064
 30
0.0
  0
VERTEX
  5
569
  8
0
  6
CONTINUOUS
 62
     5
 10
13.662865
 20
13.4064
 30
0.0
  0
VERTEX
  5
56A
  8
0
  6
CONTINUOUS
 62
     5
 10
13.611385
 20
13.5936
 30
0.0
  0
SEQEND
  5
56B
  8
0
  6
CONTINUOUS
 62
     5
  0
LINE
  5
9C
  8
0
  6
CONTINUOUS
 62
     5
 10
13.704985000000001
 20
13.528079999999999
 30
0.0
 11
13.630105
 21
13.528079999999999
 31
0.0
  0
POLYLINE
  5
9D
  8
0
  6
CONTINUOUS
 62
     5
 66
     1
 10
0.0
 20
0.0
 30
0.0
  0
VERTEX
  5
56C
  8
0
  6
CONTINUOUS
 62
     5
 10
13.559905000000001
 20
13.5936
 30
0.0
  0
VERTEX
  5
56D
  8
0
  6
CONTINUOUS
 62
     5
 10
13.559905000000001
 20
13.4064
 30
0.0
  0
VERTEX
  5
56E
  8
0
  6
CONTINUOUS
 62
     5
 10
13.508425000000001
 20
13.5
 30
0.0
  0
VERTEX
  5
56F
  8
0
  6
CONTINUOUS
 62
     5
 10
13.456944999999999
 20
13.4064
 30
0.0
  0
VERTEX
  5
570
  8
0
  6
CONTINUOUS
 62
     5
 10
13.456944999999999
 20
13.5936
 30
0.0
  0
SEQEND
  5
571
  8
0
  6
CONTINUOUS
 62
     5
  0
POLYLINE
  5
A4
  8
0
  6
CONTINUOUS
 62
     5
 66
     1
 10
0.0
 20
0.0
 30
0.0
  0
VERTEX
  5
572
  8
0
  6
CONTINUOUS
 62
     5
 10
13.405465
 20
13.5936
 30
0.0
  0
VERTEX
  5
573
  8
0
  6
CONTINUOUS
 62
     5
 10
13.353985
 20
13.4064
 30
0.0
  0
VERTEX
  5
574
  8
0
  6
CONTINUOUS
 62
     5
 10
13.344625000000001
 20
13.4064
 30
0.0
  0
VERTEX
  5
575
  8
0
  6
CONTINUOUS
 62
     5
 10
13.293145000000001
 20
13.5936
 30
0.0
  0
SEQEND
  5
576
  8
0
  6
CONTINUOUS
 62
     5
  0
LINE
  5
AA
  8
0
  6
CONTINUOUS
 62
     5
 10
13.386744999999999
 20
13.528079999999999
 30
0.0
 11
13.311864999999999
 21
13.528079999999999
 31
0.0
  0
POLYLINE
  5
AB
  8
0
  6
CONTINUOUS
 62
     5
 66
     1
 10
0.0
 20
0.0
 30
0.0
  0
VERTEX
  5
577
  8
0
  6
CONTINUOUS
 62
     5
 10
13.236985000000001
 20
13.5936
 30
0.0
  0
VERTEX
  5
578
  8
0
  6
CONTINUOUS
 62
     5
 10
13.236985000000001
 20
13.4064
 30
0.0
  0
VERTEX
  5
579
  8
0
  6
CONTINUOUS
 62
     5
 10
13.143385
 20
13.5936
 30
0.0
  0
VERTEX
  5
57A
  8
0
  6
CONTINUOUS
 62
     5
 10
13.143385
 20
13.4064
 30
0.0
  0
SEQEND
  5
57B
  8
0
  6
CONTINUOUS
 62
     5
  0
LINE
  5
B1
  8
0
  6
CONTINUOUS
 62
     5
 10
12.928105
 20
13.5
 30
0.0
 11
12.815785
 21
13.5
 31
0.0
  0
POLYLINE
  5
B2
  8
0
  6
CONTINUOUS
 62
     5
 66
     1
 10
0.0
 20
0.0
 30
0.0
  0
VERTEX
  5
57C
  8
0
  6
CONTINUOUS
 62
     5
 10
12.871945
 20
13.55616
 30
0.0
  0
VERTEX
  5
57D
  8
0
  6
CONTINUOUS
 62
     5
 10
12.871945
 20
13.44852
 30
0.0
  0
VERTEX
  5
57E
  8
0
  6
CONTINUOUS
 62
     5
 10
12.871945
 20
13.44384
 30
0.0
  0
SEQEND
  5
57F
  8
0
  6
CONTINUOUS
 62
     5
  0
LINE
  5
B7
  8
0
  6
CONTINUOUS
 62
     5
 10
12.843864999999999
 20
13.457879999999999
 30
0.0
 11
12.900024999999999
 21
13.542120000000001
 31
0.0
  0
LINE
  5
B8
  8
0
  6
CONTINUOUS
 62
     5
 10
12.843864999999999
 20
13.542120000000001
 30
0.0
 11
12.900024999999999
 21
13.457879999999999
 31
0.0
  0
LINE
  5
B9
  8
0
  6
CONTINUOUS
 62
     5
 10
12.768985000000001
 20
13.5
 30
0.0
 11
12.656665
 21
13.5
 31
0.0
  0
POLYLINE
  5
BA
  8
0
  6
CONTINUOUS
 62
     5
 66
     1
 10
0.0
 20
0.0
 30
0.0
  0
VERTEX
  5
580
  8
0
  6
CONTINUOUS
 62
     5
 10
12.712825
 20
13.55616
 30
0.0
  0
VERTEX
  5
581
  8
0
  6
CONTINUOUS
 62
     5
 10
12.712825
 20
13.44852
 30
0.0
  0
VERTEX
  5
582
  8
0
  6
CONTINUOUS
 62
     5
 10
12.712825
 20
13.44384
 30
0.0
  0
SEQEND
  5
583
  8
0
  6
CONTINUOUS
 62
     5
  0
LINE
  5
BF
  8
0
  6
CONTINUOUS
 62
     5
 10
12.684744999999999
 20
13.457879999999999
 30
0.0
 11
12.740905
 21
13.542120000000001
 31
0.0
  0
LINE
  5
C0
  8
0
  6
CONTINUOUS
 62
     5
 10
12.684744999999999
 20
13.542120000000001
 30
0.0
 11
12.740905
 21
13.457879999999999
 31
0.0
  0
LINE
  5
C1
  8
0
  6
CONTINUOUS
 62
     5
 10
12.609864999999999
 20
13.5
 30
0.0
 11
12.497545000000001
 21
13.5
 31
0.0
  0
POLYLINE
  5
C2
  8
0
  6
CONTINUOUS
 62
     5
 66
     1
 10
0.0
 20
0.0
 30
0.0
  0
VERTEX
  5
584
  8
0
  6
CONTINUOUS
 62
     5
 10
12.553705000000001
 20
13.55616
 30
0.0
  0
VERTEX
  5
585
  8
0
  6
CONTINUOUS
 62
     5
 10
12.553705000000001
 20
13.44852
 30
0.0
  0
VERTEX
  5
586
  8
0
  6
CONTINUOUS
 62
     5
 10
12.553705000000001
 20
13.44384
 30
0.0
  0
SEQEND
  5
587
  8
0
  6
CONTINUOUS
 62
     5
  0
LINE
  5
C7
  8
0
  6
CONTINUOUS
 62
     5
 10
12.525625
 20
13.457879999999999
 30
0.0
 11
12.581785
 21
13.542120000000001
 31
0.0
  0
LINE
  5
C8
  8
0
  6
CONTINUOUS
 62
     5
 10
12.525625
 20
13.542120000000001
 30
0.0
 11
12.581785
 21
13.457879999999999
 31
0.0
  0
LINE
  5
C9
  8
0
  6
CONTINUOUS
 62
     5
 10
12.450745
 20
13.5
 30
0.0
 11
12.338425000000001
 21
13.5
 31
0.0
  0
POLYLINE
  5
CA
  8
0
  6
CONTINUOUS
 62
     5
 66
     1
 10
0.0
 20
0.0
 30
0.0
  0
VERTEX
  5
588
  8
0
  6
CONTINUOUS
 62
     5
 10
12.394584999999999
 20
13.55616
 30
0.0
  0
VERTEX
  5
589
  8
0
  6
CONTINUOUS
 62
     5
 10
12.394584999999999
 20
13.44852
 30
0.0
  0
VERTEX
  5
58A
  8
0
  6
CONTINUOUS
 62
     5
 10
12.394584999999999
 20
13.44384
 30
0.0
  0
SEQEND
  5
58B
  8
0
  6
CONTINUOUS
 62
     5
  0
LINE
  5
CF
  8
0
  6
CONTINUOUS
 62
     5
 10
12.366505
 20
13.457879999999999
 30
0.0
 11
12.422665
 21
13.542120000000001
 31
0.0
  0
LINE
  5
1A5
  8
0
  6
CONTINUOUS
 62
     5
 10
12.5625
 20
8.9380000000000006
 30
0.0
 11
12.5625
 21
9.6880000000000006
 31
0.0
  0
LINE
  5
1A6
  8
0
  6
CONTINUOUS
 62
     5
 10
12.1875
 20
9.3130000000000006
 30
0.0
 11
12.9375
 21
9.3130000000000006
 31
0.0
  0
ARC
  5
1A7
  8
0
  6
CONTINUOUS
 62
     5
 10
12.5625
 20
9.3130000000000006
 30
0.0
 40
0.311
 50
85.000000999999983
 51
5.0
  0
CIRCLE
  5
1A8
  8
0
  6
CONTINUOUS
 62
     5
 10
12.5625
 20
9.3130000000000006
 30
0.0
 40
0.266
  0
CIRCLE
  5
1A9
  8
0
  6
CONTINUOUS
 62
     5
 10
12.5625
 20
9.3130000000000006
 30
0.0
 40
0.313
  0
LINE
  5
1B5
  8
0
  6
CONTINUOUS
 62
     5
 10
13.781499999999999
 20
10.093999999999999
 30
0.0
 11
13.781499999999999
 21
10.843999999999999
 31
0.0
  0
LINE
  5
1B8
  8
0
  6
CONTINUOUS
 62
     5
 10
13.406499999999999
 20
10.468999999999999
 30
0.0
 11
14.156499999999999
 21
10.468999999999999
 31
0.0
  0
CIRCLE
  5
1B9
  8
0
  6
CONTINUOUS
 62
     5
 10
13.781499999999999
 20
10.468999999999999
 30
0.0
 40
0.203
  0
CIRCLE
  5
1BA
  8
0
  6
CONTINUOUS
 62
     5
 10
13.781499999999999
 20
10.468999999999999
 30
0.0
 40
0.313
  0
LINE
  5
1BB
  8
0
  6
CONTINUOUS
 62
     5
 10
14.1875
 20
12.375
 30
0.0
 11
14.1875
 21
14.875
 31
0.0
  0
LINE
  5
1BC
  8
0
  6
CONTINUOUS
 62
     5
 10
19.1875
 20
10.875
 30
0.0
 11
16.6875
 21
10.875
 31
0.0
  0
LINE
  5
1BD
  8
0
  6
CONTINUOUS
 62
     5
 10
17.092500000000001
 20
8.25
 30
0.0
 11
19.1875
 21
8.25
 31
0.0
  0
LINE
  5
1F5
  8
0
  6
CONTINUOUS
 62
     5
 10
21.837499999999999
 20
2.75
 30
0.0
 11
21.837499999999999
 21
2.75
 31
0.0
  0
LINE
  5
201
  8
0
  6
CONTINUOUS
 62
     5
 10
18.09
 20
2.75
 30
0.0
 11
18.09
 21
2.75
 31
0.0
  0
LINE
  5
206
  8
0
  6
CONTINUOUS
 62
     5
 10
12.5625
 20
6.3129999999999988
 30
0.0
 11
12.5625
 21
7.0629999999999988
 31
0.0
  0
LINE
  5
207
  8
0
  6
CONTINUOUS
 62
     5
 10
12.1875
 20
6.6879999999999988
 30
0.0
 11
12.9375
 21
6.6879999999999988
 31
0.0
  0
ARC
  5
208
  8
0
  6
CONTINUOUS
 62
     5
 10
12.5625
 20
6.6879999999999988
 30
0.0
 40
0.311
 50
85.000000999999983
 51
5.0
  0
CIRCLE
  5
209
  8
0
  6
CONTINUOUS
 62
     5
 10
12.5625
 20
6.6879999999999988
 30
0.0
 40
0.266
  0
CIRCLE
  5
20A
  8
0
  6
CONTINUOUS
 62
     5
 10
12.5625
 20
6.6879999999999988
 30
0.0
 40
0.313
  0
LINE
  5
20B
  8
0
  6
CONTINUOUS
 62
     5
 10
13.781499999999999
 20
5.9059999999999988
 30
0.0
 11
13.781499999999999
 21
6.6559999999999988
 31
0.0
  0
LINE
  5
20C
  8
0
  6
CONTINUOUS
 62
     5
 10
13.406499999999999
 20
6.2809999999999988
 30
0.0
 11
14.156499999999999
 21
6.2809999999999988
 31
0.0
  0
CIRCLE
  5
20D
  8
0
  6
CONTINUOUS
 62
     5
 10
13.781499999999999
 20
6.2809999999999988
 30
0.0
 40
0.203
  0
CIRCLE
  5
20E
  8
0
  6
CONTINUOUS
 62
     5
 10
13.781499999999999
 20
6.2809999999999988
 30
0.0
 40
0.313
  0
LINE
  5
21E
  8
0
  6
CONTINUOUS
 62
     5
 10
15.9375
 20
2.75
 30
0.0
 11
15.9375
 21
2.75
 31
0.0
  0
TEXT
  5
220
  8
0
 62
     5
 10
12.3508415
 20
3.9387819999999989
 30
0.0
 40
0.2125
  1
T
 41
0.825
 72
     4
 11
12.409279
 21
4.0450319999999991
 31
0.0
  0
LINE
  5
229
  8
0
  6
CONTINUOUS
 62
     5
 10
14.1875
 20
4.375
 30
0.0
 11
14.1875
 21
1.875
 31
0.0
  0
TEXT
  5
240
  8
0
 62
     5
 10
16.6875
 20
5.6159999999999988
 30
0.0
 40
0.141
  1
FACE 4
 41
0.8558823529411762
 72
     5
 11
17.37135
 21
5.6159999999999988
 31
0.0
  0
LINE
  5
241
  8
0
  6
CONTINUOUS
 62
     5
 10
16.6875
 20
5.875
 30
0.0
 11
19.1875
 21
5.875
 31
0.0
  0
ARC
  5
242
  8
0
  6
CONTINUOUS
 62
     5
 10
18.249500000000001
 20
8.25
 30
0.0
 40
0.964
 50
180.0
 51
346.662736
  0
ARC
  5
243
  8
0
  6
CONTINUOUS
 62
     5
 10
18.249500000000001
 20
8.25
 30
0.0
 40
0.964
 50
13.337263999999999
 51
180.0
  0
CIRCLE
  5
244
  8
0
  6
CONTINUOUS
 62
     5
 10
18.249500000000001
 20
8.25
 30
0.0
 40
0.5629999999999999
  0
CIRCLE
  5
245
  8
0
  6
CONTINUOUS
 62
     5
 10
18.249500000000001
 20
8.25
 30
0.0
 40
0.6150000000000001
  0
ARC
  5
246
  8
0
  6
CONTINUOUS
 62
     5
 10
18.249500000000001
 20
8.25
 30
0.0
 40
0.658
 50
85.000000999999983
 51
5.0
  0
CIRCLE
  5
247
  8
0
  6
CONTINUOUS
 62
     5
 10
18.249500000000001
 20
8.25
 30
0.0
 40
0.6560000000000001
  0
CIRCLE
  5
248
  8
0
  6
CONTINUOUS
 62
     5
 10
18.249500000000001
 20
8.25
 30
0.0
 40
0.699
  0
LINE
  5
249
  8
0
  6
CONTINUOUS
 62
     5
 10
18.249500000000001
 20
7.0929999999999991
 30
0.0
 11
18.249500000000001
 21
9.407
 31
0.0
  0
LINE
  5
24A
  8
0
  6
CONTINUOUS
 62
     5
 10
19.1875
 20
5.875
 30
0.0
 11
19.1875
 21
10.875
 31
0.0
  0
LINE
  5
24B
  8
0
  6
CONTINUOUS
 62
     5
 10
16.6875
 20
10.875
 30
0.0
 11
16.6875
 21
5.875
 31
0.0
  0
LINE
  5
24D
  8
0
  6
CONTINUOUS
 62
     5
 10
14.1875
 20
5.875
 30
0.0
 11
14.1875
 21
10.875
 31
0.0
  0
LINE
  5
25A
  8
0
  6
CONTINUOUS
 62
     5
 10
9.8125
 20
8.9380000000000006
 30
0.0
 11
9.8125
 21
9.6880000000000006
 31
0.0
  0
LINE
  5
25B
  8
0
  6
CONTINUOUS
 62
     5
 10
9.4375
 20
9.3130000000000006
 30
0.0
 11
10.1875
 21
9.3130000000000006
 31
0.0
  0
ARC
  5
25C
  8
0
  6
CONTINUOUS
 62
     5
 10
9.8125
 20
9.3130000000000006
 30
0.0
 40
0.311
 50
85.000000999999983
 51
5.0
  0
CIRCLE
  5
25D
  8
0
  6
CONTINUOUS
 62
     5
 10
9.8125
 20
9.3130000000000006
 30
0.0
 40
0.266
  0
CIRCLE
  5
25E
  8
0
  6
CONTINUOUS
 62
     5
 10
9.8125
 20
9.3130000000000006
 30
0.0
 40
0.313
  0
CIRCLE
  5
25F
  8
0
  6
CONTINUOUS
 62
     5
 10
8.5935000000000006
 20
10.468999999999999
 30
0.0
 40
0.203
  0
LINE
  5
260
  8
0
  6
CONTINUOUS
 62
     5
 10
8.5935000000000006
 20
10.093999999999999
 30
0.0
 11
8.5935000000000006
 21
10.843999999999999
 31
0.0
  0
TEXT
  5
261
  8
0
 62
     5
 10
8.1875
 20
12.116
 30
0.0
 40
0.141
  1
FACE 5
 41
0.8558823529411762
 72
     5
 11
8.8713499999999996
 21
12.116
 31
0.0
  0
LINE
  5
262
  8
0
  6
CONTINUOUS
 62
     5
 10
8.2185000000000006
 20
10.468999999999999
 30
0.0
 11
8.9685000000000006
 21
10.468999999999999
 31
0.0
  0
CIRCLE
  5
263
  8
0
  6
CONTINUOUS
 62
     5
 10
8.5935000000000006
 20
10.468999999999999
 30
0.0
 40
0.313
  0
TEXT
  5
264
  8
0
 62
     5
 10
10.3609375
 20
12.573437999999999
 30
0.0
 40
0.2125
  1
X
 41
0.825
 72
     4
 11
10.419375
 21
12.679688000000001
 31
0.0
  0
LINE
  5
26D
  8
0
  6
CONTINUOUS
 62
     5
 10
8.1875
 20
14.875
 30
0.0
 11
8.1875
 21
12.375
 31
0.0
  0
LINE
  5
26E
  8
0
  6
CONTINUOUS
 62
     5
 10
3.1875
 20
10.875
 30
0.0
 11
5.6875
 21
10.875
 31
0.0
  0
LINE
  5
26F
  8
0
  6
CONTINUOUS
 62
     5
 10
9.8125
 20
7.8315000000000001
 30
0.0
 11
9.8125
 21
8.1684999999999999
 31
0.0
  0
LINE
  5
270
  8
0
  6
CONTINUOUS
 62
     5
 10
9.8125
 20
6.3129999999999988
 30
0.0
 11
9.8125
 21
7.0629999999999988
 31
0.0
  0
LINE
  5
271
  8
0
  6
CONTINUOUS
 62
     5
 10
9.6440000000000001
 20
8.0
 30
0.0
 11
9.9809999999999999
 21
8.0
 31
0.0
  0
CIRCLE
  5
272
  8
0
  6
CONTINUOUS
 62
     5
 10
9.8125
 20
8.0
 30
0.0
 40
0.1405
  0
LINE
  5
273
  8
0
  6
CONTINUOUS
 62
     5
 10
9.4375
 20
6.6879999999999988
 30
0.0
 11
10.1875
 21
6.6879999999999988
 31
0.0
  0
ARC
  5
274
  8
0
  6
CONTINUOUS
 62
     5
 10
9.8125
 20
6.6879999999999988
 30
0.0
 40
0.311
 50
85.000000999999983
 51
5.0
  0
CIRCLE
  5
275
  8
0
  6
CONTINUOUS
 62
     5
 10
9.8125
 20
6.6879999999999988
 30
0.0
 40
0.266
  0
CIRCLE
  5
276
  8
0
  6
CONTINUOUS
 62
     5
 10
9.8125
 20
6.6879999999999988
 30
0.0
 40
0.313
  0
CIRCLE
  5
28D
  8
0
  6
CONTINUOUS
 62
     5
 10
8.5935000000000006
 20
6.2809999999999988
 30
0.0
 40
0.203
  0
LINE
  5
28E
  8
0
  6
CONTINUOUS
 62
     5
 10
8.5935000000000006
 20
5.9059999999999988
 30
0.0
 11
8.5935000000000006
 21
6.6559999999999988
 31
0.0
  0
LINE
  5
2C6
  8
0
  6
CONTINUOUS
 62
     5
 10
8.2185000000000006
 20
6.2809999999999988
 30
0.0
 11
8.9685000000000006
 21
6.2809999999999988
 31
0.0
  0
CIRCLE
  5
2C7
  8
0
  6
CONTINUOUS
 62
     5
 10
8.5935000000000006
 20
6.2809999999999988
 30
0.0
 40
0.313
  0
TEXT
  5
2C8
  8
0
 62
     5
 10
8.1875
 20
4.4919999999999991
 30
0.0
 40
0.141
  1
FACE 2
 41
0.8558823529411762
 72
     5
 11
8.8713499999999996
 21
4.4919999999999991
 31
0.0
  0
TEXT
  5
2C9
  8
0
 62
     5
 10
8.1875
 20
5.6159999999999988
 30
0.0
 40
0.141
  1
FACE 1
 41
0.9093749999999996
 72
     5
 11
8.8713499999999996
 21
5.6159999999999988
 31
0.0
  0
LINE
  5
2CA
  8
0
  6
CONTINUOUS
 62
     5
 10
8.1875
 20
1.875
 30
0.0
 11
8.1875
 21
4.375
 31
0.0
  0
TEXT
  5
2CB
  8
0
 62
     5
 10
5.059499999999999
 20
5.6159999999999988
 30
0.0
 40
0.141
  1
FACE 3
 41
0.8558823529411771
 72
     5
 11
5.7433500000000004
 21
5.6159999999999988
 31
0.0
  0
LINE
  5
2CC
  8
0
  6
CONTINUOUS
 62
     5
 10
5.6875
 20
5.875
 30
0.0
 11
3.1875
 21
5.875
 31
0.0
  0
LINE
  5
2CD
  8
0
  6
CONTINUOUS
 62
     5
 10
5.6875
 20
10.875
 30
0.0
 11
5.6875
 21
5.875
 31
0.0
  0
LINE
  5
2CE
  8
0
  6
CONTINUOUS
 62
     5
 10
3.1875
 20
5.875
 30
0.0
 11
3.1875
 21
10.875
 31
0.0
  0
LINE
  5
2D0
  8
0
  6
CONTINUOUS
 62
     5
 10
8.1875
 20
10.875
 30
0.0
 11
8.1875
 21
5.875
 31
0.0
  0
LINE
  5
2D5
  8
0
  6
CONTINUOUS
 62
     5
 10
10.596500000000001
 20
13.0
 30
0.0
 11
11.778499999999999
 21
13.0
 31
0.0
  0
LINE
  5
2D6
  8
0
  6
CONTINUOUS
 62
     5
 10
11.1875
 20
12.409000000000001
 30
0.0
 11
11.1875
 21
13.590999999999999
 31
0.0
  0
ARC
  5
2D7
  8
0
  6
CONTINUOUS
 62
     5
 10
11.1875
 20
13.0
 30
0.0
 40
0.283
 50
85.000000999999983
 51
5.0
  0
CIRCLE
  5
2D8
  8
0
  6
CONTINUOUS
 62
     5
 10
11.1875
 20
13.0
 30
0.0
 40
0.242
  0
CIRCLE
  5
2D9
  8
0
  6
CONTINUOUS
 62
     5
 10
11.1875
 20
13.0
 30
0.0
 40
0.254
  0
CIRCLE
  5
2DA
  8
0
  6
CONTINUOUS
 62
     5
 10
11.1875
 20
13.0
 30
0.0
 40
0.281
  0
CIRCLE
  5
2DB
  8
0
  6
CONTINUOUS
 62
     5
 10
11.1875
 20
13.0
 30
0.0
 40
0.307
  0
CIRCLE
  5
2DC
  8
0
  6
CONTINUOUS
 62
     5
 10
11.1875
 20
13.0
 30
0.0
 40
0.493
  0
LINE
  5
2DD
  8
0
  6
CONTINUOUS
 62
     5
 10
11.0375
 20
10.250999999999999
 30
0.0
 11
11.3375
 21
10.250999999999999
 31
0.0
  0
LINE
  5
2DE
  8
0
  6
CONTINUOUS
 62
     5
 10
11.1875
 20
10.101000000000001
 30
0.0
 11
11.1875
 21
10.401
 31
0.0
  0
CIRCLE
  5
2DF
  8
0
  6
CONTINUOUS
 62
     5
 10
11.1875
 20
10.250999999999999
 30
0.0
 40
0.125
  0
LINE
  5
2E0
  8
0
  6
CONTINUOUS
 62
     5
 10
10.6435
 20
8.875
 30
0.0
 11
11.7315
 21
8.875
 31
0.0
  0
CIRCLE
  5
2E1
  8
0
  6
CONTINUOUS
 62
     5
 10
11.1875
 20
8.875
 30
0.0
 40
0.4530000000000001
  0
LINE
  5
2E2
  8
0
  6
CONTINUOUS
 62
     5
 10
11.1875
 20
8.3309999999999995
 30
0.0
 11
11.1875
 21
9.4190000000000005
 31
0.0
  0
LINE
  5
2E3
  8
0
  6
CONTINUOUS
 62
     5
 10
10.6435
 20
7.125
 30
0.0
 11
11.7315
 21
7.125
 31
0.0
  0
CIRCLE
  5
2E4
  8
0
  6
CONTINUOUS
 62
     5
 10
11.1875
 20
3.375
 30
0.0
 40
0.5629999999999999
  0
CIRCLE
  5
2E5
  8
0
  6
CONTINUOUS
 62
     5
 10
11.1875
 20
3.375
 30
0.0
 40
0.6150000000000001
  0
LINE
  5
2E6
  8
0
  6
CONTINUOUS
 62
     5
 10
11.1875
 20
2.2179999999999991
 30
0.0
 11
11.1875
 21
4.532
 31
0.0
  0
ARC
  5
2E7
  8
0
  6
CONTINUOUS
 62
     5
 10
11.1875
 20
3.375
 30
0.0
 40
0.658
 50
85.000000999999983
 51
5.0
  0
CIRCLE
  5
2E8
  8
0
  6
CONTINUOUS
 62
     5
 10
11.1875
 20
3.375
 30
0.0
 40
0.6560000000000001
  0
CIRCLE
  5
2E9
  8
0
  6
CONTINUOUS
 62
     5
 10
11.1875
 20
3.375
 30
0.0
 40
0.699
  0
LINE
  5
2EA
  8
0
  6
CONTINUOUS
 62
     5
 10
11.1875
 20
6.5810000000000004
 30
0.0
 11
11.1875
 21
7.6689999999999987
 31
0.0
  0
CIRCLE
  5
2EB
  8
0
  6
CONTINUOUS
 62
     5
 10
11.1875
 20
7.125
 30
0.0
 40
0.4530000000000001
  0
LINE
  5
2ED
  8
0
  6
CONTINUOUS
 62
     5
 10
14.1875
 20
10.875
 30
0.0
 11
8.1875
 21
10.875
 31
0.0
  0
LINE
  5
2EE
  8
0
  6
CONTINUOUS
 62
     5
 10
8.1875
 20
12.375
 30
0.0
 11
14.1875
 21
12.375
 31
0.0
  0
LINE
  5
2EF
  8
0
  6
CONTINUOUS
 62
     5
 10
14.1875
 20
14.875
 30
0.0
 11
8.1875
 21
14.875
 31
0.0
  0
LINE
  5
2F0
  8
0
  6
CONTINUOUS
 62
     5
 10
10.0305
 20
3.375
 30
0.0
 11
12.3445
 21
3.375
 31
0.0
  0
CIRCLE
  5
2F1
  8
0
  6
CONTINUOUS
 62
     5
 10
11.1875
 20
3.375
 30
0.0
 40
0.964
  0
LINE
  5
2F3
  8
0
  6
CONTINUOUS
 62
     5
 10
8.1875
 20
5.875
 30
0.0
 11
14.1875
 21
5.875
 31
0.0
  0
LINE
  5
2F4
  8
0
  6
CONTINUOUS
 62
     5
 10
8.1875
 20
4.375
 30
0.0
 11
14.1875
 21
4.375
 31
0.0
  0
LINE
  5
2F5
  8
0
  6
CONTINUOUS
 62
     5
 10
14.1875
 20
1.875
 30
0.0
 11
8.1875
 21
1.875
 31
0.0
  0
LINE
  5
304
  8
0
  6
CONTINUOUS
 62
     5
 10
18.2895
 20
8.25
 30
0.0
 11
19.330500000000001
 21
8.25
 31
0.0
  0
ENDSEC
  0
EOF
