  0
SECTION
  2
HEADER
  9
$ACADVER
  1
AC1009
  9
$INSBASE
 10
0.0
 20
0.0
 30
0.0
  9
$EXTMIN
 10
-1.4070682026203469
 20
-0.750190662045192
 30
-0.0000000349181948
  9
$EXTMAX
 10
7.969369470032496
 20
6.3750230729020201
 30
0.0000000814935747
  9
$LIMMIN
 10
0.0
 20
0.0
  9
$LIMMAX
 10
12.0
 20
9.0
  9
$ORTHOMODE
 70
     1
  9
$REGENMODE
 70
     1
  9
$FILLMODE
 70
     1
  9
$QTEXTMODE
 70
     0
  9
$MIRRTEXT
 70
     1
  9
$DRAGMODE
 70
     2
  9
$LTSCALE
 40
1.0
  9
$OSMODE
 70
    37
  9
$ATTMODE
 70
     1
  9
$TEXTSIZE
 40
0.188
  9
$TRACEWID
 40
0.05
  9
$TEXTSTYLE
  7
STANDARD
  9
$CLAYER
  8
DAMAN
  9
$CELTYPE
  6
BYLAYER
  9
$CECOLOR
 62
   256
  9
$DIMSCALE
 40
1.0
  9
$DIMASZ
 40
0.18
  9
$DIMEXO
 40
0.0625
  9
$DIMDLI
 40
0.38
  9
$DIMRND
 40
0.0
  9
$DIMDLE
 40
0.0
  9
$DIMEXE
 40
0.18
  9
$DIMTP
 40
0.0
  9
$DIMTM
 40
0.0
  9
$DIMTXT
 40
0.18
  9
$DIMCEN
 40
0.09
  9
$DIMTSZ
 40
0.0
  9
$DIMTOL
 70
     0
  9
$DIMLIM
 70
     0
  9
$DIMTIH
 70
     1
  9
$DIMTOH
 70
     1
  9
$DIMSE1
 70
     0
  9
$DIMSE2
 70
     0
  9
$DIMTAD
 70
     0
  9
$DIMZIN
 70
     0
  9
$DIMBLK
  1

  9
$DIMASO
 70
     1
  9
$DIMSHO
 70
     1
  9
$DIMPOST
  1

  9
$DIMAPOST
  1

  9
$DIMALT
 70
     0
  9
$DIMALTD
 70
     2
  9
$DIMALTF
 40
25.399999999999999
  9
$DIMLFAC
 40
1.0
  9
$DIMTOFL
 70
     0
  9
$DIMTVP
 40
0.0
  9
$DIMTIX
 70
     0
  9
$DIMSOXD
 70
     0
  9
$DIMSAH
 70
     0
  9
$DIMBLK1
  1

  9
$DIMBLK2
  1

  9
$DIMSTYLE
  2
STANDARD
  9
$DIMCLRD
 70
     0
  9
$DIMCLRE
 70
     0
  9
$DIMCLRT
 70
     0
  9
$DIMTFAC
 40
1.0
  9
$DIMGAP
 40
0.09
  9
$LUNITS
 70
     2
  9
$LUPREC
 70
     4
  9
$SKETCHINC
 40
0.1
  9
$FILLETRAD
 40
0.0
  9
$AUNITS
 70
     0
  9
$AUPREC
 70
     0
  9
$MENU
  1
tom
  9
$ELEVATION
 40
0.0
  9
$PELEVATION
 40
0.0
  9
$THICKNESS
 40
0.0
  9
$LIMCHECK
 70
     0
  9
$BLIPMODE
 70
     0
  9
$CHAMFERA
 40
0.0
  9
$CHAMFERB
 40
0.0
  9
$SKPOLY
 70
     0
  9
$TDCREATE
 40
2449753.4063630318
  9
$TDUPDATE
 40
2454200.4491714351
  9
$TDINDWG
 40
0.0090036806
  9
$TDUSRTIMER
 40
0.0090033102
  9
$USRTIMER
 70
     1
  9
$ANGBASE
 50
0.0
  9
$ANGDIR
 70
     0
  9
$PDMODE
 70
     0
  9
$PDSIZE
 40
0.0
  9
$PLINEWID
 40
0.0
  9
$COORDS
 70
     1
  9
$SPLFRAME
 70
     0
  9
$SPLINETYPE
 70
     6
  9
$SPLINESEGS
 70
     8
  9
$ATTDIA
 70
     0
  9
$ATTREQ
 70
     1
  9
$HANDLING
 70
     1
  9
$HANDSEED
  5
1B2
  9
$SURFTAB1
 70
     6
  9
$SURFTAB2
 70
     6
  9
$SURFTYPE
 70
     6
  9
$SURFU
 70
     6
  9
$SURFV
 70
     6
  9
$UCSNAME
  2

  9
$UCSORG
 10
0.0
 20
0.0
 30
0.0
  9
$UCSXDIR
 10
1.0
 20
0.0
 30
0.0
  9
$UCSYDIR
 10
0.0
 20
1.0
 30
0.0
  9
$PUCSNAME
  2

  9
$PUCSORG
 10
0.0
 20
0.0
 30
0.0
  9
$PUCSXDIR
 10
1.0
 20
0.0
 30
0.0
  9
$PUCSYDIR
 10
0.0
 20
1.0
 30
0.0
  9
$USERI1
 70
     0
  9
$USERI2
 70
     0
  9
$USERI3
 70
     0
  9
$USERI4
 70
     0
  9
$USERI5
 70
     0
  9
$USERR1
 40
0.0
  9
$USERR2
 40
0.0
  9
$USERR3
 40
0.0
  9
$USERR4
 40
0.0
  9
$USERR5
 40
0.0
  9
$WORLDVIEW
 70
     1
  9
$SHADEDGE
 70
     3
  9
$SHADEDIF
 70
    70
  9
$TILEMODE
 70
     1
  9
$MAXACTVP
 70
    16
  9
$PLIMCHECK
 70
     0
  9
$PEXTMIN
 10
1.0000000000000000E+020
 20
1.0000000000000000E+020
 30
1.0000000000000000E+020
  9
$PEXTMAX
 10
-1.0000000000000000E+020
 20
-1.0000000000000000E+020
 30
-1.0000000000000000E+020
  9
$PLIMMIN
 10
0.0
 20
0.0
  9
$PLIMMAX
 10
12.0
 20
9.0
  9
$UNITMODE
 70
     0
  9
$VISRETAIN
 70
     0
  9
$PLINEGEN
 70
     0
  9
$PSLTSCALE
 70
     1
  0
ENDSEC
  0
SECTION
  2
TABLES
  0
TABLE
  2
VPORT
 70
     1
  0
VPORT
  2
*ACTIVE
 70
     0
 10
0.0
 20
0.0
 11
1.0
 21
1.0
 12
3.2811506337060741
 22
2.8124162054284141
 13
0.0
 23
0.0
 14
0.03125
 24
0.03125
 15
0.0
 25
0.0
 16
0.0
 26
0.0
 36
1.0
 17
0.0
 27
0.0
 37
0.0
 40
7.205573288348873
 41
1.7984934086629001
 42
50.0
 43
0.0
 44
0.0
 50
0.0
 51
0.0
 71
     0
 72
   100
 73
     1
 74
     1
 75
     1
 76
     0
 77
     0
 78
     0
  0
ENDTAB
  0
TABLE
  2
LTYPE
 70
     4
  0
LTYPE
  2
CONTINUOUS
 70
     0
  3
Solid line
 72
    65
 73
     0
 40
0.0
  0
LTYPE
  2
HIDDEN
 70
     0
  3
_ _ _ _ _ _ _ _ _ _ _ _ _ _ _ _ _ _ _ _ _ _ _
 72
    65
 73
     2
 40
0.375
 49
0.25
 49
-0.125
  0
LTYPE
  2
CENTER
 70
     0
  3
____ _ ____ _ ____ _ ____ _ ____ _ ____ _ ____
 72
    65
 73
     4
 40
2.0
 49
1.25
 49
-0.25
 49
0.25
 49
-0.25
  0
LTYPE
  2
PHANTOM
 70
     0
  3
_____ _ _ _____ _ _ _____ _ _ _____ _ _ ____
 72
    65
 73
     6
 40
2.5
 49
1.25
 49
-0.25
 49
0.25
 49
-0.25
 49
0.25
 49
-0.25
  0
ENDTAB
  0
TABLE
  2
LAYER
 70
     8
  0
LAYER
  2
0
 70
     0
 62
     7
  6
CONTINUOUS
  0
LAYER
  2
DAMAN
 70
     0
 62
     5
  6
CONTINUOUS
  0
LAYER
  2
BORDER
 70
     0
 62
     7
  6
CONTINUOUS
  0
LAYER
  2
CSOLID
 70
     0
 62
     3
  6
CONTINUOUS
  0
LAYER
  2
CHIDDEN
 70
     0
 62
     3
  6
HIDDEN
  0
LAYER
  2
CDIM
 70
     0
 62
     2
  6
CONTINUOUS
  0
LAYER
  2
CCENTER
 70
     0
 62
     4
  6
CENTER
  0
LAYER
  2
PHANTOM
 70
     0
 62
     1
  6
PHANTOM
  0
ENDTAB
  0
TABLE
  2
STYLE
 70
     2
  0
STYLE
  2
STANDARD
 70
     0
 40
0.0
 41
1.0
 50
0.0
 71
     0
 42
0.188
  3
txt
  4

  0
STYLE
  2
STR
 70
     0
 40
0.0
 41
1.0
 50
0.0
 71
     0
 42
0.25
  3
SIMPLEX
  4

  0
ENDTAB
  0
TABLE
  2
VIEW
 70
     0
  0
ENDTAB
  0
TABLE
  2
UCS
 70
     0
  0
ENDTAB
  0
TABLE
  2
APPID
 70
     1
  0
APPID
  2
ACAD
 70
     0
  0
ENDTAB
  0
TABLE
  2
DIMSTYLE
 70
     1
  0
DIMSTYLE
  2
STANDARD
 70
     0
  3

  4

  5

  6

  7

 40
1.0
 41
0.18
 42
0.0625
 43
0.38
 44
0.18
 45
0.0
 46
0.0
 47
0.0
 48
0.0
140
0.18
141
0.09
142
0.0
143
25.399999999999999
144
1.0
145
0.0
146
1.0
147
0.09
 71
     0
 72
     0
 73
     1
 74
     1
 75
     0
 76
     0
 77
     0
 78
     0
170
     0
171
     2
172
     0
173
     0
174
     0
175
     0
176
     0
177
     0
178
     0
  0
ENDTAB
  0
ENDSEC
  0
SECTION
  2
BLOCKS
  0
BLOCK
  8
0
  2
$MODEL_SPACE
 70
     0
 10
0.0
 20
0.0
 30
0.0
  3
$MODEL_SPACE
  1

  0
ENDBLK
  5
20
  8
0
  0
BLOCK
 67
     1
  8
0
  2
$PAPER_SPACE
 70
     0
 10
0.0
 20
0.0
 30
0.0
  3
$PAPER_SPACE
  1

  0
ENDBLK
  5
1C
 67
     1
  8
0
  0
BLOCK
  8
0
  2
D07CPPG
 70
     0
 10
0.0
 20
0.0
 30
0.0
  3
D07CPPG
  1

  0
POLYLINE
  5
32
  8
BORDER
 66
     1
 10
0.0
 20
0.0
 30
0.0
 70
     1
  0
VERTEX
  5
17A
  8
BORDER
 10
8.65625
 20
5.25
 30
0.0
  0
VERTEX
  5
17B
  8
BORDER
 10
12.15625
 20
5.25
 30
0.0
  0
VERTEX
  5
17C
  8
BORDER
 10
12.15625
 20
0.25
 30
0.0
  0
VERTEX
  5
17D
  8
BORDER
 10
8.65625
 20
0.25
 30
0.0
  0
SEQEND
  5
17E
  8
BORDER
  0
POLYLINE
  5
38
  8
BORDER
 66
     1
 10
0.0
 20
0.0
 30
0.0
 70
     1
  0
VERTEX
  5
17F
  8
BORDER
 10
5.40625
 20
0.25
 30
0.0
  0
VERTEX
  5
180
  8
BORDER
 10
5.40625
 20
5.25
 30
0.0
  0
VERTEX
  5
181
  8
BORDER
 10
6.40625
 20
5.25
 30
0.0
  0
VERTEX
  5
182
  8
BORDER
 10
6.40625
 20
0.25
 30
0.0
  0
SEQEND
  5
183
  8
BORDER
  0
CIRCLE
  5
3E
  8
CSOLID
 10
9.59375
 20
3.90625
 30
0.0
 40
0.210938
  0
CIRCLE
  5
3F
  8
CSOLID
 10
11.218749999999989
 20
3.28125
 30
0.0
 40
0.210938
  0
CIRCLE
  5
40
  8
CSOLID
 10
11.218749999999989
 20
2.03125
 30
0.0
 40
0.210938
  0
CIRCLE
  5
41
  8
CSOLID
 10
9.59375
 20
2.65625
 30
0.0
 40
0.210938
  0
CIRCLE
  5
42
  8
CSOLID
 10
9.65625
 20
1.6092500000000001
 30
0.0
 40
0.2189999999999999
  0
CIRCLE
  5
43
  8
CSOLID
 10
11.28125
 20
1.15625
 30
0.0
 40
0.2189999999999999
  0
CIRCLE
  5
44
  8
CSOLID
 10
11.218749999999989
 20
2.03125
 30
0.0
 40
0.5
  0
CIRCLE
  5
45
  8
CSOLID
 10
11.218749999999989
 20
3.28125
 30
0.0
 40
0.5
  0
CIRCLE
  5
46
  8
CSOLID
 10
9.59375
 20
2.65625
 30
0.0
 40
0.5
  0
CIRCLE
  5
47
  8
CSOLID
 10
9.59375
 20
3.90625
 30
0.0
 40
0.5
  0
CIRCLE
  5
48
  8
CSOLID
 10
11.843749999999989
 20
2.65625
 30
0.0
 40
0.1405
  0
CIRCLE
  5
49
  8
CSOLID
 10
8.96875
 20
3.28125
 30
0.0
 40
0.1405
  0
CIRCLE
  5
4A
  8
CSOLID
 10
11.78125
 20
0.625
 30
0.0
 40
0.203
  0
CIRCLE
  5
4B
  8
CSOLID
 10
11.78125
 20
4.625
 30
0.0
 40
0.203
  0
CIRCLE
  5
4C
  8
CSOLID
 10
9.03125
 20
0.625
 30
0.0
 40
0.203
  0
CIRCLE
  5
4D
  8
CSOLID
 10
9.03125
 20
4.625
 30
0.0
 40
0.203
  0
CIRCLE
  5
4E
  8
CSOLID
 10
11.78125
 20
3.90625
 30
0.0
 40
0.0855
  0
CIRCLE
  5
4F
  8
CSOLID
 10
9.03125
 20
1.6092500000000001
 30
0.0
 40
0.0855
  0
CIRCLE
  5
50
  8
CSOLID
 10
11.28125
 20
1.157
 30
0.0
 40
0.125
  0
CIRCLE
  5
51
  8
CSOLID
 10
9.65625
 20
1.6100000000000001
 30
0.0
 40
0.125
  0
INSERT
  5
53
  8
CCENTER
  2
100CROSS
 10
11.78125
 20
4.625
 30
0.0
 41
-0.375
 42
0.375
  0
INSERT
  5
54
  8
CCENTER
  2
100CROSS
 10
11.78125
 20
3.90625
 30
0.0
 41
-0.171
 42
0.171
  0
INSERT
  5
55
  8
CCENTER
  2
100CROSS
 10
11.843249999999999
 20
2.6560000000000001
 30
0.0
 41
-0.25
 42
0.25
  0
INSERT
  5
56
  8
CCENTER
  2
100CROSS
 10
11.78125
 20
0.625
 30
0.0
 41
-0.375
 42
0.375
  0
INSERT
  5
57
  8
CCENTER
  2
100CROSS
 10
11.28125
 20
1.15625
 30
0.0
 41
-0.3779999999999999
 42
0.3779999999999999
  0
INSERT
  5
58
  8
CCENTER
  2
100CROSS
 10
11.219250000000001
 20
2.0310000000000001
 30
0.0
 41
-0.6879999999999999
 42
0.6879999999999999
  0
INSERT
  5
59
  8
CCENTER
  2
100CROSS
 10
11.219250000000001
 20
3.2810000000000001
 30
0.0
 41
-0.6879999999999999
 42
0.6879999999999999
  0
INSERT
  5
5A
  8
CCENTER
  2
100CROSS
 10
9.5942500000000006
 20
3.9060000000000001
 30
0.0
 41
-0.6879999999999999
 42
0.6879999999999999
  0
INSERT
  5
5B
  8
CCENTER
  2
100CROSS
 10
9.03125
 20
4.625
 30
0.0
 41
-0.375
 42
0.375
  0
INSERT
  5
5C
  8
CCENTER
  2
100CROSS
 10
8.9682499999999976
 20
3.2810000000000001
 30
0.0
 41
-0.25
 42
0.25
  0
INSERT
  5
5D
  8
CCENTER
  2
100CROSS
 10
9.5942500000000006
 20
2.6560000000000001
 30
0.0
 41
-0.6879999999999999
 42
0.6879999999999999
  0
INSERT
  5
5E
  8
CCENTER
  2
100CROSS
 10
9.65625
 20
1.6092500000000001
 30
0.0
 41
-0.3779999999999999
 42
0.3779999999999999
  0
INSERT
  5
5F
  8
CCENTER
  2
100CROSS
 10
9.03125
 20
0.625
 30
0.0
 41
-0.375
 42
0.375
  0
INSERT
  5
60
  8
CCENTER
  2
100CROSS
 10
9.03125
 20
1.6092500000000001
 30
0.0
 41
-0.171
 42
0.171
  0
POLYLINE
  5
61
  8
BORDER
 66
     1
 10
0.0
 20
0.0
 30
0.0
 70
     1
  0
VERTEX
  5
184
  8
BORDER
 10
3.71875
 20
5.25
 30
0.0
  0
VERTEX
  5
185
  8
BORDER
 10
0.21875
 20
5.25
 30
0.0
  0
VERTEX
  5
186
  8
BORDER
 10
0.21875
 20
0.25
 30
0.0
  0
VERTEX
  5
187
  8
BORDER
 10
3.71875
 20
0.25
 30
0.0
  0
SEQEND
  5
188
  8
BORDER
  0
INSERT
  5
67
  8
CCENTER
  2
100CROSS
 10
3.34375
 20
0.625
 30
0.0
 41
0.375
 42
0.375
  0
INSERT
  5
68
  8
CCENTER
  2
100CROSS
 10
0.59375
 20
0.625
 30
0.0
 41
0.375
 42
0.375
  0
INSERT
  5
69
  8
CCENTER
  2
100CROSS
 10
3.4067500000000002
 20
3.2810000000000001
 30
0.0
 41
0.25
 42
0.25
  0
INSERT
  5
6A
  8
CCENTER
  2
100CROSS
 10
0.5317499999999999
 20
2.6560000000000001
 30
0.0
 41
0.25
 42
0.25
  0
INSERT
  5
6B
  8
CCENTER
  2
100CROSS
 10
0.59375
 20
4.625
 30
0.0
 41
0.375
 42
0.375
  0
INSERT
  5
6C
  8
CCENTER
  2
100CROSS
 10
3.34375
 20
4.625
 30
0.0
 41
0.375
 42
0.375
  0
CIRCLE
  5
6D
  8
CSOLID
 10
3.34375
 20
4.625
 30
0.0
 40
0.203
  0
CIRCLE
  5
6E
  8
CSOLID
 10
0.59375
 20
4.625
 30
0.0
 40
0.203
  0
CIRCLE
  5
6F
  8
CSOLID
 10
3.40625
 20
3.28125
 30
0.0
 40
0.1405
  0
CIRCLE
  5
70
  8
CSOLID
 10
0.53125
 20
2.65625
 30
0.0
 40
0.1405
  0
CIRCLE
  5
71
  8
CSOLID
 10
3.34375
 20
0.625
 30
0.0
 40
0.203
  0
CIRCLE
  5
72
  8
CSOLID
 10
0.59375
 20
0.625
 30
0.0
 40
0.203
  0
INSERT
  5
74
  8
BORDER
  2
025NPTFT
 10
2.78125
 20
2.65625
 30
0.0
  0
TEXT
  5
75
  8
CDIM
 10
2.40625
 20
2.90625
 30
0.0
 40
0.25
  1
P
  7
STR
  0
LINE
  5
76
  8
CDIM
 10
0.21875
 20
5.3616060000000001
 30
0.0
 11
0.21875
 21
6.0357129999999977
 31
0.0
  0
LINE
  5
77
  8
CDIM
 10
2.78125
 20
3.0408559999999998
 30
0.0
 11
2.78125
 21
6.0357129999999977
 31
0.0
  0
LINE
  5
78
  8
CDIM
 10
0.441962
 20
5.8125
 30
0.0
 11
0.901791
 21
5.8125
 31
0.0
  0
LINE
  5
79
  8
CDIM
 10
2.5580379999999998
 20
5.8125
 30
0.0
 11
2.098209999999999
 21
5.8125
 31
0.0
  0
SOLID
  5
7A
  8
CDIM
 10
0.441962
 20
5.7752980000000003
 30
0.0
 11
0.441962
 21
5.849701999999998
 31
0.0
 12
0.21875
 22
5.8125
 32
0.0
 13
0.21875
 23
5.8125
 33
0.0
  0
SOLID
  5
7B
  8
CDIM
 10
2.5580379999999998
 20
5.7752980000000003
 30
0.0
 11
2.5580379999999998
 21
5.849701999999998
 31
0.0
 12
2.78125
 22
5.8125
 32
0.0
 13
2.78125
 23
5.8125
 33
0.0
  0
TEXT
  5
7C
  8
CDIM
 10
1.125002999999998
 20
5.6875010000000001
 30
0.0
 40
0.249998
  1
2.56
  7
STR
  0
LINE
  5
7D
  8
CDIM
 10
5.40625
 20
5.3616060000000001
 30
0.0
 11
5.40625
 21
6.0357129999999977
 31
0.0
  0
LINE
  5
7E
  8
CDIM
 10
6.40625
 20
5.3616060000000001
 30
0.0
 11
6.40625
 21
6.0357129999999977
 31
0.0
  0
LINE
  5
7F
  8
CDIM
 10
6.6294630000000003
 20
5.8125
 30
0.0
 11
6.8526749999999979
 21
5.8125
 31
0.0
  0
LINE
  5
80
  8
CDIM
 10
5.183037999999998
 20
5.8125
 30
0.0
 11
4.9598250000000004
 21
5.8125
 31
0.0
  0
SOLID
  5
81
  8
CDIM
 10
6.6294630000000003
 20
5.7752980000000003
 30
0.0
 11
6.6294630000000003
 21
5.849701999999998
 31
0.0
 12
6.40625
 22
5.8125
 32
0.0
 13
6.40625
 23
5.8125
 33
0.0
  0
SOLID
  5
82
  8
CDIM
 10
5.183037999999998
 20
5.7752980000000003
 30
0.0
 11
5.183037999999998
 21
5.849701999999998
 31
0.0
 12
5.40625
 22
5.8125
 32
0.0
 13
5.40625
 23
5.8125
 33
0.0
  0
TEXT
  5
83
  8
CDIM
 10
5.5446379999999991
 20
5.6875010000000001
 30
0.0
 40
0.249998
  1
1.00
  7
STR
  0
LINE
  5
84
  8
CDIM
 10
3.8303559999999979
 20
5.25
 30
0.0
 11
4.5044629999999977
 21
5.25
 31
0.0
  0
LINE
  5
85
  8
CDIM
 10
3.1038559999999982
 20
2.65625
 30
0.0
 11
4.5044629999999977
 21
2.65625
 31
0.0
  0
LINE
  5
86
  8
CDIM
 10
4.28125
 20
5.026787999999998
 30
0.0
 11
4.28125
 21
4.3013370000000002
 31
0.0
  0
LINE
  5
87
  8
CDIM
 10
4.28125
 20
2.879462999999999
 30
0.0
 11
4.28125
 21
3.6049139999999982
 31
0.0
  0
SOLID
  5
88
  8
CDIM
 10
4.318451999999998
 20
5.026787999999998
 30
0.0
 11
4.2440480000000003
 21
5.026787999999998
 31
0.0
 12
4.28125
 22
5.25
 32
0.0
 13
4.28125
 23
5.25
 33
0.0
  0
SOLID
  5
89
  8
CDIM
 10
4.318451999999998
 20
2.879462999999999
 30
0.0
 11
4.2440480000000003
 21
2.879462999999999
 31
0.0
 12
4.28125
 22
2.65625
 32
0.0
 13
4.28125
 23
2.65625
 33
0.0
  0
TEXT
  5
8A
  8
CDIM
 10
3.9062529999999982
 20
3.8281260000000001
 30
0.0
 40
0.249998
  1
2.59
  7
STR
  0
LINE
  5
8B
  8
CDIM
 10
8.5446439999999981
 20
5.25
 30
0.0
 11
7.8705379999999998
 21
5.25
 31
0.0
  0
LINE
  5
8C
  8
CDIM
 10
9.2712059999999994
 20
2.65625
 30
0.0
 11
7.8705379999999998
 21
2.65625
 31
0.0
  0
LINE
  5
8D
  8
CDIM
 10
8.09375
 20
5.026787999999998
 30
0.0
 11
8.09375
 21
4.3013370000000002
 31
0.0
  0
LINE
  5
8E
  8
CDIM
 10
8.09375
 20
2.879462999999999
 30
0.0
 11
8.09375
 21
3.6049139999999982
 31
0.0
  0
SOLID
  5
8F
  8
CDIM
 10
8.1309520000000006
 20
5.026787999999998
 30
0.0
 11
8.0565479999999994
 21
5.026787999999998
 31
0.0
 12
8.09375
 22
5.25
 32
0.0
 13
8.09375
 23
5.25
 33
0.0
  0
SOLID
  5
90
  8
CDIM
 10
8.1309520000000006
 20
2.879462999999999
 30
0.0
 11
8.0565479999999994
 21
2.879462999999999
 31
0.0
 12
8.09375
 22
2.65625
 32
0.0
 13
8.09375
 23
2.65625
 33
0.0
  0
TEXT
  5
91
  8
CDIM
 10
7.7187529999999978
 20
3.8281260000000001
 30
0.0
 40
0.249998
  1
2.59
  7
STR
  0
LINE
  5
92
  8
CDIM
 10
8.5446439999999981
 20
5.25
 30
0.0
 11
7.2008999999999981
 21
5.25
 31
0.0
  0
LINE
  5
93
  8
CDIM
 10
8.5446439999999981
 20
0.25
 30
0.0
 11
7.2008999999999981
 21
0.25
 31
0.0
  0
LINE
  5
94
  8
CDIM
 10
7.4241130000000002
 20
5.026787999999998
 30
0.0
 11
7.4241130000000002
 21
2.6294619999999989
 31
0.0
  0
LINE
  5
95
  8
CDIM
 10
7.4241130000000002
 20
0.473212
 30
0.0
 11
7.4241130000000002
 21
1.9330389999999991
 31
0.0
  0
SOLID
  5
96
  8
CDIM
 10
7.461314999999999
 20
5.026787999999998
 30
0.0
 11
7.3869100000000003
 21
5.026787999999998
 31
0.0
 12
7.4241130000000002
 22
5.25
 32
0.0
 13
7.4241130000000002
 23
5.25
 33
0.0
  0
SOLID
  5
97
  8
CDIM
 10
7.461314999999999
 20
0.473212
 30
0.0
 11
7.3869100000000003
 21
0.473212
 31
0.0
 12
7.4241130000000002
 22
0.25
 32
0.0
 13
7.4241130000000002
 23
0.25
 33
0.0
  0
TEXT
  5
98
  8
CDIM
 10
7.0431629999999998
 20
2.1562509999999988
 30
0.0
 40
0.249998
  1
5.00
  7
STR
  0
LINE
  5
99
  8
CDIM
 10
12.15625
 20
5.3616060000000001
 30
0.0
 11
12.15625
 21
6.0357129999999977
 31
0.0
  0
LINE
  5
9A
  8
CDIM
 10
9.59375
 20
4.2287939999999997
 30
0.0
 11
9.59375
 21
6.0357129999999977
 31
0.0
  0
LINE
  5
9B
  8
CDIM
 10
11.933038
 20
5.8125
 30
0.0
 11
11.47321
 21
5.8125
 31
0.0
  0
LINE
  5
9C
  8
CDIM
 10
9.8169629999999994
 20
5.8125
 30
0.0
 11
10.276790999999999
 21
5.8125
 31
0.0
  0
SOLID
  5
9D
  8
CDIM
 10
11.933038
 20
5.7752980000000003
 30
0.0
 11
11.933038
 21
5.849701999999998
 31
0.0
 12
12.15625
 22
5.8125
 32
0.0
 13
12.15625
 23
5.8125
 33
0.0
  0
SOLID
  5
9E
  8
CDIM
 10
9.8169629999999994
 20
5.7752980000000003
 30
0.0
 11
9.8169629999999994
 21
5.849701999999998
 31
0.0
 12
9.59375
 22
5.8125
 32
0.0
 13
9.59375
 23
5.8125
 33
0.0
  0
TEXT
  5
9F
  8
CDIM
 10
10.500002999999991
 20
5.6875010000000001
 30
0.0
 40
0.249998
  1
2.56
  7
STR
  0
LINE
  5
A0
  8
CDIM
 10
12.15625
 20
5.3616060000000001
 30
0.0
 11
12.15625
 21
6.7053500000000001
 31
0.0
  0
LINE
  5
A1
  8
CDIM
 10
8.65625
 20
5.3616060000000001
 30
0.0
 11
8.65625
 21
6.7053500000000001
 31
0.0
  0
LINE
  5
A2
  8
CDIM
 10
11.933038
 20
6.4821379999999991
 30
0.0
 11
11.01041199999999
 21
6.4821379999999991
 31
0.0
  0
LINE
  5
A3
  8
CDIM
 10
8.8794630000000012
 20
6.4821379999999991
 30
0.0
 11
9.8020879999999995
 21
6.4821379999999991
 31
0.0
  0
SOLID
  5
A4
  8
CDIM
 10
11.933038
 20
6.4449350000000001
 30
0.0
 11
11.933038
 21
6.5193399999999997
 31
0.0
 12
12.15625
 22
6.4821379999999991
 32
0.0
 13
12.15625
 23
6.4821379999999991
 33
0.0
  0
SOLID
  5
A5
  8
CDIM
 10
8.8794630000000012
 20
6.4449350000000001
 30
0.0
 11
8.8794630000000012
 21
6.5193399999999997
 31
0.0
 12
8.65625
 22
6.4821379999999991
 32
0.0
 13
8.65625
 23
6.4821379999999991
 33
0.0
  0
TEXT
  5
A6
  8
CDIM
 10
10.02530099999999
 20
6.3571390000000001
 30
0.0
 40
0.249998
  1
3.50
  7
STR
  0
ENDBLK
  5
A7
  8
0
  0
BLOCK
  8
0
  2
100CROSS
 70
     0
 10
5.625
 20
4.59375
 30
0.0
  3
100CROSS
  1

  0
INSERT
  5
AA
  8
0
  2
050CROSS
 10
5.625
 20
4.59375
 30
0.0
  0
ENDBLK
  5
AB
  8
0
  0
BLOCK
  8
0
  2
025NPTFT
 70
     0
 10
0.0
 20
0.0
 30
0.0
  3
025NPTFT
  1

  0
INSERT
  5
B6
  8
DAMAN
  2
250NPTFT
 10
0.0
 20
0.0
 30
0.0
  0
ENDBLK
  5
B7
  8
0
  0
BLOCK
  8
0
  2
050CROSS
 70
     0
 10
5.0
 20
5.0
 30
0.0
  3
050CROSS
  1

  0
LINE
  5
AD
  8
0
 10
5.0
 20
5.28125
 30
0.0
 11
5.0
 21
5.78125
 31
0.0
  0
LINE
  5
AE
  8
0
 10
5.0
 20
4.875
 30
0.0
 11
5.0
 21
5.125
 31
0.0
  0
LINE
  5
AF
  8
0
 10
5.0
 20
4.15625
 30
0.0
 11
5.0
 21
4.71875
 31
0.0
  0
LINE
  5
B0
  8
0
 10
5.25
 20
5.0
 30
0.0
 11
5.8125
 21
5.0
 31
0.0
  0
LINE
  5
B1
  8
0
 10
4.90625
 20
5.0
 30
0.0
 11
5.09375
 21
5.0
 31
0.0
  0
LINE
  5
B2
  8
0
 10
4.1875
 20
5.0
 30
0.0
 11
4.75
 21
5.0
 31
0.0
  0
ENDBLK
  5
B3
  8
0
  0
BLOCK
  8
0
  2
250NPTFT
 70
     0
 10
0.0
 20
0.0
 30
0.0
  3
250NPTFT
  1

  0
CIRCLE
  5
DC
  8
DAMAN
 10
0.0
 20
0.0
 30
0.0
 40
0.273
  0
CIRCLE
  5
DD
  8
DAMAN
 10
0.0
 20
0.0
 30
0.0
 40
0.211
  0
INSERT
  5
DE
  8
DAMAN
  2
100CROSS
 10
0.0
 20
0.0
 30
0.0
 41
0.4220000000000001
 42
0.4220000000000001
  0
CIRCLE
  5
DF
  8
DAMAN
 10
0.0
 20
0.0
 30
0.0
 40
0.242251
  0
POINT
  5
E0
  8
CHIDDEN
 10
-0.087928
 20
0.191806
 30
0.0
  0
POINT
  5
E1
  8
CHIDDEN
 10
-0.137717
 20
-0.15986
 30
0.0
  0
POINT
  5
E2
  8
CHIDDEN
 10
0.202707
 20
-0.058572
 30
0.0
  0
ENDBLK
  5
E3
  8
0
  0
BLOCK
  8
0
  2
375SHCST
 70
     0
 10
0.0
 20
0.0
 30
0.0
  3
375SHCST
  1

  0
CIRCLE
  5
BA
  8
DAMAN
 10
0.0
 20
0.0
 30
0.0
 40
0.281
  0
CIRCLE
  5
BB
  8
DAMAN
 10
0.0
 20
0.0
 30
0.0
 40
0.25
  0
CIRCLE
  5
BC
  8
DAMAN
 10
0.0
 20
0.0
 30
0.0
 40
0.18
  0
POLYLINE
  5
BD
  8
DAMAN
 66
     1
 10
0.0
 20
0.0
 30
0.0
 70
     1
  0
VERTEX
  5
189
  8
DAMAN
 10
-0.09
 20
0.155885
 30
0.0
  0
VERTEX
  5
18A
  8
DAMAN
 10
-0.18
 20
0.0
 30
0.0
  0
VERTEX
  5
18B
  8
DAMAN
 10
-0.09
 20
-0.155885
 30
0.0
  0
VERTEX
  5
18C
  8
DAMAN
 10
0.09
 20
-0.155885
 30
0.0
  0
VERTEX
  5
18D
  8
DAMAN
 10
0.18
 20
0.0
 30
0.0
  0
VERTEX
  5
18E
  8
DAMAN
 10
0.09
 20
0.155885
 30
0.0
  0
SEQEND
  5
18F
  8
DAMAN
  0
ENDBLK
  5
C5
  8
0
  0
BLOCK
  8
0
  2
012NPTFT
 70
     0
 10
0.0
 20
0.0
 30
0.0
  3
012NPTFT
  1

  0
CIRCLE
  5
C8
  8
DAMAN
  6
HIDDEN
 10
0.0
 20
0.0
 30
0.0
 40
0.1875
  0
CIRCLE
  5
C9
  8
DAMAN
 10
0.0
 20
0.0
 30
0.0
 40
0.2105
  0
CIRCLE
  5
CA
  8
DAMAN
 10
0.0
 20
0.0
 30
0.0
 40
0.1695
  0
INSERT
  5
CB
  8
DAMAN
  2
100CROSS
 10
0.0
 20
0.0
 30
0.0
 41
0.43
 42
0.43
  0
ENDBLK
  5
CC
  8
0
  0
BLOCK
  8
0
  2
250SHCST
 70
     0
 10
0.0
 20
0.0
 30
0.0
  3
250SHCST
  1

  0
CIRCLE
  5
CF
  8
DAMAN
 10
0.0
 20
0.0
 30
0.0
 40
0.1875
  0
CIRCLE
  5
D0
  8
DAMAN
 10
0.0
 20
0.0
 30
0.0
 40
0.156
  0
CIRCLE
  5
D1
  8
DAMAN
 10
0.0
 20
0.0
 30
0.0
 40
0.1085
  0
POLYLINE
  5
D2
  8
DAMAN
 66
     1
 10
0.0
 20
0.0
 30
0.0
 70
     1
  0
VERTEX
  5
190
  8
DAMAN
 10
-0.054
 20
0.093531
 30
0.0
  0
VERTEX
  5
191
  8
DAMAN
 10
-0.108
 20
0.0
 30
0.0
  0
VERTEX
  5
192
  8
DAMAN
 10
-0.054
 20
-0.093531
 30
0.0
  0
VERTEX
  5
193
  8
DAMAN
 10
0.054
 20
-0.093531
 30
0.0
  0
VERTEX
  5
194
  8
DAMAN
 10
0.108
 20
0.0
 30
0.0
  0
VERTEX
  5
195
  8
DAMAN
 10
0.054
 20
0.093531
 30
0.0
  0
SEQEND
  5
196
  8
DAMAN
  0
ENDBLK
  5
DA
  8
0
  0
BLOCK
  8
0
  2
250SHCS
 70
     0
 10
0.0
 20
0.0
 30
0.0
  3
250SHCS
  1

  0
LINE
  5
E6
  8
DAMAN
 10
-0.1875
 20
0.0
 30
0.0
 11
-0.1875
 21
0.21875
 31
0.0
  0
LINE
  5
E7
  8
DAMAN
 10
-0.15625
 20
0.25
 30
0.0
 11
0.15625
 21
0.25
 31
0.0
  0
LINE
  5
E8
  8
DAMAN
 10
0.1875
 20
0.21875
 30
0.0
 11
0.1875
 21
0.0
 31
0.0
  0
LINE
  5
E9
  8
DAMAN
 10
-0.1875
 20
0.21875
 30
0.0
 11
0.1875
 21
0.21875
 31
0.0
  0
LINE
  5
EA
  8
DAMAN
 10
0.1875
 20
0.0
 30
0.0
 11
-0.1875
 21
0.0
 31
0.0
  0
LINE
  5
EB
  8
DAMAN
 10
0.15625
 20
0.25
 30
0.0
 11
0.1875
 21
0.21875
 31
0.0
  0
LINE
  5
EC
  8
DAMAN
 10
-0.15625
 20
0.25
 30
0.0
 11
-0.1875
 21
0.21875
 31
0.0
  0
ENDBLK
  5
ED
  8
0
  0
BLOCK
  8
0
  2
375SHCS
 70
     0
 10
0.0
 20
0.0
 30
0.0
  3
375SHCS
  1

  0
LINE
  5
F0
  8
DAMAN
 10
-0.28125
 20
0.0
 30
0.0
 11
-0.28125
 21
0.328125
 31
0.0
  0
LINE
  5
F1
  8
DAMAN
 10
-0.234375
 20
0.375
 30
0.0
 11
0.234375
 21
0.375
 31
0.0
  0
LINE
  5
F2
  8
DAMAN
 10
0.28125
 20
0.328125
 30
0.0
 11
0.28125
 21
0.0
 31
0.0
  0
LINE
  5
F3
  8
DAMAN
 10
-0.28125
 20
0.328125
 30
0.0
 11
0.28125
 21
0.328125
 31
0.0
  0
LINE
  5
F4
  8
DAMAN
 10
0.28125
 20
0.0
 30
0.0
 11
-0.28125
 21
0.0
 31
0.0
  0
LINE
  5
F5
  8
DAMAN
 10
0.234375
 20
0.375
 30
0.0
 11
0.28125
 21
0.328125
 31
0.0
  0
LINE
  5
F6
  8
DAMAN
 10
-0.234375
 20
0.375
 30
0.0
 11
-0.28125
 21
0.328125
 31
0.0
  0
ENDBLK
  5
F7
  8
0
  0
ENDSEC
  0
SECTION
  2
ENTITIES
  0
POLYLINE
  5
F8
  8
DAMAN
 66
     1
 10
0.0
 20
0.0
 30
0.0
 70
     1
  0
VERTEX
  5
197
  8
DAMAN
 10
6.96875
 20
1.25
 30
0.0
  0
VERTEX
  5
198
  8
DAMAN
 10
6.96875
 20
4.375
 30
0.0
  0
VERTEX
  5
199
  8
DAMAN
 10
7.96875
 20
4.375
 30
0.0
  0
VERTEX
  5
19A
  8
DAMAN
 10
7.96875
 20
1.25
 30
0.0
  0
SEQEND
  5
19B
  8
DAMAN
  0
POLYLINE
  5
FE
  8
DAMAN
 66
     1
 10
0.0
 20
0.0
 30
0.0
 70
     1
  0
VERTEX
  5
19C
  8
DAMAN
 10
5.28125
 20
4.375
 30
0.0
  0
VERTEX
  5
19D
  8
DAMAN
 10
1.28125
 20
4.375
 30
0.0
  0
VERTEX
  5
19E
  8
DAMAN
 10
1.28125
 20
1.25
 30
0.0
  0
VERTEX
  5
19F
  8
DAMAN
 10
5.28125
 20
1.25
 30
0.0
  0
SEQEND
  5
1A0
  8
DAMAN
  0
INSERT
  5
104
  8
DAMAN
  2
100CROSS
 10
4.84375
 20
1.625
 30
0.0
 41
0.375
 42
0.375
  0
INSERT
  5
105
  8
DAMAN
  2
100CROSS
 10
1.71875
 20
1.625
 30
0.0
 41
0.375
 42
0.375
  0
INSERT
  5
108
  8
DAMAN
  2
100CROSS
 10
1.71875
 20
4.0
 30
0.0
 41
0.375
 42
0.375
  0
INSERT
  5
109
  8
DAMAN
  2
100CROSS
 10
4.84375
 20
4.0
 30
0.0
 41
0.375
 42
0.375
  0
POLYLINE
  5
10A
  8
DAMAN
 66
     1
 10
0.0
 20
0.0
 30
0.0
 70
     1
  0
VERTEX
  5
1A1
  8
DAMAN
 10
-0.40625
 20
1.25
 30
0.0
  0
VERTEX
  5
1A2
  8
DAMAN
 10
-0.40625
 20
4.375
 30
0.0
  0
VERTEX
  5
1A3
  8
DAMAN
 10
-1.40625
 20
4.375
 30
0.0
  0
VERTEX
  5
1A4
  8
DAMAN
 10
-1.40625
 20
1.25
 30
0.0
  0
SEQEND
  5
1A5
  8
DAMAN
  0
INSERT
  5
110
  8
DAMAN
  2
375SHCST
 10
1.71875
 20
4.0
 30
0.0
  0
INSERT
  5
111
  8
DAMAN
  2
375SHCST
 10
1.71875
 20
1.625
 30
0.0
  0
INSERT
  5
112
  8
DAMAN
  2
375SHCST
 10
4.84375
 20
1.625
 30
0.0
  0
INSERT
  5
113
  8
DAMAN
  2
375SHCST
 10
4.84375
 20
4.0
 30
0.0
  0
LINE
  5
118
  8
DAMAN
 10
1.28125
 20
-0.75
 30
0.0
 11
5.28125
 21
-0.75
 31
0.0
  0
LINE
  5
119
  8
DAMAN
 10
5.28125
 20
-0.75
 30
0.0
 11
5.28125
 21
0.25
 31
0.0
  0
LINE
  5
11A
  8
DAMAN
 10
5.28125
 20
0.25
 30
0.0
 11
1.28125
 21
0.25
 31
0.0
  0
LINE
  5
11B
  8
DAMAN
 10
1.28125
 20
0.25
 30
0.0
 11
1.28125
 21
-0.75
 31
0.0
  0
LINE
  5
11C
  8
DAMAN
 10
5.28125
 20
5.375
 30
0.0
 11
1.28125
 21
5.375
 31
0.0
  0
LINE
  5
11D
  8
DAMAN
 10
1.28125
 20
6.375
 30
0.0
 11
5.28125
 21
6.375
 31
0.0
  0
LINE
  5
11E
  8
DAMAN
 10
1.28125
 20
5.375
 30
0.0
 11
1.28125
 21
6.375
 31
0.0
  0
LINE
  5
11F
  8
DAMAN
 10
5.28125
 20
6.375
 30
0.0
 11
5.28125
 21
5.375
 31
0.0
  0
TEXT
  5
120
  8
DAMAN
 10
2.1545433076931659
 20
-0.1982808398105398
 30
0.0
 40
0.188
  1
DAMAN ****
  0
INSERT
  5
123
  8
DAMAN
  2
375SHCS
 10
-0.40625
 20
4.0
 30
0.0
 50
270.0
  0
INSERT
  5
124
  8
DAMAN
  2
375SHCS
 10
6.96875
 20
3.9772910000000001
 30
0.0
 50
90.0
  0
INSERT
  5
125
  8
DAMAN
  2
375SHCS
 10
1.7182109999999999
 20
5.3645399999999972
 30
0.0
 50
180.0
  0
INSERT
  5
126
  8
DAMAN
  2
375SHCS
 10
-0.40625
 20
1.625
 30
0.0
 50
270.0
  0
INSERT
  5
127
  8
DAMAN
  2
375SHCS
 10
6.96875
 20
1.625
 30
0.0
 50
90.0
  0
INSERT
  5
128
  8
DAMAN
  2
375SHCS
 10
1.7182109999999999
 20
0.25
 30
0.0
  0
INSERT
  5
129
  8
DAMAN
  2
375SHCS
 10
4.84375
 20
0.25
 30
0.0
  0
INSERT
  5
12A
  8
DAMAN
  2
375SHCS
 10
4.84375
 20
5.3645399999999972
 30
0.0
 50
180.0
  0
ENDSEC
  0
EOF
