  0
SECTION
  2
HEADER
  9
$ACADVER
  1
AC1009
  9
$INSBASE
 10
0.0
 20
0.0
 30
0.0
  9
$EXTMIN
 10
4.5
 20
6.424688
 30
0.0
  9
$EXTMAX
 10
15.25
 20
16.71875
 30
0.0
  9
$LIMMIN
 10
0.0
 20
0.0
  9
$LIMMAX
 10
12.0
 20
9.0
  9
$ORTHOMODE
 70
     1
  9
$REGENMODE
 70
     1
  9
$FILLMODE
 70
     1
  9
$QTEXTMODE
 70
     0
  9
$MIRRTEXT
 70
     1
  9
$DRAGMODE
 70
     2
  9
$LTSCALE
 40
1.0
  9
$OSMODE
 70
     0
  9
$ATTMODE
 70
     1
  9
$TEXTSIZE
 40
0.125
  9
$TRACEWID
 40
0.05
  9
$TEXTSTYLE
  7
STANDARD
  9
$CLAYER
  8
DAMAN
  9
$CELTYPE
  6
BYLAYER
  9
$CECOLOR
 62
   256
  9
$DIMSCALE
 40
1.0
  9
$DIMASZ
 40
0.18
  9
$DIMEXO
 40
0.0625
  9
$DIMDLI
 40
0.38
  9
$DIMRND
 40
0.0
  9
$DIMDLE
 40
0.0
  9
$DIMEXE
 40
0.18
  9
$DIMTP
 40
0.0
  9
$DIMTM
 40
0.0
  9
$DIMTXT
 40
0.18
  9
$DIMCEN
 40
0.09
  9
$DIMTSZ
 40
0.0
  9
$DIMTOL
 70
     0
  9
$DIMLIM
 70
     0
  9
$DIMTIH
 70
     1
  9
$DIMTOH
 70
     1
  9
$DIMSE1
 70
     0
  9
$DIMSE2
 70
     0
  9
$DIMTAD
 70
     0
  9
$DIMZIN
 70
     0
  9
$DIMBLK
  1

  9
$DIMASO
 70
     1
  9
$DIMSHO
 70
     1
  9
$DIMPOST
  1

  9
$DIMAPOST
  1

  9
$DIMALT
 70
     0
  9
$DIMALTD
 70
     2
  9
$DIMALTF
 40
25.4
  9
$DIMLFAC
 40
1.0
  9
$DIMTOFL
 70
     0
  9
$DIMTVP
 40
0.0
  9
$DIMTIX
 70
     0
  9
$DIMSOXD
 70
     0
  9
$DIMSAH
 70
     0
  9
$DIMBLK1
  1

  9
$DIMBLK2
  1

  9
$DIMSTYLE
  2
*UNNAMED
  9
$DIMCLRD
 70
     0
  9
$DIMCLRE
 70
     0
  9
$DIMCLRT
 70
     0
  9
$DIMTFAC
 40
1.0
  9
$DIMGAP
 40
0.09
  9
$LUNITS
 70
     2
  9
$LUPREC
 70
     4
  9
$SKETCHINC
 40
0.1
  9
$FILLETRAD
 40
0.0
  9
$AUNITS
 70
     0
  9
$AUPREC
 70
     0
  9
$MENU
  1
tom
  9
$ELEVATION
 40
0.0
  9
$PELEVATION
 40
0.0
  9
$THICKNESS
 40
0.0
  9
$LIMCHECK
 70
     0
  9
$BLIPMODE
 70
     1
  9
$CHAMFERA
 40
0.0
  9
$CHAMFERB
 40
0.0
  9
$SKPOLY
 70
     0
  9
$TDCREATE
 40
2449755.210486724
  9
$TDUPDATE
 40
2449755.210486724
  9
$TDINDWG
 40
0.0000000000
  9
$TDUSRTIMER
 40
0.0000000000
  9
$USRTIMER
 70
     1
  9
$ANGBASE
 50
0.0
  9
$ANGDIR
 70
     0
  9
$PDMODE
 70
     0
  9
$PDSIZE
 40
0.0
  9
$PLINEWID
 40
0.0
  9
$COORDS
 70
     1
  9
$SPLFRAME
 70
     0
  9
$SPLINETYPE
 70
     6
  9
$SPLINESEGS
 70
     8
  9
$ATTDIA
 70
     0
  9
$ATTREQ
 70
     1
  9
$HANDLING
 70
     0
  9
$HANDSEED
  5
0
  9
$SURFTAB1
 70
     6
  9
$SURFTAB2
 70
     6
  9
$SURFTYPE
 70
     6
  9
$SURFU
 70
     6
  9
$SURFV
 70
     6
  9
$UCSNAME
  2

  9
$UCSORG
 10
0.0
 20
0.0
 30
0.0
  9
$UCSXDIR
 10
1.0
 20
0.0
 30
0.0
  9
$UCSYDIR
 10
0.0
 20
1.0
 30
0.0
  9
$PUCSNAME
  2

  9
$PUCSORG
 10
0.0
 20
0.0
 30
0.0
  9
$PUCSXDIR
 10
1.0
 20
0.0
 30
0.0
  9
$PUCSYDIR
 10
0.0
 20
1.0
 30
0.0
  9
$USERI1
 70
     0
  9
$USERI2
 70
     0
  9
$USERI3
 70
     0
  9
$USERI4
 70
     0
  9
$USERI5
 70
     0
  9
$USERR1
 40
0.0
  9
$USERR2
 40
0.0
  9
$USERR3
 40
0.0
  9
$USERR4
 40
0.0
  9
$USERR5
 40
0.0
  9
$WORLDVIEW
 70
     1
  9
$SHADEDGE
 70
     3
  9
$SHADEDIF
 70
    70
  9
$TILEMODE
 70
     1
  9
$MAXACTVP
 70
    16
  9
$PINSBASE
 10
0.0
 20
0.0
 30
0.0
  9
$PLIMCHECK
 70
     0
  9
$PEXTMIN
 10
1.000000E+20
 20
1.000000E+20
 30
1.000000E+20
  9
$PEXTMAX
 10
-1.000000E+20
 20
-1.000000E+20
 30
-1.000000E+20
  9
$PLIMMIN
 10
0.0
 20
0.0
  9
$PLIMMAX
 10
12.0
 20
9.0
  9
$UNITMODE
 70
     0
  9
$VISRETAIN
 70
     0
  9
$PLINEGEN
 70
     0
  9
$PSLTSCALE
 70
     1
  9
$TREEDEPTH
 70
  3020
  9
$DWGCODEPAGE
  3
ascii
  0
ENDSEC
  0
SECTION
  2
TABLES
  0
TABLE
  2
VPORT
 70
     2
  0
VPORT
  2
*ACTIVE
 70
     0
 10
0.0
 20
0.0
 11
1.0
 21
1.0
 12
9.8125
 22
11.875
 13
0.0
 23
0.0
 14
0.03125
 24
0.03125
 15
0.0
 25
0.0
 16
0.0
 26
0.0
 36
1.0
 17
0.0
 27
0.0
 37
0.0
 40
15.377159
 41
1.365662
 42
50.0
 43
0.0
 44
0.0
 50
0.0
 51
0.0
 71
     0
 72
   100
 73
     1
 74
     1
 75
     1
 76
     0
 77
     0
 78
     0
  0
ENDTAB
  0
TABLE
  2
LTYPE
 70
     4
  0
LTYPE
  2
CONTINUOUS
 70
    64
  3
Solid line
 72
    65
 73
     0
 40
0.0
  0
LTYPE
  2
HIDDEN
 70
    64
  3
_ _ _ _ _ _ _ _ _ _ _ _ _ _ _ _ _ _ _ _ _ _ _
 72
    65
 73
     2
 40
0.375
 49
0.25
 49
-0.125
  0
LTYPE
  2
CENTER
 70
    64
  3
____ _ ____ _ ____ _ ____ _ ____ _ ____ _ ____
 72
    65
 73
     4
 40
2.0
 49
1.25
 49
-0.25
 49
0.25
 49
-0.25
  0
LTYPE
  2
PHANTOM
 70
    64
  3
_____ _ _ _____ _ _ _____ _ _ _____ _ _ ____
 72
    65
 73
     6
 40
2.5
 49
1.25
 49
-0.25
 49
0.25
 49
-0.25
 49
0.25
 49
-0.25
  0
ENDTAB
  0
TABLE
  2
LAYER
 70
     9
  0
LAYER
  2
0
 70
     0
 62
     7
  6
CONTINUOUS
  0
LAYER
  2
DAMAN
 70
     0
 62
     5
  6
CONTINUOUS
  0
LAYER
  2
BORDER
 70
    64
 62
     7
  6
CONTINUOUS
  0
LAYER
  2
CSOLID
 70
    64
 62
     3
  6
CONTINUOUS
  0
LAYER
  2
SOLID
 70
    64
 62
     4
  6
CONTINUOUS
  0
LAYER
  2
CDIM
 70
    64
 62
     2
  6
CONTINUOUS
  0
LAYER
  2
CCENTER
 70
    64
 62
     4
  6
CENTER
  0
LAYER
  2
CHIDDEN
 70
    64
 62
     3
  6
HIDDEN
  0
LAYER
  2
PHANTOM
 70
     0
 62
     1
  6
PHANTOM
  0
ENDTAB
  0
TABLE
  2
STYLE
 70
     2
  0
STYLE
  2
STANDARD
 70
    64
 40
0.0
 41
1.0
 50
0.0
 71
     0
 42
0.125
  3
txt
  4

  0
STYLE
  2
STR
 70
    64
 40
0.0
 41
1.0
 50
0.0
 71
     0
 42
0.25
  3
SIMPLEX
  4

  0
ENDTAB
  0
TABLE
  2
VIEW
 70
     0
  0
ENDTAB
  0
TABLE
  2
UCS
 70
     0
  0
ENDTAB
  0
TABLE
  2
APPID
 70
     1
  0
APPID
  2
ACAD
 70
    64
  0
ENDTAB
  0
TABLE
  2
DIMSTYLE
 70
     0
  0
ENDTAB
  0
ENDSEC
  0
SECTION
  2
BLOCKS
  0
BLOCK
  8
0
  2
P06D05H
 70
    64
 10
0.0
 20
0.0
 30
0.0
  3
P06D05H
  0
CIRCLE
  8
CSOLID
 10
9.53125
 20
9.375
 30
0.0
 40
0.1405
  0
CIRCLE
  8
CSOLID
 10
9.53125
 20
11.5
 30
0.0
 40
0.1405
  0
CIRCLE
  8
CSOLID
 10
7.71875
 20
9.375
 30
0.0
 40
0.1405
  0
CIRCLE
  8
CSOLID
 10
7.71875
 20
11.5
 30
0.0
 40
0.1405
  0
INSERT
  8
CCENTER
  2
100CROSS
 10
7.71875
 20
9.375
 30
0.0
 41
0.406
 42
0.406
 43
0.0
  0
CIRCLE
  8
CSOLID
 10
7.71875
 20
9.375
 30
0.0
 40
0.203
  0
CIRCLE
  8
CSOLID
 10
7.71875
 20
11.5
 30
0.0
 40
0.203
  0
INSERT
  8
CCENTER
  2
100CROSS
 10
7.71875
 20
11.5
 30
0.0
 41
0.406
 42
0.406
 43
0.0
  0
CIRCLE
  8
CSOLID
 10
9.53125
 20
9.375
 30
0.0
 40
0.203
  0
INSERT
  8
CCENTER
  2
100CROSS
 10
9.53125
 20
9.375
 30
0.0
 41
0.406
 42
0.406
 43
0.0
  0
CIRCLE
  8
CSOLID
 10
9.53125
 20
11.5
 30
0.0
 40
0.203
  0
INSERT
  8
CCENTER
  2
100CROSS
 10
9.53125
 20
11.5
 30
0.0
 41
0.406
 42
0.406
 43
0.0
  0
INSERT
  8
CCENTER
  2
100CROSS
 10
7.875
 20
10.0625
 30
0.0
 41
0.281
 42
0.281
 43
0.0
  0
CIRCLE
  8
CSOLID
 10
7.875
 20
10.0625
 30
0.0
 40
0.1405
  0
CIRCLE
  8
CSOLID
 10
9.9375
 20
11.3125
 30
0.0
 40
0.1405
  0
INSERT
  8
CCENTER
  2
100CROSS
 10
9.9375
 20
11.3125
 30
0.0
 41
0.281
 42
0.281
 43
0.0
  0
CIRCLE
  8
CSOLID
 10
8.625
 20
11.46875
 30
0.0
 40
0.281
  0
INSERT
  8
CCENTER
  2
100CROSS
 10
8.625
 20
11.46875
 30
0.0
 41
0.56
 42
0.56
 43
0.0
  0
INSERT
  8
CCENTER
  2
100CROSS
 10
8.625
 20
10.34375
 30
0.0
 41
0.56
 42
0.56
 43
0.0
  0
CIRCLE
  8
CSOLID
 10
8.625
 20
10.34375
 30
0.0
 40
0.281
  0
CIRCLE
  8
CSOLID
 10
7.625
 20
10.90625
 30
0.0
 40
0.094
  0
INSERT
  8
CCENTER
  2
100CROSS
 10
7.625
 20
10.90625
 30
0.0
 41
0.188
 42
0.188
 43
0.0
  0
INSERT
  8
CCENTER
  2
100CROSS
 10
9.9375
 20
11.75
 30
0.0
 41
0.375
 42
0.375
 43
0.0
  0
CIRCLE
  8
CSOLID
 10
9.9375
 20
11.75
 30
0.0
 40
0.156
  0
ARC
  8
CSOLID
 10
9.9375
 20
11.75
 30
0.0
 40
0.1875
 50
0.0
 51
270.0
  0
INSERT
  8
CCENTER
  2
100CROSS
 10
9.9375
 20
10.0625
 30
0.0
 41
0.375
 42
0.375
 43
0.0
  0
CIRCLE
  8
CSOLID
 10
9.9375
 20
10.0625
 30
0.0
 40
0.156
  0
ARC
  8
CSOLID
 10
9.9375
 20
10.0625
 30
0.0
 40
0.1875
 50
0.0
 51
270.0
  0
INSERT
  8
CCENTER
  2
100CROSS
 10
7.3125
 20
11.75
 30
0.0
 41
0.375
 42
0.375
 43
0.0
  0
CIRCLE
  8
CSOLID
 10
7.3125
 20
11.75
 30
0.0
 40
0.156
  0
ARC
  8
CSOLID
 10
7.3125
 20
11.75
 30
0.0
 40
0.1875
 50
0.0
 51
270.0
  0
ARC
  8
CSOLID
 10
7.3125
 20
10.0625
 30
0.0
 40
0.1875
 50
0.0
 51
270.0
  0
CIRCLE
  8
CSOLID
 10
7.3125
 20
10.0625
 30
0.0
 40
0.156
  0
INSERT
  8
CCENTER
  2
100CROSS
 10
7.3125
 20
10.0625
 30
0.0
 41
0.375
 42
0.375
 43
0.0
  0
INSERT
  8
SOLID
  2
025NPTFT
 10
8.21875
 20
5.09375
 30
0.0
 43
0.0
  0
CIRCLE
  8
CSOLID
 10
17.65625
 20
9.0625
 30
0.0
 40
0.21875
  0
INSERT
  8
CCENTER
  2
100CROSS
 10
17.65625
 20
11.8125
 30
0.0
 41
0.625
 42
0.625
 43
0.0
  0
CIRCLE
  8
CSOLID
 10
17.65625
 20
11.8125
 30
0.0
 40
0.219
  0
CIRCLE
  8
CSOLID
 10
17.65625
 20
11.8125
 30
0.0
 40
0.3125
  0
CIRCLE
  8
CSOLID
 10
18.9375
 20
11.9375
 30
0.0
 40
0.1875
  0
INSERT
  8
CCENTER
  2
100CROSS
 10
18.9375
 20
11.9375
 30
0.0
 41
0.35
 42
0.35
 43
0.0
  0
CIRCLE
  8
CSOLID
 10
18.50025
 20
9.5
 30
0.0
 40
0.21875
  0
INSERT
  8
CCENTER
  2
100CROSS
 10
18.50025
 20
9.5
 30
0.0
 41
-0.438
 42
0.438
 43
0.0
  0
CIRCLE
  8
CSOLID
 10
18.5
 20
9.5
 30
0.0
 40
0.3125
  0
CIRCLE
  8
CSOLID
 10
18.0625
 20
10.03125
 30
0.0
 40
0.3125
  0
CIRCLE
  8
CSOLID
 10
17.46875
 20
10.4375
 30
0.0
 40
0.3125
  0
CIRCLE
  8
CSOLID
 10
18.0625
 20
10.84375
 30
0.0
 40
0.3125
  0
CIRCLE
  8
CSOLID
 10
18.5
 20
11.375
 30
0.0
 40
0.3125
  0
CIRCLE
  8
CSOLID
 10
17.21875
 20
9.375
 30
0.0
 40
0.1405
  0
CIRCLE
  8
CSOLID
 10
17.21875
 20
11.5
 30
0.0
 40
0.1405
  0
CIRCLE
  8
CSOLID
 10
19.03125
 20
9.375
 30
0.0
 40
0.1405
  0
CIRCLE
  8
CSOLID
 10
19.03125
 20
11.5
 30
0.0
 40
0.1405
  0
INSERT
  8
CCENTER
  2
100CROSS
 10
19.03125
 20
11.5
 30
0.0
 41
-0.25
 42
0.25
 43
0.0
  0
INSERT
  8
CCENTER
  2
100CROSS
 10
19.03125
 20
9.375
 30
0.0
 41
-0.25
 42
0.25
 43
0.0
  0
INSERT
  8
CCENTER
  2
100CROSS
 10
17.21875
 20
11.5
 30
0.0
 41
-0.25
 42
0.25
 43
0.0
  0
INSERT
  8
CCENTER
  2
100CROSS
 10
17.21875
 20
9.375
 30
0.0
 41
-0.25
 42
0.25
 43
0.0
  0
INSERT
  8
CCENTER
  2
100CROSS
 10
18.50025
 20
11.375
 30
0.0
 41
-0.438
 42
0.438
 43
0.0
  0
CIRCLE
  8
CSOLID
 10
18.50025
 20
11.375
 30
0.0
 40
0.21875
  0
CIRCLE
  8
CSOLID
 10
18.06275
 20
10.844
 30
0.0
 40
0.21875
  0
INSERT
  8
CCENTER
  2
100CROSS
 10
18.06275
 20
10.844
 30
0.0
 41
-0.438
 42
0.438
 43
0.0
  0
INSERT
  8
CCENTER
  2
100CROSS
 10
18.06275
 20
10.0315
 30
0.0
 41
-0.438
 42
0.438
 43
0.0
  0
CIRCLE
  8
CSOLID
 10
18.06275
 20
10.0315
 30
0.0
 40
0.21875
  0
CIRCLE
  8
CSOLID
 10
17.46875
 20
10.43775
 30
0.0
 40
0.21875
  0
INSERT
  8
CCENTER
  2
100CROSS
 10
17.46875
 20
10.43775
 30
0.0
 41
-0.438
 42
0.438
 43
0.0
  0
INSERT
  8
CCENTER
  2
100CROSS
 10
17.65625
 20
9.0625
 30
0.0
 41
0.562
 42
0.562
 43
0.0
  0
INSERT
  8
CCENTER
  2
100CROSS
 10
17.3125
 20
8.9375
 30
0.0
 41
0.375
 42
0.375
 43
0.0
  0
LINE
  8
CSOLID
 10
17.3125
 20
8.75
 30
0.0
 11
17.65625
 21
8.75
 31
0.0
  0
ARC
  8
CSOLID
 10
17.65625
 20
9.0625
 30
0.0
 40
0.3125
 50
270.0
 51
127.0
  0
ARC
  8
CSOLID
 10
17.3125
 20
8.9375
 30
0.0
 40
0.1875
 50
127.0
 51
270.0
  0
LINE
  8
CSOLID
 10
17.19966
 20
9.087244
 30
0.0
 11
17.46875
 21
9.3125
 31
0.0
  0
TEXT
  8
CDIM
 10
8.53125
 20
5.4375
 30
0.0
 40
0.25
  1
Y
  7
STR
  0
POLYLINE
  8
BORDER
 66
     1
 10
0.0
 20
0.0
 30
0.0
 70
     1
  0
VERTEX
  8
BORDER
 10
7.0
 20
12.5
 30
0.0
  0
VERTEX
  8
BORDER
 10
10.25
 20
12.5
 30
0.0
  0
VERTEX
  8
BORDER
 10
10.25
 20
8.5
 30
0.0
  0
VERTEX
  8
BORDER
 10
7.0
 20
8.5
 30
0.0
  0
SEQEND
  8
BORDER
  0
POLYLINE
  8
BORDER
 66
     1
 10
0.0
 20
0.0
 30
0.0
 70
     1
  0
VERTEX
  8
BORDER
 10
12.5
 20
12.5
 30
0.0
  0
VERTEX
  8
BORDER
 10
14.0
 20
12.5
 30
0.0
  0
VERTEX
  8
BORDER
 10
14.0
 20
8.5
 30
0.0
  0
VERTEX
  8
BORDER
 10
12.5
 20
8.5
 30
0.0
  0
SEQEND
  8
BORDER
  0
POLYLINE
  8
BORDER
 66
     1
 10
0.0
 20
0.0
 30
0.0
 70
     1
  0
VERTEX
  8
BORDER
 10
7.0
 20
6.0
 30
0.0
  0
VERTEX
  8
BORDER
 10
10.25
 20
6.0
 30
0.0
  0
VERTEX
  8
BORDER
 10
10.25
 20
4.5
 30
0.0
  0
VERTEX
  8
BORDER
 10
7.0
 20
4.5
 30
0.0
  0
SEQEND
  8
BORDER
  0
POLYLINE
  8
BORDER
 66
     1
 10
0.0
 20
0.0
 30
0.0
 70
     1
  0
VERTEX
  8
BORDER
 10
16.5
 20
12.5
 30
0.0
  0
VERTEX
  8
BORDER
 10
19.75
 20
12.5
 30
0.0
  0
VERTEX
  8
BORDER
 10
19.75
 20
8.5
 30
0.0
  0
VERTEX
  8
BORDER
 10
16.5
 20
8.5
 30
0.0
  0
SEQEND
  8
BORDER
  0
LINE
  8
CDIM
 10
19.75
 20
12.602275
 30
0.0
 11
19.75
 21
13.133868
 31
0.0
  0
LINE
  8
CDIM
 10
17.46875
 20
10.696025
 30
0.0
 11
17.46875
 21
13.133868
 31
0.0
  0
LINE
  8
CDIM
 10
19.553632
 20
12.9375
 30
0.0
 11
19.154842
 21
12.9375
 31
0.0
  0
LINE
  8
CDIM
 10
17.665118
 20
12.9375
 30
0.0
 11
18.063908
 21
12.9375
 31
0.0
  0
SOLID
  8
CDIM
 10
19.553632
 20
12.904772
 30
0.0
 11
19.553632
 21
12.970228
 31
0.0
 12
19.75
 22
12.9375
 32
0.0
 13
19.75
 23
12.9375
 33
0.0
  0
SOLID
  8
CDIM
 10
17.665118
 20
12.904772
 30
0.0
 11
17.665118
 21
12.970228
 31
0.0
 12
17.46875
 22
12.9375
 32
0.0
 13
17.46875
 23
12.9375
 33
0.0
  0
TEXT
  8
CDIM
 10
18.260276
 20
12.822952
 30
0.0
 40
0.229096
  1
2.28
  7
STR
  0
LINE
  8
CDIM
 10
19.75
 20
12.602275
 30
0.0
 11
19.75
 21
13.7557
 31
0.0
  0
LINE
  8
CDIM
 10
16.5
 20
12.602275
 30
0.0
 11
16.5
 21
13.7557
 31
0.0
  0
LINE
  8
CDIM
 10
19.553632
 20
13.559332
 30
0.0
 11
18.670467
 21
13.559332
 31
0.0
  0
LINE
  8
CDIM
 10
16.696368
 20
13.559332
 30
0.0
 11
17.579533
 21
13.559332
 31
0.0
  0
SOLID
  8
CDIM
 10
19.553632
 20
13.526604
 30
0.0
 11
19.553632
 21
13.59206
 31
0.0
 12
19.75
 22
13.559332
 32
0.0
 13
19.75
 23
13.559332
 33
0.0
  0
SOLID
  8
CDIM
 10
16.696368
 20
13.526604
 30
0.0
 11
16.696368
 21
13.59206
 31
0.0
 12
16.5
 22
13.559332
 32
0.0
 13
16.5
 23
13.559332
 33
0.0
  0
TEXT
  8
CDIM
 10
17.775901
 20
13.444784
 30
0.0
 40
0.229096
  1
3.25
  7
STR
  0
LINE
  8
CDIM
 10
16.397725
 20
12.5
 30
0.0
 11
15.803632
 21
12.5
 31
0.0
  0
LINE
  8
CDIM
 10
17.210225
 20
10.4375
 30
0.0
 11
15.803632
 21
10.4375
 31
0.0
  0
LINE
  8
CDIM
 10
16.0
 20
12.303632
 30
0.0
 11
16.0
 21
11.779666
 31
0.0
  0
LINE
  8
CDIM
 10
16.0
 20
10.633868
 30
0.0
 11
16.0
 21
11.157834
 31
0.0
  0
SOLID
  8
CDIM
 10
16.032728
 20
12.303632
 30
0.0
 11
15.967272
 21
12.303632
 31
0.0
 12
16.0
 22
12.5
 32
0.0
 13
16.0
 23
12.5
 33
0.0
  0
SOLID
  8
CDIM
 10
16.032728
 20
10.633868
 30
0.0
 11
15.967272
 21
10.633868
 31
0.0
 12
16.0
 22
10.4375
 32
0.0
 13
16.0
 23
10.4375
 33
0.0
  0
TEXT
  8
CDIM
 10
15.656356
 20
11.354202
 30
0.0
 40
0.229096
  1
2.06
  7
STR
  0
LINE
  8
CDIM
 10
16.397725
 20
12.5
 30
0.0
 11
15.1818
 21
12.5
 31
0.0
  0
LINE
  8
CDIM
 10
16.397725
 20
8.5
 30
0.0
 11
15.1818
 21
8.5
 31
0.0
  0
LINE
  8
CDIM
 10
15.378168
 20
12.303632
 30
0.0
 11
15.378168
 21
10.342166
 31
0.0
  0
LINE
  8
CDIM
 10
15.378168
 20
8.696368
 30
0.0
 11
15.378168
 21
9.720334
 31
0.0
  0
SOLID
  8
CDIM
 10
15.410896
 20
12.303632
 30
0.0
 11
15.34544
 21
12.303632
 31
0.0
 12
15.378168
 22
12.5
 32
0.0
 13
15.378168
 23
12.5
 33
0.0
  0
SOLID
  8
CDIM
 10
15.410896
 20
8.696368
 30
0.0
 11
15.34544
 21
8.696368
 31
0.0
 12
15.378168
 22
8.5
 32
0.0
 13
15.378168
 23
8.5
 33
0.0
  0
TEXT
  8
CDIM
 10
15.029069
 20
9.916702
 30
0.0
 40
0.229096
  1
4.00
  7
STR
  0
LINE
  8
CDIM
 10
12.5
 20
12.602275
 30
0.0
 11
12.5
 21
13.133868
 31
0.0
  0
LINE
  8
CDIM
 10
14.0
 20
12.602275
 30
0.0
 11
14.0
 21
13.133868
 31
0.0
  0
LINE
  8
CDIM
 10
12.696368
 20
12.9375
 30
0.0
 11
12.726352
 21
12.9375
 31
0.0
  0
LINE
  8
CDIM
 10
13.803632
 20
12.9375
 30
0.0
 11
13.773648
 21
12.9375
 31
0.0
  0
SOLID
  8
CDIM
 10
12.696368
 20
12.904772
 30
0.0
 11
12.696368
 21
12.970228
 31
0.0
 12
12.5
 22
12.9375
 32
0.0
 13
12.5
 23
12.9375
 33
0.0
  0
SOLID
  8
CDIM
 10
13.803632
 20
12.904772
 30
0.0
 11
13.803632
 21
12.970228
 31
0.0
 12
14.0
 22
12.9375
 32
0.0
 13
14.0
 23
12.9375
 33
0.0
  0
TEXT
  8
CDIM
 10
12.92272
 20
12.822952
 30
0.0
 40
0.229096
  1
1.50
  7
STR
  0
LINE
  8
CDIM
 10
7.0
 20
12.602275
 30
0.0
 11
7.0
 21
13.133868
 31
0.0
  0
LINE
  8
CDIM
 10
8.625
 20
11.758525
 30
0.0
 11
8.625
 21
13.133868
 31
0.0
  0
LINE
  8
CDIM
 10
7.196368
 20
12.9375
 30
0.0
 11
7.288852
 21
12.9375
 31
0.0
  0
LINE
  8
CDIM
 10
8.428632
 20
12.9375
 30
0.0
 11
8.336148
 21
12.9375
 31
0.0
  0
SOLID
  8
CDIM
 10
7.196368
 20
12.904772
 30
0.0
 11
7.196368
 21
12.970228
 31
0.0
 12
7.0
 22
12.9375
 32
0.0
 13
7.0
 23
12.9375
 33
0.0
  0
SOLID
  8
CDIM
 10
8.428632
 20
12.904772
 30
0.0
 11
8.428632
 21
12.970228
 31
0.0
 12
8.625
 22
12.9375
 32
0.0
 13
8.625
 23
12.9375
 33
0.0
  0
TEXT
  8
CDIM
 10
7.48522
 20
12.822952
 30
0.0
 40
0.229096
  1
1.63
  7
STR
  0
LINE
  8
CDIM
 10
10.352275
 20
12.5
 30
0.0
 11
10.946368
 21
12.5
 31
0.0
  0
LINE
  8
CDIM
 10
9.039775
 20
10.34375
 30
0.0
 11
10.946368
 21
10.34375
 31
0.0
  0
LINE
  8
CDIM
 10
10.75
 20
12.303632
 30
0.0
 11
10.75
 21
11.732791
 31
0.0
  0
LINE
  8
CDIM
 10
10.75
 20
10.540118
 30
0.0
 11
10.75
 21
11.110959
 31
0.0
  0
SOLID
  8
CDIM
 10
10.782728
 20
12.303632
 30
0.0
 11
10.717272
 21
12.303632
 31
0.0
 12
10.75
 22
12.5
 32
0.0
 13
10.75
 23
12.5
 33
0.0
  0
SOLID
  8
CDIM
 10
10.782728
 20
10.540118
 30
0.0
 11
10.717272
 21
10.540118
 31
0.0
 12
10.75
 22
10.34375
 32
0.0
 13
10.75
 23
10.34375
 33
0.0
  0
TEXT
  8
CDIM
 10
10.428175
 20
11.307327
 30
0.0
 40
0.229096
  1
2.16
  7
STR
  0
LINE
  8
CDIM
 10
7.0
 20
6.102275
 30
0.0
 11
7.0
 21
6.696368
 31
0.0
  0
LINE
  8
CDIM
 10
8.21875
 20
5.352275
 30
0.0
 11
8.21875
 21
6.696368
 31
0.0
  0
LINE
  8
CDIM
 10
8.415118
 20
6.5
 30
0.0
 11
8.611486
 21
6.5
 31
0.0
  0
LINE
  8
CDIM
 10
6.803632
 20
6.5
 30
0.0
 11
6.607264
 21
6.5
 31
0.0
  0
SOLID
  8
CDIM
 10
8.415118
 20
6.467272
 30
0.0
 11
8.415118
 21
6.532728
 31
0.0
 12
8.21875
 22
6.5
 32
0.0
 13
8.21875
 23
6.5
 33
0.0
  0
SOLID
  8
CDIM
 10
6.803632
 20
6.467272
 30
0.0
 11
6.803632
 21
6.532728
 31
0.0
 12
7.0
 22
6.5
 32
0.0
 13
7.0
 23
6.5
 33
0.0
  0
TEXT
  8
CDIM
 10
7.276604
 20
6.385452
 30
0.0
 40
0.229096
  1
1.22
  7
STR
  0
LINE
  8
CDIM
 10
10.352275
 20
4.5
 30
0.0
 11
10.946368
 21
4.5
 31
0.0
  0
LINE
  8
CDIM
 10
8.508525
 20
5.09375
 30
0.0
 11
10.946368
 21
5.09375
 31
0.0
  0
LINE
  8
CDIM
 10
10.75
 20
5.290118
 30
0.0
 11
10.75
 21
5.486486
 31
0.0
  0
LINE
  8
CDIM
 10
10.75
 20
4.303632
 30
0.0
 11
10.75
 21
4.107264
 31
0.0
  0
SOLID
  8
CDIM
 10
10.782728
 20
5.290118
 30
0.0
 11
10.717272
 21
5.290118
 31
0.0
 12
10.75
 22
5.09375
 32
0.0
 13
10.75
 23
5.09375
 33
0.0
  0
SOLID
  8
CDIM
 10
10.782728
 20
4.303632
 30
0.0
 11
10.717272
 21
4.303632
 31
0.0
 12
10.75
 22
4.5
 32
0.0
 13
10.75
 23
4.5
 33
0.0
  0
TEXT
  8
CDIM
 10
10.423986
 20
4.653188
 30
0.0
 40
0.229096
  1
0.59
  7
STR
  0
ENDBLK
  8
0
  0
BLOCK
  8
CSOLID
  2
100CROSS
 70
    64
 10
5.625
 20
4.59375
 30
0.0
  0
INSERT
  8
0
  2
050CROSS
 10
5.625
 20
4.59375
 30
0.0
 43
0.0
  0
ENDBLK
  8
0
  0
BLOCK
  8
0
  2
050CROSS
 70
    64
 10
5.0
 20
5.0
 30
0.0
  0
LINE
  8
0
 10
5.0
 20
5.28125
 30
0.0
 11
5.0
 21
5.78125
 31
0.0
  0
LINE
  8
0
 10
5.0
 20
4.875
 30
0.0
 11
5.0
 21
5.125
 31
0.0
  0
LINE
  8
0
 10
5.0
 20
4.15625
 30
0.0
 11
5.0
 21
4.71875
 31
0.0
  0
LINE
  8
0
 10
5.25
 20
5.0
 30
0.0
 11
5.8125
 21
5.0
 31
0.0
  0
LINE
  8
0
 10
4.90625
 20
5.0
 30
0.0
 11
5.09375
 21
5.0
 31
0.0
  0
LINE
  8
0
 10
4.1875
 20
5.0
 30
0.0
 11
4.75
 21
5.0
 31
0.0
  0
ENDBLK
  8
0
  0
BLOCK
  8
0
  2
025NPTFT
 70
    64
 10
0.0
 20
0.0
 30
0.0
  3
025NPTFT
  0
INSERT
  8
DAMAN
  2
250NPTFT
 10
0.0
 20
0.0
 30
0.0
  0
ENDBLK
  8
0
  0
BLOCK
  8
0
  2
250NPTFT
 70
    64
 10
0.0
 20
0.0
 30
0.0
  3
250NPTFT
  0
CIRCLE
  8
DAMAN
 10
0.0
 20
0.0
 30
0.0
 40
0.273
  0
CIRCLE
  8
DAMAN
 10
0.0
 20
0.0
 30
0.0
 40
0.211
  0
INSERT
  8
DAMAN
  2
100CROSS
 10
0.0
 20
0.0
 30
0.0
 41
0.422
 42
0.422
 43
0.0
  0
CIRCLE
  8
DAMAN
 10
0.0
 20
0.0
 30
0.0
 40
0.242251
  0
POINT
  8
CHIDDEN
 10
-0.087928
 20
0.191806
 30
0.0
  0
POINT
  8
CHIDDEN
 10
-0.137717
 20
-0.15986
 30
0.0
  0
POINT
  8
CHIDDEN
 10
0.202707
 20
-0.058572
 30
0.0
  0
ENDBLK
  8
0
  0
ENDSEC
  0
SECTION
  2
ENTITIES
  0
CIRCLE
  8
DAMAN
 10
10.78125
 20
10.59375
 30
0.0
 40
0.1405
  0
CIRCLE
  8
DAMAN
 10
10.78125
 20
12.71875
 30
0.0
 40
0.1405
  0
CIRCLE
  8
DAMAN
 10
8.96875
 20
10.59375
 30
0.0
 40
0.1405
  0
CIRCLE
  8
DAMAN
 10
8.96875
 20
12.71875
 30
0.0
 40
0.1405
  0
INSERT
  8
DAMAN
  2
100CROSS
 10
8.96875
 20
10.59375
 30
0.0
 41
0.406
 42
0.406
 43
0.0
  0
CIRCLE
  8
DAMAN
 10
8.96875
 20
10.59375
 30
0.0
 40
0.203
  0
CIRCLE
  8
DAMAN
 10
8.96875
 20
12.71875
 30
0.0
 40
0.203
  0
INSERT
  8
DAMAN
  2
100CROSS
 10
8.96875
 20
12.71875
 30
0.0
 41
0.406
 42
0.406
 43
0.0
  0
CIRCLE
  8
DAMAN
 10
10.78125
 20
10.59375
 30
0.0
 40
0.203
  0
INSERT
  8
DAMAN
  2
100CROSS
 10
10.78125
 20
10.59375
 30
0.0
 41
0.406
 42
0.406
 43
0.0
  0
CIRCLE
  8
DAMAN
 10
10.78125
 20
12.71875
 30
0.0
 40
0.203
  0
INSERT
  8
DAMAN
  2
100CROSS
 10
10.78125
 20
12.71875
 30
0.0
 41
0.406
 42
0.406
 43
0.0
  0
INSERT
  8
DAMAN
  2
100CROSS
 10
9.125
 20
11.28125
 30
0.0
 41
0.281
 42
0.281
 43
0.0
  0
CIRCLE
  8
DAMAN
 10
9.125
 20
11.28125
 30
0.0
 40
0.1405
  0
CIRCLE
  8
DAMAN
 10
11.1875
 20
12.53125
 30
0.0
 40
0.1405
  0
INSERT
  8
DAMAN
  2
100CROSS
 10
11.1875
 20
12.53125
 30
0.0
 41
0.281
 42
0.281
 43
0.0
  0
CIRCLE
  8
DAMAN
 10
9.875
 20
12.6875
 30
0.0
 40
0.281
  0
INSERT
  8
DAMAN
  2
100CROSS
 10
9.875
 20
12.6875
 30
0.0
 41
0.56
 42
0.56
 43
0.0
  0
INSERT
  8
DAMAN
  2
100CROSS
 10
9.875
 20
11.5625
 30
0.0
 41
0.56
 42
0.56
 43
0.0
  0
CIRCLE
  8
DAMAN
 10
9.875
 20
11.5625
 30
0.0
 40
0.281
  0
CIRCLE
  8
DAMAN
 10
8.875
 20
12.125
 30
0.0
 40
0.094
  0
INSERT
  8
DAMAN
  2
100CROSS
 10
8.875
 20
12.125
 30
0.0
 41
0.188
 42
0.188
 43
0.0
  0
INSERT
  8
DAMAN
  2
100CROSS
 10
11.1875
 20
12.96875
 30
0.0
 41
0.375
 42
0.375
 43
0.0
  0
CIRCLE
  8
DAMAN
 10
11.1875
 20
12.96875
 30
0.0
 40
0.156
  0
ARC
  8
DAMAN
 10
11.1875
 20
12.96875
 30
0.0
 40
0.1875
 50
0.0
 51
270.0
  0
INSERT
  8
DAMAN
  2
100CROSS
 10
11.1875
 20
11.28125
 30
0.0
 41
0.375
 42
0.375
 43
0.0
  0
CIRCLE
  8
DAMAN
 10
11.1875
 20
11.28125
 30
0.0
 40
0.156
  0
ARC
  8
DAMAN
 10
11.1875
 20
11.28125
 30
0.0
 40
0.1875
 50
0.0
 51
270.0
  0
INSERT
  8
DAMAN
  2
100CROSS
 10
8.5625
 20
12.96875
 30
0.0
 41
0.375
 42
0.375
 43
0.0
  0
CIRCLE
  8
DAMAN
 10
8.5625
 20
12.96875
 30
0.0
 40
0.156
  0
ARC
  8
DAMAN
 10
8.5625
 20
12.96875
 30
0.0
 40
0.1875
 50
0.0
 51
270.0
  0
ARC
  8
DAMAN
 10
8.5625
 20
11.28125
 30
0.0
 40
0.1875
 50
0.0
 51
270.0
  0
CIRCLE
  8
DAMAN
 10
8.5625
 20
11.28125
 30
0.0
 40
0.156
  0
INSERT
  8
DAMAN
  2
100CROSS
 10
8.5625
 20
11.28125
 30
0.0
 41
0.375
 42
0.375
 43
0.0
  0
TEXT
  8
DAMAN
 10
9.78125
 20
7.65625
 30
0.0
 40
0.25
  1
Y
  7
STR
  0
POLYLINE
  8
DAMAN
 66
     1
 10
0.0
 20
0.0
 30
0.0
 70
     1
  0
VERTEX
  8
DAMAN
 10
8.25
 20
13.71875
 30
0.0
  0
VERTEX
  8
DAMAN
 10
11.5
 20
13.71875
 30
0.0
  0
VERTEX
  8
DAMAN
 10
11.5
 20
9.71875
 30
0.0
  0
VERTEX
  8
DAMAN
 10
8.25
 20
9.71875
 30
0.0
  0
SEQEND
  8
DAMAN
  0
POLYLINE
  8
DAMAN
 66
     1
 10
0.0
 20
0.0
 30
0.0
 70
     1
  0
VERTEX
  8
DAMAN
 10
13.75
 20
13.71875
 30
0.0
  0
VERTEX
  8
DAMAN
 10
15.25
 20
13.71875
 30
0.0
  0
VERTEX
  8
DAMAN
 10
15.25
 20
9.71875
 30
0.0
  0
VERTEX
  8
DAMAN
 10
13.75
 20
9.71875
 30
0.0
  0
SEQEND
  8
DAMAN
  0
POLYLINE
  8
DAMAN
 66
     1
 10
0.0
 20
0.0
 30
0.0
 70
     1
  0
VERTEX
  8
DAMAN
 10
8.25
 20
8.21875
 30
0.0
  0
VERTEX
  8
DAMAN
 10
11.5
 20
8.21875
 30
0.0
  0
VERTEX
  8
DAMAN
 10
11.5
 20
6.71875
 30
0.0
  0
VERTEX
  8
DAMAN
 10
8.25
 20
6.71875
 30
0.0
  0
SEQEND
  8
DAMAN
  0
POLYLINE
  8
DAMAN
 66
     1
 10
0.0
 20
0.0
 30
0.0
 70
     1
  0
VERTEX
  8
DAMAN
 10
6.0
 20
13.71875
 30
0.0
  0
VERTEX
  8
DAMAN
 10
4.5
 20
13.71875
 30
0.0
  0
VERTEX
  8
DAMAN
 10
4.5
 20
9.71875
 30
0.0
  0
VERTEX
  8
DAMAN
 10
6.0
 20
9.71875
 30
0.0
  0
SEQEND
  8
DAMAN
  0
POLYLINE
  8
DAMAN
 66
     1
 10
0.0
 20
0.0
 30
0.0
 70
     1
  0
VERTEX
  8
DAMAN
 10
8.25
 20
15.21875
 30
0.0
  0
VERTEX
  8
DAMAN
 10
11.5
 20
15.21875
 30
0.0
  0
VERTEX
  8
DAMAN
 10
11.5
 20
16.71875
 30
0.0
  0
VERTEX
  8
DAMAN
 10
8.25
 20
16.71875
 30
0.0
  0
SEQEND
  8
DAMAN
  0
INSERT
  8
DAMAN
  2
025NPTFT
 10
9.469
 20
7.31275
 30
0.0
  0
TEXT
  8
DAMAN
 10
8.625
 20
7.96875
 30
0.0
 40
0.125
  1
DAMAN ****
  0
ENDSEC
  0
EOF
