  0
SECTION
  2
HEADER
  9
$ACADVER
  1
AC1014
  9
$ACADMAINTVER
 70
     9
  9
$DWGCODEPAGE
  3
ANSI_1252
  9
$INSBASE
 10
0.0
 20
0.0
 30
0.0
  9
$EXTMIN
 10
2.749568972095808
 20
4.874450721864647
 30
-0.0015258207003583
  9
$EXTMAX
 10
12.75038912880744
 20
14.00042727869053
 30
0.0000000349246037
  9
$LIMMIN
 10
0.0
 20
0.0
  9
$LIMMAX
 10
12.0
 20
9.0
  9
$ORTHOMODE
 70
     1
  9
$REGENMODE
 70
     1
  9
$FILLMODE
 70
     1
  9
$QTEXTMODE
 70
     0
  9
$MIRRTEXT
 70
     1
  9
$DRAGMODE
 70
     2
  9
$LTSCALE
 40
1.0
  9
$OSMODE
 70
    37
  9
$ATTMODE
 70
     1
  9
$TEXTSIZE
 40
0.188
  9
$TRACEWID
 40
0.05
  9
$TEXTSTYLE
  7
STANDARD
  9
$CLAYER
  8
DAMAN
  9
$CELTYPE
  6
BYLAYER
  9
$CECOLOR
 62
   256
  9
$CELTSCALE
 40
1.0
  9
$DELOBJ
 70
     1
  9
$DISPSILH
 70
     0
  9
$DIMSCALE
 40
1.0
  9
$DIMASZ
 40
0.18
  9
$DIMEXO
 40
0.0625
  9
$DIMDLI
 40
0.38
  9
$DIMRND
 40
0.0
  9
$DIMDLE
 40
0.0
  9
$DIMEXE
 40
0.18
  9
$DIMTP
 40
0.0
  9
$DIMTM
 40
0.0
  9
$DIMTXT
 40
0.18
  9
$DIMCEN
 40
0.09
  9
$DIMTSZ
 40
0.0
  9
$DIMTOL
 70
     0
  9
$DIMLIM
 70
     0
  9
$DIMTIH
 70
     1
  9
$DIMTOH
 70
     1
  9
$DIMSE1
 70
     0
  9
$DIMSE2
 70
     0
  9
$DIMTAD
 70
     0
  9
$DIMZIN
 70
     0
  9
$DIMBLK
  1

  9
$DIMASO
 70
     1
  9
$DIMSHO
 70
     1
  9
$DIMPOST
  1

  9
$DIMAPOST
  1

  9
$DIMALT
 70
     0
  9
$DIMALTD
 70
     2
  9
$DIMALTF
 40
25.4
  9
$DIMLFAC
 40
1.0
  9
$DIMTOFL
 70
     0
  9
$DIMTVP
 40
0.0
  9
$DIMTIX
 70
     0
  9
$DIMSOXD
 70
     0
  9
$DIMSAH
 70
     0
  9
$DIMBLK1
  1

  9
$DIMBLK2
  1

  9
$DIMSTYLE
  2
STANDARD
  9
$DIMCLRD
 70
     0
  9
$DIMCLRE
 70
     0
  9
$DIMCLRT
 70
     0
  9
$DIMTFAC
 40
1.0
  9
$DIMGAP
 40
0.09
  9
$DIMJUST
 70
     0
  9
$DIMSD1
 70
     0
  9
$DIMSD2
 70
     0
  9
$DIMTOLJ
 70
     1
  9
$DIMTZIN
 70
     0
  9
$DIMALTZ
 70
     0
  9
$DIMALTTZ
 70
     0
  9
$DIMFIT
 70
     3
  9
$DIMUPT
 70
     0
  9
$DIMUNIT
 70
     2
  9
$DIMDEC
 70
     4
  9
$DIMTDEC
 70
     4
  9
$DIMALTU
 70
     2
  9
$DIMALTTD
 70
     2
  9
$DIMTXSTY
  7
STANDARD
  9
$DIMAUNIT
 70
     0
  9
$LUNITS
 70
     2
  9
$LUPREC
 70
     4
  9
$SKETCHINC
 40
0.1
  9
$FILLETRAD
 40
0.0
  9
$AUNITS
 70
     0
  9
$AUPREC
 70
     0
  9
$MENU
  1
tom
  9
$ELEVATION
 40
0.0
  9
$PELEVATION
 40
0.0
  9
$THICKNESS
 40
0.0
  9
$LIMCHECK
 70
     0
  9
$BLIPMODE
 70
     0
  9
$CHAMFERA
 40
0.0
  9
$CHAMFERB
 40
0.0
  9
$CHAMFERC
 40
0.0
  9
$CHAMFERD
 40
0.0
  9
$SKPOLY
 70
     0
  9
$TDCREATE
 40
2449753.487191331
  9
$TDUPDATE
 40
2453423.586420972
  9
$TDINDWG
 40
0.0011420370
  9
$TDUSRTIMER
 40
0.0011420370
  9
$USRTIMER
 70
     1
  9
$ANGBASE
 50
0.0
  9
$ANGDIR
 70
     0
  9
$PDMODE
 70
     0
  9
$PDSIZE
 40
0.0
  9
$PLINEWID
 40
0.0
  9
$COORDS
 70
     1
  9
$SPLFRAME
 70
     0
  9
$SPLINETYPE
 70
     6
  9
$SPLINESEGS
 70
     8
  9
$ATTDIA
 70
     0
  9
$ATTREQ
 70
     1
  9
$HANDLING
 70
-16383
  9
$HANDSEED
  5
160
  9
$SURFTAB1
 70
     6
  9
$SURFTAB2
 70
     6
  9
$SURFTYPE
 70
     6
  9
$SURFU
 70
     6
  9
$SURFV
 70
     6
  9
$UCSNAME
  2

  9
$UCSORG
 10
0.0
 20
0.0
 30
0.0
  9
$UCSXDIR
 10
1.0
 20
0.0
 30
0.0
  9
$UCSYDIR
 10
0.0
 20
1.0
 30
0.0
  9
$PUCSNAME
  2

  9
$PUCSORG
 10
0.0
 20
0.0
 30
0.0
  9
$PUCSXDIR
 10
1.0
 20
0.0
 30
0.0
  9
$PUCSYDIR
 10
0.0
 20
1.0
 30
0.0
  9
$USERI1
 70
     0
  9
$USERI2
 70
     0
  9
$USERI3
 70
     0
  9
$USERI4
 70
     0
  9
$USERI5
 70
     0
  9
$USERR1
 40
0.0
  9
$USERR2
 40
0.0
  9
$USERR3
 40
0.0
  9
$USERR4
 40
0.0
  9
$USERR5
 40
0.0
  9
$WORLDVIEW
 70
     1
  9
$SHADEDGE
 70
     3
  9
$SHADEDIF
 70
    70
  9
$TILEMODE
 70
     1
  9
$MAXACTVP
 70
    16
  9
$PINSBASE
 10
0.0
 20
0.0
 30
0.0
  9
$PLIMCHECK
 70
     0
  9
$PEXTMIN
 10
1.000000000000000E+20
 20
1.000000000000000E+20
 30
1.000000000000000E+20
  9
$PEXTMAX
 10
-1.000000000000000E+20
 20
-1.000000000000000E+20
 30
-1.000000000000000E+20
  9
$PLIMMIN
 10
0.0
 20
0.0
  9
$PLIMMAX
 10
12.0
 20
9.0
  9
$UNITMODE
 70
     0
  9
$VISRETAIN
 70
     0
  9
$PLINEGEN
 70
     0
  9
$PSLTSCALE
 70
     1
  9
$TREEDEPTH
 70
  3020
  9
$PICKSTYLE
 70
     1
  9
$CMLSTYLE
  2
STANDARD
  9
$CMLJUST
 70
     0
  9
$CMLSCALE
 40
1.0
  9
$PROXYGRAPHICS
 70
     1
  9
$MEASUREMENT
 70
     0
  0
ENDSEC
  0
SECTION
  2
CLASSES
  0
CLASS
  1
ACDBDICTIONARYWDFLT
  2
AcDbDictionaryWithDefault
  3
AutoCAD 2000
 90
        0
280
     0
281
     0
  0
CLASS
  1
ACDBPLACEHOLDER
  2
AcDbPlaceHolder
  3
AutoCAD 2000
 90
        0
280
     0
281
     0
  0
CLASS
  1
LAYOUT
  2
AcDbLayout
  3
AutoCAD 2000
 90
        0
280
     0
281
     0
  0
CLASS
  1
LONG_TRANSACTION
  2
AcDbLongTransaction
  3
AutoCAD 2000
 90
        0
280
     0
281
     0
  0
CLASS
  1
LWPOLYLINE
  2
AcDbPolyline
  3
AutoCAD 2000
 90
        0
280
     0
281
     1
  0
CLASS
  1
HATCH
  2
AcDbHatch
  3
AutoCAD 2000
 90
        0
280
     0
281
     1
  0
CLASS
  1
XRECORD
  2
AcDbXrecord
  3
AutoCAD 2000
 90
        0
280
     0
281
     0
  0
ENDSEC
  0
SECTION
  2
TABLES
  0
TABLE
  2
VPORT
  5
8
330
0
100
AcDbSymbolTable
 70
     5
  0
VPORT
  5
13B
330
8
100
AcDbSymbolTableRecord
100
AcDbViewportTableRecord
  2
*ACTIVE
 70
     0
 10
0.0
 20
0.0
 11
1.0
 21
1.0
 12
7.701953705242402
 22
9.493898772697658
 13
0.0
 23
0.0
 14
0.03125
 24
0.03125
 15
0.0
 25
0.0
 16
0.0
 26
0.0
 36
1.0
 17
0.0
 27
0.0
 37
0.0
 40
10.13421667643427
 41
1.647569444444444
 42
50.0
 43
0.0
 44
0.0
 50
0.0
 51
0.0
 71
     0
 72
   100
 73
     1
 74
     1
 75
     1
 76
     0
 77
     0
 78
     0
  0
ENDTAB
  0
TABLE
  2
LTYPE
  5
5
330
0
100
AcDbSymbolTable
 70
     4
  0
LTYPE
  5
13
330
5
100
AcDbSymbolTableRecord
100
AcDbLinetypeTableRecord
  2
BYBLOCK
 70
     0
  3

 72
    65
 73
     0
 40
0.0
  0
LTYPE
  5
14
330
5
100
AcDbSymbolTableRecord
100
AcDbLinetypeTableRecord
  2
BYLAYER
 70
     0
  3

 72
    65
 73
     0
 40
0.0
  0
LTYPE
  5
15
330
5
100
AcDbSymbolTableRecord
100
AcDbLinetypeTableRecord
  2
CONTINUOUS
 70
     0
  3
Solid line
 72
    65
 73
     0
 40
0.0
  0
LTYPE
  5
24
330
5
100
AcDbSymbolTableRecord
100
AcDbLinetypeTableRecord
  2
HIDDEN
 70
     0
  3
_ _ _ _ _ _ _ _ _ _ _ _ _ _ _ _ _ _ _ _ _ _ _
 72
    65
 73
     2
 40
0.375
 49
0.25
 74
     0
 49
-0.125
 74
     0
  0
LTYPE
  5
25
330
5
100
AcDbSymbolTableRecord
100
AcDbLinetypeTableRecord
  2
CENTER
 70
     0
  3
____ _ ____ _ ____ _ ____ _ ____ _ ____ _ ____
 72
    65
 73
     4
 40
2.0
 49
1.25
 74
     0
 49
-0.25
 74
     0
 49
0.25
 74
     0
 49
-0.25
 74
     0
  0
LTYPE
  5
26
330
5
100
AcDbSymbolTableRecord
100
AcDbLinetypeTableRecord
  2
PHANTOM
 70
     0
  3
_____ _ _ _____ _ _ _____ _ _ _____ _ _ ____
 72
    65
 73
     6
 40
2.5
 49
1.25
 74
     0
 49
-0.25
 74
     0
 49
0.25
 74
     0
 49
-0.25
 74
     0
 49
0.25
 74
     0
 49
-0.25
 74
     0
  0
ENDTAB
  0
TABLE
  2
LAYER
  5
2
330
0
100
AcDbSymbolTable
 70
     9
  0
LAYER
  5
10
330
2
100
AcDbSymbolTableRecord
100
AcDbLayerTableRecord
  2
0
 70
     0
 62
     7
  6
CONTINUOUS
  0
LAYER
  5
22
330
2
100
AcDbSymbolTableRecord
100
AcDbLayerTableRecord
  2
DAMAN
 70
     0
 62
     5
  6
CONTINUOUS
  0
LAYER
  5
27
330
2
100
AcDbSymbolTableRecord
100
AcDbLayerTableRecord
  2
BORDER
 70
     0
 62
     7
  6
CONTINUOUS
  0
LAYER
  5
28
330
2
100
AcDbSymbolTableRecord
100
AcDbLayerTableRecord
  2
CSOLID
 70
     0
 62
     3
  6
CONTINUOUS
  0
LAYER
  5
29
330
2
100
AcDbSymbolTableRecord
100
AcDbLayerTableRecord
  2
CDIM
 70
     0
 62
     2
  6
CONTINUOUS
  0
LAYER
  5
2A
330
2
100
AcDbSymbolTableRecord
100
AcDbLayerTableRecord
  2
DIM
 70
     0
 62
     5
  6
CONTINUOUS
  0
LAYER
  5
2B
330
2
100
AcDbSymbolTableRecord
100
AcDbLayerTableRecord
  2
CHIDDEN
 70
     0
 62
     3
  6
HIDDEN
  0
LAYER
  5
2C
330
2
100
AcDbSymbolTableRecord
100
AcDbLayerTableRecord
  2
CCENTER
 70
     0
 62
     4
  6
CENTER
  0
LAYER
  5
2D
330
2
100
AcDbSymbolTableRecord
100
AcDbLayerTableRecord
  2
PHANTOM
 70
     0
 62
     1
  6
PHANTOM
  0
ENDTAB
  0
TABLE
  2
STYLE
  5
3
330
0
100
AcDbSymbolTable
 70
     2
  0
STYLE
  5
11
330
3
100
AcDbSymbolTableRecord
100
AcDbTextStyleTableRecord
  2
STANDARD
 70
     0
 40
0.0
 41
1.0
 50
0.0
 71
     0
 42
0.188
  3
txt
  4

  0
STYLE
  5
2E
330
3
100
AcDbSymbolTableRecord
100
AcDbTextStyleTableRecord
  2
STR
 70
     0
 40
0.0
 41
1.0
 50
0.0
 71
     0
 42
0.25
  3
SIMPLEX
  4

  0
ENDTAB
  0
TABLE
  2
VIEW
  5
6
330
0
100
AcDbSymbolTable
 70
     0
  0
ENDTAB
  0
TABLE
  2
UCS
  5
7
330
0
100
AcDbSymbolTable
 70
     0
  0
ENDTAB
  0
TABLE
  2
APPID
  5
9
330
0
100
AcDbSymbolTable
 70
     1
  0
APPID
  5
12
330
9
100
AcDbSymbolTableRecord
100
AcDbRegAppTableRecord
  2
ACAD
 70
     0
  0
ENDTAB
  0
TABLE
  2
DIMSTYLE
  5
A
330
0
100
AcDbSymbolTable
 70
     1
  0
DIMSTYLE
105
137
330
A
100
AcDbSymbolTableRecord
100
AcDbDimStyleTableRecord
  2
STANDARD
 70
     0
  3

  4

  5

  6

  7

 40
1.0
 41
0.18
 42
0.0625
 43
0.38
 44
0.18
 45
0.0
 46
0.0
 47
0.0
 48
0.0
140
0.18
141
0.09
142
0.0
143
25.4
144
1.0
145
0.0
146
1.0
147
0.09
 71
     0
 72
     0
 73
     1
 74
     1
 75
     0
 76
     0
 77
     0
 78
     0
170
     0
171
     2
172
     0
173
     0
174
     0
175
     0
176
     0
177
     0
178
     0
270
     2
271
     4
272
     4
273
     2
274
     2
340
11
275
     0
280
     0
281
     0
282
     0
283
     1
284
     0
285
     0
286
     0
287
     3
288
     0
  0
ENDTAB
  0
TABLE
  2
BLOCK_RECORD
  5
1
330
0
100
AcDbSymbolTable
 70
     5
  0
BLOCK_RECORD
  5
1E
102
{ACAD_XDICTIONARY
360
15E
102
}
330
1
100
AcDbSymbolTableRecord
100
AcDbBlockTableRecord
  2
*MODEL_SPACE
  0
BLOCK_RECORD
  5
1A
102
{ACAD_XDICTIONARY
360
15C
102
}
330
1
100
AcDbSymbolTableRecord
100
AcDbBlockTableRecord
  2
*PAPER_SPACE
  0
BLOCK_RECORD
  5
31
330
1
100
AcDbSymbolTableRecord
100
AcDbBlockTableRecord
  2
I06D05H
  0
BLOCK_RECORD
  5
37
330
1
100
AcDbSymbolTableRecord
100
AcDbBlockTableRecord
  2
100CROSS
  0
BLOCK_RECORD
  5
46
330
1
100
AcDbSymbolTableRecord
100
AcDbBlockTableRecord
  2
025NPTFT
  0
BLOCK_RECORD
  5
DA
330
1
100
AcDbSymbolTableRecord
100
AcDbBlockTableRecord
  2
050CROSS
  0
BLOCK_RECORD
  5
E6
330
1
100
AcDbSymbolTableRecord
100
AcDbBlockTableRecord
  2
250NPTFT
  0
ENDTAB
  0
ENDSEC
  0
SECTION
  2
BLOCKS
  0
BLOCK
  5
1F
330
1E
100
AcDbEntity
  8
0
100
AcDbBlockBegin
  2
*MODEL_SPACE
 70
     0
 10
0.0
 20
0.0
 30
0.0
  3
*MODEL_SPACE
  1

  0
ENDBLK
  5
20
330
1E
100
AcDbEntity
  8
0
100
AcDbBlockEnd
  0
BLOCK
  5
1B
330
1A
100
AcDbEntity
 67
     1
  8
0
100
AcDbBlockBegin
  2
*PAPER_SPACE
 70
     0
 10
0.0
 20
0.0
 30
0.0
  3
*PAPER_SPACE
  1

  0
ENDBLK
  5
1C
330
1A
100
AcDbEntity
 67
     1
  8
0
100
AcDbBlockEnd
  0
BLOCK
  5
32
330
31
100
AcDbEntity
  8
0
100
AcDbBlockBegin
  2
I06D05H
 70
     0
 10
0.0
 20
0.0
 30
0.0
  3
I06D05H
  1

  0
CIRCLE
  5
33
330
31
100
AcDbEntity
  8
CSOLID
100
AcDbCircle
 10
7.40625
 20
7.0
 30
0.0
 40
0.1405
  0
CIRCLE
  5
34
330
31
100
AcDbEntity
  8
CSOLID
100
AcDbCircle
 10
7.40625
 20
9.125
 30
0.0
 40
0.1405
  0
CIRCLE
  5
35
330
31
100
AcDbEntity
  8
CSOLID
100
AcDbCircle
 10
5.59375
 20
7.0
 30
0.0
 40
0.1405
  0
CIRCLE
  5
36
330
31
100
AcDbEntity
  8
CSOLID
100
AcDbCircle
 10
5.59375
 20
9.125
 30
0.0
 40
0.1405
  0
INSERT
  5
38
330
31
100
AcDbEntity
  8
CCENTER
100
AcDbBlockReference
  2
100CROSS
 10
5.59375
 20
7.0
 30
0.0
 41
0.4060000000000001
 42
0.4060000000000001
  0
CIRCLE
  5
39
330
31
100
AcDbEntity
  8
CSOLID
100
AcDbCircle
 10
5.59375
 20
7.0
 30
0.0
 40
0.203
  0
CIRCLE
  5
3A
330
31
100
AcDbEntity
  8
CSOLID
100
AcDbCircle
 10
5.59375
 20
9.125
 30
0.0
 40
0.203
  0
INSERT
  5
3B
330
31
100
AcDbEntity
  8
CCENTER
100
AcDbBlockReference
  2
100CROSS
 10
5.59375
 20
9.125
 30
0.0
 41
0.4060000000000001
 42
0.4060000000000001
  0
CIRCLE
  5
3C
330
31
100
AcDbEntity
  8
CSOLID
100
AcDbCircle
 10
7.40625
 20
7.0
 30
0.0
 40
0.203
  0
INSERT
  5
3D
330
31
100
AcDbEntity
  8
CCENTER
100
AcDbBlockReference
  2
100CROSS
 10
7.40625
 20
7.0
 30
0.0
 41
0.4060000000000001
 42
0.4060000000000001
  0
CIRCLE
  5
3E
330
31
100
AcDbEntity
  8
CSOLID
100
AcDbCircle
 10
7.40625
 20
9.125
 30
0.0
 40
0.203
  0
INSERT
  5
3F
330
31
100
AcDbEntity
  8
CCENTER
100
AcDbBlockReference
  2
100CROSS
 10
7.40625
 20
9.125
 30
0.0
 41
0.4060000000000001
 42
0.4060000000000001
  0
CIRCLE
  5
40
330
31
100
AcDbEntity
  8
CSOLID
100
AcDbCircle
 10
17.03125
 20
6.6875
 30
0.0
 40
0.21875
  0
CIRCLE
  5
41
330
31
100
AcDbEntity
  8
CSOLID
100
AcDbCircle
 10
17.03125
 20
9.4375
 30
0.0
 40
0.21875
  0
CIRCLE
  5
42
330
31
100
AcDbEntity
  8
CSOLID
100
AcDbCircle
 10
17.03125
 20
9.4375
 30
0.0
 40
0.3125
  0
INSERT
  5
43
330
31
100
AcDbEntity
  8
CCENTER
100
AcDbBlockReference
  2
100CROSS
 10
17.03125
 20
9.4375
 30
0.0
 41
0.6200000000000001
 42
0.6200000000000001
  0
INSERT
  5
44
330
31
100
AcDbEntity
  8
CCENTER
100
AcDbBlockReference
  2
100CROSS
 10
18.3125
 20
9.5625
 30
0.0
 41
0.375
 42
0.375
  0
CIRCLE
  5
45
330
31
100
AcDbEntity
  8
CSOLID
100
AcDbCircle
 10
18.3125
 20
9.5625
 30
0.0
 40
0.1875
  0
INSERT
  5
47
330
31
100
AcDbEntity
  8
BORDER
100
AcDbBlockReference
  2
025NPTFT
 10
6.5
 20
3.375
 30
0.0
  0
TEXT
  5
48
330
31
100
AcDbEntity
  8
DIM
100
AcDbText
 10
7.15625
 20
11.29124999999999
 30
0.0
 40
0.14
  1
  
100
AcDbText
  0
CIRCLE
  5
49
330
31
100
AcDbEntity
  8
CHIDDEN
100
AcDbCircle
 10
16.59375
 20
7.0
 30
0.0
 40
0.203125
  0
CIRCLE
  5
4A
330
31
100
AcDbEntity
  8
CHIDDEN
100
AcDbCircle
 10
16.59375
 20
9.125
 30
0.0
 40
0.203125
  0
CIRCLE
  5
4B
330
31
100
AcDbEntity
  8
CHIDDEN
100
AcDbCircle
 10
18.40625
 20
7.0
 30
0.0
 40
0.203125
  0
CIRCLE
  5
4C
330
31
100
AcDbEntity
  8
CHIDDEN
100
AcDbCircle
 10
18.40625
 20
9.125
 30
0.0
 40
0.203125
  0
CIRCLE
  5
4D
330
31
100
AcDbEntity
  8
CHIDDEN
100
AcDbCircle
 10
7.5625
 20
9.625
 30
0.0
 40
0.25
  0
CIRCLE
  5
4E
330
31
100
AcDbEntity
  8
CHIDDEN
100
AcDbCircle
 10
7.5625
 20
7.5
 30
0.0
 40
0.25
  0
CIRCLE
  5
4F
330
31
100
AcDbEntity
  8
CHIDDEN
100
AcDbCircle
 10
5.4375
 20
9.625
 30
0.0
 40
0.25
  0
CIRCLE
  5
50
330
31
100
AcDbEntity
  8
CHIDDEN
100
AcDbCircle
 10
5.4375
 20
7.5
 30
0.0
 40
0.25
  0
CIRCLE
  5
51
330
31
100
AcDbEntity
  8
CSOLID
100
AcDbCircle
 10
7.5625
 20
9.625
 30
0.0
 40
0.2189999999999999
  0
CIRCLE
  5
52
330
31
100
AcDbEntity
  8
CSOLID
100
AcDbCircle
 10
5.4375
 20
9.625
 30
0.0
 40
0.2189999999999999
  0
CIRCLE
  5
53
330
31
100
AcDbEntity
  8
CSOLID
100
AcDbCircle
 10
6.5
 20
9.375
 30
0.0
 40
0.2189999999999999
  0
CIRCLE
  5
54
330
31
100
AcDbEntity
  8
CSOLID
100
AcDbCircle
 10
6.5
 20
8.375
 30
0.0
 40
0.2189999999999999
  0
CIRCLE
  5
55
330
31
100
AcDbEntity
  8
CSOLID
100
AcDbCircle
 10
5.4375
 20
8.375
 30
0.0
 40
0.14
  0
CIRCLE
  5
56
330
31
100
AcDbEntity
  8
CSOLID
100
AcDbCircle
 10
7.5625
 20
8.375
 30
0.0
 40
0.14
  0
CIRCLE
  5
57
330
31
100
AcDbEntity
  8
CSOLID
100
AcDbCircle
 10
7.5625
 20
7.5
 30
0.0
 40
0.2189999999999999
  0
CIRCLE
  5
58
330
31
100
AcDbEntity
  8
CSOLID
100
AcDbCircle
 10
5.4375
 20
7.5
 30
0.0
 40
0.2189999999999999
  0
INSERT
  5
59
330
31
100
AcDbEntity
  8
CCENTER
100
AcDbBlockReference
  2
100CROSS
 10
7.5625
 20
9.625
 30
0.0
 41
0.5
 42
0.5
  0
INSERT
  5
5A
330
31
100
AcDbEntity
  8
CCENTER
100
AcDbBlockReference
  2
100CROSS
 10
7.5625
 20
8.375
 30
0.0
 41
0.28
 42
0.28
  0
INSERT
  5
5B
330
31
100
AcDbEntity
  8
CCENTER
100
AcDbBlockReference
  2
100CROSS
 10
7.5625
 20
7.5
 30
0.0
 41
0.5
 42
0.5
  0
INSERT
  5
5C
330
31
100
AcDbEntity
  8
CCENTER
100
AcDbBlockReference
  2
100CROSS
 10
6.5
 20
8.375
 30
0.0
 41
0.4400000000000001
 42
0.4400000000000001
  0
INSERT
  5
5D
330
31
100
AcDbEntity
  8
CCENTER
100
AcDbBlockReference
  2
100CROSS
 10
6.5
 20
9.375
 30
0.0
 41
0.4400000000000001
 42
0.4400000000000001
  0
INSERT
  5
5E
330
31
100
AcDbEntity
  8
CCENTER
100
AcDbBlockReference
  2
100CROSS
 10
5.4375
 20
9.625
 30
0.0
 41
0.5
 42
0.5
  0
INSERT
  5
5F
330
31
100
AcDbEntity
  8
CCENTER
100
AcDbBlockReference
  2
100CROSS
 10
5.4375
 20
8.375
 30
0.0
 41
0.28
 42
0.28
  0
INSERT
  5
60
330
31
100
AcDbEntity
  8
CCENTER
100
AcDbBlockReference
  2
100CROSS
 10
5.4375
 20
7.5
 30
0.0
 41
0.5
 42
0.5
  0
INSERT
  5
61
330
31
100
AcDbEntity
  8
CCENTER
100
AcDbBlockReference
  2
100CROSS
 10
6.5
 20
7.5
 30
0.0
 41
0.188
 42
0.188
 43
0.188
  0
CIRCLE
  5
62
330
31
100
AcDbEntity
  8
CSOLID
100
AcDbCircle
 10
6.5
 20
7.5
 30
0.0
 40
0.09375
  0
INSERT
  5
63
330
31
100
AcDbEntity
  8
CCENTER
100
AcDbBlockReference
  2
100CROSS
 10
17.03125
 20
6.6875
 30
0.0
 41
0.5620000000000001
 42
0.5620000000000001
  0
INSERT
  5
64
330
31
100
AcDbEntity
  8
CCENTER
100
AcDbBlockReference
  2
100CROSS
 10
16.6875
 20
6.5625
 30
0.0
 41
0.375
 42
0.375
  0
LINE
  5
65
330
31
100
AcDbEntity
  8
CSOLID
100
AcDbLine
 10
16.6875
 20
6.375
 30
0.0
 11
17.03125
 21
6.375
 31
0.0
  0
ARC
  5
66
330
31
100
AcDbEntity
  8
CSOLID
100
AcDbCircle
 10
17.03125
 20
6.6875
 30
0.0
 40
0.3125
100
AcDbArc
 50
270.0
 51
127.0
  0
ARC
  5
67
330
31
100
AcDbEntity
  8
CSOLID
100
AcDbCircle
 10
16.6875
 20
6.5625
 30
0.0
 40
0.1875
100
AcDbArc
 50
127.0
 51
270.0
  0
LINE
  5
68
330
31
100
AcDbEntity
  8
CSOLID
100
AcDbLine
 10
16.57466
 20
6.712244
 30
0.0
 11
16.84375
 21
6.9375
 31
0.0
  0
CIRCLE
  5
69
330
31
100
AcDbEntity
  8
CSOLID
100
AcDbCircle
 10
17.87525
 20
7.125
 30
0.0
 40
0.21875
  0
INSERT
  5
6A
330
31
100
AcDbEntity
  8
CCENTER
100
AcDbBlockReference
  2
100CROSS
 10
17.87525
 20
7.125
 30
0.0
 41
-0.4379999999999999
 42
0.4379999999999999
  0
CIRCLE
  5
6B
330
31
100
AcDbEntity
  8
CSOLID
100
AcDbCircle
 10
17.875
 20
7.125
 30
0.0
 40
0.3125
  0
CIRCLE
  5
6C
330
31
100
AcDbEntity
  8
CSOLID
100
AcDbCircle
 10
17.4375
 20
7.65625
 30
0.0
 40
0.3125
  0
CIRCLE
  5
6D
330
31
100
AcDbEntity
  8
CSOLID
100
AcDbCircle
 10
16.84375
 20
8.0625
 30
0.0
 40
0.3125
  0
CIRCLE
  5
6E
330
31
100
AcDbEntity
  8
CSOLID
100
AcDbCircle
 10
17.4375
 20
8.46875
 30
0.0
 40
0.3125
  0
CIRCLE
  5
6F
330
31
100
AcDbEntity
  8
CSOLID
100
AcDbCircle
 10
17.875
 20
9.0
 30
0.0
 40
0.3125
  0
CIRCLE
  5
70
330
31
100
AcDbEntity
  8
CSOLID
100
AcDbCircle
 10
16.59375
 20
7.0
 30
0.0
 40
0.1405
  0
CIRCLE
  5
71
330
31
100
AcDbEntity
  8
CSOLID
100
AcDbCircle
 10
16.59375
 20
9.125
 30
0.0
 40
0.1405
  0
CIRCLE
  5
72
330
31
100
AcDbEntity
  8
CSOLID
100
AcDbCircle
 10
18.40625
 20
7.0
 30
0.0
 40
0.1405
  0
CIRCLE
  5
73
330
31
100
AcDbEntity
  8
CSOLID
100
AcDbCircle
 10
18.40625
 20
9.125
 30
0.0
 40
0.1405
  0
INSERT
  5
74
330
31
100
AcDbEntity
  8
CCENTER
100
AcDbBlockReference
  2
100CROSS
 10
18.40625
 20
9.125
 30
0.0
 41
-0.25
 42
0.25
  0
INSERT
  5
75
330
31
100
AcDbEntity
  8
CCENTER
100
AcDbBlockReference
  2
100CROSS
 10
18.40625
 20
7.0
 30
0.0
 41
-0.25
 42
0.25
  0
INSERT
  5
76
330
31
100
AcDbEntity
  8
CCENTER
100
AcDbBlockReference
  2
100CROSS
 10
16.59375
 20
9.125
 30
0.0
 41
-0.25
 42
0.25
  0
INSERT
  5
77
330
31
100
AcDbEntity
  8
CCENTER
100
AcDbBlockReference
  2
100CROSS
 10
16.59375
 20
7.0
 30
0.0
 41
-0.25
 42
0.25
  0
INSERT
  5
78
330
31
100
AcDbEntity
  8
CCENTER
100
AcDbBlockReference
  2
100CROSS
 10
17.87525
 20
9.0
 30
0.0
 41
-0.4379999999999999
 42
0.4379999999999999
  0
CIRCLE
  5
79
330
31
100
AcDbEntity
  8
CSOLID
100
AcDbCircle
 10
17.87525
 20
9.0
 30
0.0
 40
0.21875
  0
CIRCLE
  5
7A
330
31
100
AcDbEntity
  8
CSOLID
100
AcDbCircle
 10
17.43775
 20
8.468999999999999
 30
0.0
 40
0.21875
  0
INSERT
  5
7B
330
31
100
AcDbEntity
  8
CCENTER
100
AcDbBlockReference
  2
100CROSS
 10
17.43775
 20
8.468999999999999
 30
0.0
 41
-0.4379999999999999
 42
0.4379999999999999
  0
INSERT
  5
7C
330
31
100
AcDbEntity
  8
CCENTER
100
AcDbBlockReference
  2
100CROSS
 10
17.43775
 20
7.6565
 30
0.0
 41
-0.4379999999999999
 42
0.4379999999999999
  0
CIRCLE
  5
7D
330
31
100
AcDbEntity
  8
CSOLID
100
AcDbCircle
 10
17.43775
 20
7.6565
 30
0.0
 40
0.21875
  0
CIRCLE
  5
7E
330
31
100
AcDbEntity
  8
CSOLID
100
AcDbCircle
 10
16.84375
 20
8.062749999999999
 30
0.0
 40
0.21875
  0
INSERT
  5
7F
330
31
100
AcDbEntity
  8
CCENTER
100
AcDbBlockReference
  2
100CROSS
 10
16.84375
 20
8.062749999999999
 30
0.0
 41
-0.4379999999999999
 42
0.4379999999999999
  0
TEXT
  5
80
330
31
100
AcDbEntity
  8
CDIM
100
AcDbText
 10
6.09375
 20
3.625
 30
0.0
 40
0.25
  1
V
  7
STR
100
AcDbText
  0
LINE
  5
81
330
31
100
AcDbEntity
  8
CDIM
100
AcDbLine
 10
19.0
 20
10.289775
 30
0.0
 11
19.0
 21
10.821368
 31
0.0
  0
LINE
  5
82
330
31
100
AcDbEntity
  8
CDIM
100
AcDbLine
 10
16.84375
 20
8.352275
 30
0.0
 11
16.84375
 21
10.821368
 31
0.0
  0
LINE
  5
83
330
31
100
AcDbEntity
  8
CDIM
100
AcDbLine
 10
18.803632
 20
10.625
 30
0.0
 11
18.440068
 21
10.625
 31
0.0
  0
LINE
  5
84
330
31
100
AcDbEntity
  8
CDIM
100
AcDbLine
 10
17.04011799999999
 20
10.625
 30
0.0
 11
17.40368199999999
 21
10.625
 31
0.0
  0
SOLID
  5
85
330
31
100
AcDbEntity
  8
CDIM
100
AcDbTrace
 10
18.803632
 20
10.592272
 30
0.0
 11
18.803632
 21
10.657728
 31
0.0
 12
19.0
 22
10.625
 32
0.0
 13
19.0
 23
10.625
 33
0.0
  0
SOLID
  5
86
330
31
100
AcDbEntity
  8
CDIM
100
AcDbTrace
 10
17.04011799999999
 20
10.592272
 30
0.0
 11
17.04011799999999
 21
10.657728
 31
0.0
 12
16.84375
 22
10.625
 32
0.0
 13
16.84375
 23
10.625
 33
0.0
  0
TEXT
  5
87
330
31
100
AcDbEntity
  8
CDIM
100
AcDbText
 10
17.60005
 20
10.510452
 30
0.0
 40
0.229096
  1
2.16
  7
STR
100
AcDbText
  0
LINE
  5
88
330
31
100
AcDbEntity
  8
CDIM
100
AcDbLine
 10
19.0
 20
10.289775
 30
0.0
 11
19.0
 21
11.4432
 31
0.0
  0
LINE
  5
89
330
31
100
AcDbEntity
  8
CDIM
100
AcDbLine
 10
16.0
 20
10.289775
 30
0.0
 11
16.0
 21
11.4432
 31
0.0
  0
LINE
  5
8A
330
31
100
AcDbEntity
  8
CDIM
100
AcDbLine
 10
18.803632
 20
11.246832
 30
0.0
 11
18.045467
 21
11.246832
 31
0.0
  0
LINE
  5
8B
330
31
100
AcDbEntity
  8
CDIM
100
AcDbLine
 10
16.196368
 20
11.246832
 30
0.0
 11
16.95453299999999
 21
11.246832
 31
0.0
  0
SOLID
  5
8C
330
31
100
AcDbEntity
  8
CDIM
100
AcDbTrace
 10
18.803632
 20
11.214104
 30
0.0
 11
18.803632
 21
11.27955999999999
 31
0.0
 12
19.0
 22
11.246832
 32
0.0
 13
19.0
 23
11.246832
 33
0.0
  0
SOLID
  5
8D
330
31
100
AcDbEntity
  8
CDIM
100
AcDbTrace
 10
16.196368
 20
11.214104
 30
0.0
 11
16.196368
 21
11.27955999999999
 31
0.0
 12
16.0
 22
11.246832
 32
0.0
 13
16.0
 23
11.246832
 33
0.0
  0
TEXT
  5
8E
330
31
100
AcDbEntity
  8
CDIM
100
AcDbText
 10
17.150901
 20
11.132284
 30
0.0
 40
0.229096
  1
3.00
  7
STR
100
AcDbText
  0
LINE
  5
8F
330
31
100
AcDbEntity
  8
CDIM
100
AcDbLine
 10
15.897725
 20
10.1875
 30
0.0
 11
15.303632
 21
10.1875
 31
0.0
  0
LINE
  5
90
330
31
100
AcDbEntity
  8
CDIM
100
AcDbLine
 10
16.553975
 20
8.0625
 30
0.0
 11
15.303632
 21
8.0625
 31
0.0
  0
LINE
  5
91
330
31
100
AcDbEntity
  8
CDIM
100
AcDbLine
 10
15.5
 20
9.991132
 30
0.0
 11
15.5
 21
9.435916
 31
0.0
  0
LINE
  5
92
330
31
100
AcDbEntity
  8
CDIM
100
AcDbLine
 10
15.5
 20
8.258867999999999
 30
0.0
 11
15.5
 21
8.814083999999999
 31
0.0
  0
SOLID
  5
93
330
31
100
AcDbEntity
  8
CDIM
100
AcDbTrace
 10
15.532728
 20
9.991132
 30
0.0
 11
15.467272
 21
9.991132
 31
0.0
 12
15.5
 22
10.1875
 32
0.0
 13
15.5
 23
10.1875
 33
0.0
  0
SOLID
  5
94
330
31
100
AcDbEntity
  8
CDIM
100
AcDbTrace
 10
15.532728
 20
8.258867999999999
 30
0.0
 11
15.467272
 21
8.258867999999999
 31
0.0
 12
15.5
 22
8.0625
 32
0.0
 13
15.5
 23
8.0625
 33
0.0
  0
TEXT
  5
95
330
31
100
AcDbEntity
  8
CDIM
100
AcDbText
 10
15.17272
 20
9.010452
 30
0.0
 40
0.229096
  1
2.13
  7
STR
100
AcDbText
  0
LINE
  5
96
330
31
100
AcDbEntity
  8
CDIM
100
AcDbLine
 10
15.897725
 20
10.1875
 30
0.0
 11
14.6818
 21
10.1875
 31
0.0
  0
LINE
  5
97
330
31
100
AcDbEntity
  8
CDIM
100
AcDbLine
 10
15.897725
 20
6.1875
 30
0.0
 11
14.6818
 21
6.1875
 31
0.0
  0
LINE
  5
98
330
31
100
AcDbEntity
  8
CDIM
100
AcDbLine
 10
14.878168
 20
9.991132
 30
0.0
 11
14.878168
 21
8.123416
 31
0.0
  0
LINE
  5
99
330
31
100
AcDbEntity
  8
CDIM
100
AcDbLine
 10
14.878168
 20
6.383867999999999
 30
0.0
 11
14.878168
 21
7.501583999999999
 31
0.0
  0
SOLID
  5
9A
330
31
100
AcDbEntity
  8
CDIM
100
AcDbTrace
 10
14.910896
 20
9.991132
 30
0.0
 11
14.84544
 21
9.991132
 31
0.0
 12
14.878168
 22
10.1875
 32
0.0
 13
14.878168
 23
10.1875
 33
0.0
  0
SOLID
  5
9B
330
31
100
AcDbEntity
  8
CDIM
100
AcDbTrace
 10
14.910896
 20
6.383867999999999
 30
0.0
 11
14.84544
 21
6.383867999999999
 31
0.0
 12
14.878168
 22
6.1875
 32
0.0
 13
14.878168
 23
6.1875
 33
0.0
  0
TEXT
  5
9C
330
31
100
AcDbEntity
  8
CDIM
100
AcDbText
 10
14.529069
 20
7.697952
 30
0.0
 40
0.229096
  1
4.00
  7
STR
100
AcDbText
  0
LWPOLYLINE
  5
9D
330
31
100
AcDbEntity
  8
BORDER
100
AcDbPolyline
 90
        4
 70
     1
 43
0.0
 10
5.0
 20
10.1875
 10
8.0
 20
10.1875
 10
8.0
 20
6.1875
 10
5.0
 20
6.1875
  0
LWPOLYLINE
  5
A3
330
31
100
AcDbEntity
  8
BORDER
100
AcDbPolyline
 90
        4
 70
     1
 43
0.0
 10
5.0
 20
4.125
 10
8.0
 20
4.125
 10
8.0
 20
2.625
 10
5.0
 20
2.625
  0
LWPOLYLINE
  5
A9
330
31
100
AcDbEntity
  8
BORDER
100
AcDbPolyline
 90
        4
 70
     1
 43
0.0
 10
11.0
 20
10.1875
 10
12.5
 20
10.1875
 10
12.5
 20
6.1875
 10
11.0
 20
6.1875
  0
LWPOLYLINE
  5
AF
330
31
100
AcDbEntity
  8
BORDER
100
AcDbPolyline
 90
        4
 70
     1
 43
0.0
 10
16.0
 20
10.1875
 10
19.0
 20
10.1875
 10
19.0
 20
6.1875
 10
16.0
 20
6.1875
  0
LINE
  5
B5
330
31
100
AcDbEntity
  8
CDIM
100
AcDbLine
 10
12.5
 20
10.289775
 30
0.0
 11
12.5
 21
10.821368
 31
0.0
  0
LINE
  5
B6
330
31
100
AcDbEntity
  8
CDIM
100
AcDbLine
 10
11.0
 20
10.289775
 30
0.0
 11
11.0
 21
10.821368
 31
0.0
  0
LINE
  5
B7
330
31
100
AcDbEntity
  8
CDIM
100
AcDbLine
 10
12.303632
 20
10.625
 30
0.0
 11
12.273648
 21
10.625
 31
0.0
  0
LINE
  5
B8
330
31
100
AcDbEntity
  8
CDIM
100
AcDbLine
 10
11.196368
 20
10.625
 30
0.0
 11
11.226352
 21
10.625
 31
0.0
  0
SOLID
  5
B9
330
31
100
AcDbEntity
  8
CDIM
100
AcDbTrace
 10
12.303632
 20
10.592272
 30
0.0
 11
12.303632
 21
10.657728
 31
0.0
 12
12.5
 22
10.625
 32
0.0
 13
12.5
 23
10.625
 33
0.0
  0
SOLID
  5
BA
330
31
100
AcDbEntity
  8
CDIM
100
AcDbTrace
 10
11.196368
 20
10.592272
 30
0.0
 11
11.196368
 21
10.657728
 31
0.0
 12
11.0
 22
10.625
 32
0.0
 13
11.0
 23
10.625
 33
0.0
  0
TEXT
  5
BB
330
31
100
AcDbEntity
  8
CDIM
100
AcDbText
 10
11.42271999999999
 20
10.510452
 30
0.0
 40
0.229096
  1
1.50
  7
STR
100
AcDbText
  0
LINE
  5
BC
330
31
100
AcDbEntity
  8
CDIM
100
AcDbLine
 10
5.0
 20
10.289775
 30
0.0
 11
5.0
 21
10.821368
 31
0.0
  0
LINE
  5
BD
330
31
100
AcDbEntity
  8
CDIM
100
AcDbLine
 10
6.5
 20
9.571025
 30
0.0
 11
6.5
 21
10.821368
 31
0.0
  0
LINE
  5
BE
330
31
100
AcDbEntity
  8
CDIM
100
AcDbLine
 10
5.196367999999999
 20
10.625
 30
0.0
 11
5.226351999999999
 21
10.625
 31
0.0
  0
LINE
  5
BF
330
31
100
AcDbEntity
  8
CDIM
100
AcDbLine
 10
6.303632
 20
10.625
 30
0.0
 11
6.273648
 21
10.625
 31
0.0
  0
SOLID
  5
C0
330
31
100
AcDbEntity
  8
CDIM
100
AcDbTrace
 10
5.196367999999999
 20
10.592272
 30
0.0
 11
5.196367999999999
 21
10.657728
 31
0.0
 12
5.0
 22
10.625
 32
0.0
 13
5.0
 23
10.625
 33
0.0
  0
SOLID
  5
C1
330
31
100
AcDbEntity
  8
CDIM
100
AcDbTrace
 10
6.303632
 20
10.592272
 30
0.0
 11
6.303632
 21
10.657728
 31
0.0
 12
6.5
 22
10.625
 32
0.0
 13
6.5
 23
10.625
 33
0.0
  0
TEXT
  5
C2
330
31
100
AcDbEntity
  8
CDIM
100
AcDbText
 10
5.422719999999999
 20
10.510452
 30
0.0
 40
0.229096
  1
1.50
  7
STR
100
AcDbText
  0
LINE
  5
C3
330
31
100
AcDbEntity
  8
CDIM
100
AcDbLine
 10
8.102275
 20
10.1875
 30
0.0
 11
8.696367999999999
 21
10.1875
 31
0.0
  0
LINE
  5
C4
330
31
100
AcDbEntity
  8
CDIM
100
AcDbLine
 10
6.821024999999999
 20
8.375
 30
0.0
 11
8.696367999999999
 21
8.375
 31
0.0
  0
LINE
  5
C5
330
31
100
AcDbEntity
  8
CDIM
100
AcDbLine
 10
8.5
 20
9.991132
 30
0.0
 11
8.5
 21
9.592166
 31
0.0
  0
LINE
  5
C6
330
31
100
AcDbEntity
  8
CDIM
100
AcDbLine
 10
8.5
 20
8.571367999999999
 30
0.0
 11
8.5
 21
8.970333999999999
 31
0.0
  0
SOLID
  5
C7
330
31
100
AcDbEntity
  8
CDIM
100
AcDbTrace
 10
8.532728
 20
9.991132
 30
0.0
 11
8.467271999999999
 21
9.991132
 31
0.0
 12
8.5
 22
10.1875
 32
0.0
 13
8.5
 23
10.1875
 33
0.0
  0
SOLID
  5
C8
330
31
100
AcDbEntity
  8
CDIM
100
AcDbTrace
 10
8.532728
 20
8.571367999999999
 30
0.0
 11
8.467271999999999
 21
8.571367999999999
 31
0.0
 12
8.5
 22
8.375
 32
0.0
 13
8.5
 23
8.375
 33
0.0
  0
TEXT
  5
C9
330
31
100
AcDbEntity
  8
CDIM
100
AcDbText
 10
8.221811999999999
 20
9.166702
 30
0.0
 40
0.229096
  1
1.81
  7
STR
100
AcDbText
  0
LINE
  5
CA
330
31
100
AcDbEntity
  8
CDIM
100
AcDbLine
 10
8.102275
 20
2.625
 30
0.0
 11
8.696367999999999
 21
2.625
 31
0.0
  0
LINE
  5
CB
330
31
100
AcDbEntity
  8
CDIM
100
AcDbLine
 10
6.821024999999999
 20
3.375
 30
0.0
 11
8.696367999999999
 21
3.375
 31
0.0
  0
LINE
  5
CC
330
31
100
AcDbEntity
  8
CDIM
100
AcDbLine
 10
8.5
 20
3.571368
 30
0.0
 11
8.5
 21
3.767736
 31
0.0
  0
LINE
  5
CD
330
31
100
AcDbEntity
  8
CDIM
100
AcDbLine
 10
8.5
 20
2.428631999999999
 30
0.0
 11
8.5
 21
2.232263999999999
 31
0.0
  0
SOLID
  5
CE
330
31
100
AcDbEntity
  8
CDIM
100
AcDbTrace
 10
8.532728
 20
3.571368
 30
0.0
 11
8.467271999999999
 21
3.571368
 31
0.0
 12
8.5
 22
3.375
 32
0.0
 13
8.5
 23
3.375
 33
0.0
  0
SOLID
  5
CF
330
31
100
AcDbEntity
  8
CDIM
100
AcDbTrace
 10
8.532728
 20
2.428631999999999
 30
0.0
 11
8.467271999999999
 21
2.428631999999999
 31
0.0
 12
8.5
 22
2.625
 32
0.0
 13
8.5
 23
2.625
 33
0.0
  0
TEXT
  5
D0
330
31
100
AcDbEntity
  8
CDIM
100
AcDbText
 10
8.173985999999999
 20
2.871938
 30
0.0
 40
0.229096
  1
0.75
  7
STR
100
AcDbText
  0
LINE
  5
D1
330
31
100
AcDbEntity
  8
CDIM
100
AcDbLine
 10
5.0
 20
4.227274999999999
 30
0.0
 11
5.0
 21
4.758867999999999
 31
0.0
  0
LINE
  5
D2
330
31
100
AcDbEntity
  8
CDIM
100
AcDbLine
 10
6.5
 20
3.664775
 30
0.0
 11
6.5
 21
4.758867999999999
 31
0.0
  0
LINE
  5
D3
330
31
100
AcDbEntity
  8
CDIM
100
AcDbLine
 10
5.196367999999999
 20
4.5625
 30
0.0
 11
5.226351999999999
 21
4.5625
 31
0.0
  0
LINE
  5
D4
330
31
100
AcDbEntity
  8
CDIM
100
AcDbLine
 10
6.303632
 20
4.5625
 30
0.0
 11
6.273648
 21
4.5625
 31
0.0
  0
SOLID
  5
D5
330
31
100
AcDbEntity
  8
CDIM
100
AcDbTrace
 10
5.196367999999999
 20
4.529772
 30
0.0
 11
5.196367999999999
 21
4.595227999999999
 31
0.0
 12
5.0
 22
4.5625
 32
0.0
 13
5.0
 23
4.5625
 33
0.0
  0
SOLID
  5
D6
330
31
100
AcDbEntity
  8
CDIM
100
AcDbTrace
 10
6.303632
 20
4.529772
 30
0.0
 11
6.303632
 21
4.595227999999999
 31
0.0
 12
6.5
 22
4.5625
 32
0.0
 13
6.5
 23
4.5625
 33
0.0
  0
TEXT
  5
D7
330
31
100
AcDbEntity
  8
CDIM
100
AcDbText
 10
5.422719999999999
 20
4.447951999999999
 30
0.0
 40
0.229096
  1
1.50
  7
STR
100
AcDbText
  0
ENDBLK
  5
D8
330
31
100
AcDbEntity
  8
0
100
AcDbBlockEnd
  0
BLOCK
  5
D9
330
37
100
AcDbEntity
  8
CSOLID
100
AcDbBlockBegin
  2
100CROSS
 70
     0
 10
5.625
 20
4.59375
 30
0.0
  3
100CROSS
  1

  0
INSERT
  5
DB
330
37
100
AcDbEntity
  8
0
100
AcDbBlockReference
  2
050CROSS
 10
5.625
 20
4.59375
 30
0.0
  0
ENDBLK
  5
DC
330
37
100
AcDbEntity
  8
0
100
AcDbBlockEnd
  0
BLOCK
  5
E5
330
46
100
AcDbEntity
  8
0
100
AcDbBlockBegin
  2
025NPTFT
 70
     0
 10
0.0
 20
0.0
 30
0.0
  3
025NPTFT
  1

  0
INSERT
  5
E7
330
46
100
AcDbEntity
  8
DAMAN
100
AcDbBlockReference
  2
250NPTFT
 10
0.0
 20
0.0
 30
0.0
  0
ENDBLK
  5
E8
330
46
100
AcDbEntity
  8
0
100
AcDbBlockEnd
  0
BLOCK
  5
DD
330
DA
100
AcDbEntity
  8
0
100
AcDbBlockBegin
  2
050CROSS
 70
     0
 10
5.0
 20
5.0
 30
0.0
  3
050CROSS
  1

  0
LINE
  5
DE
330
DA
100
AcDbEntity
  8
0
100
AcDbLine
 10
5.0
 20
5.28125
 30
0.0
 11
5.0
 21
5.78125
 31
0.0
  0
LINE
  5
DF
330
DA
100
AcDbEntity
  8
0
100
AcDbLine
 10
5.0
 20
4.875
 30
0.0
 11
5.0
 21
5.125
 31
0.0
  0
LINE
  5
E0
330
DA
100
AcDbEntity
  8
0
100
AcDbLine
 10
5.0
 20
4.15625
 30
0.0
 11
5.0
 21
4.71875
 31
0.0
  0
LINE
  5
E1
330
DA
100
AcDbEntity
  8
0
100
AcDbLine
 10
5.25
 20
5.0
 30
0.0
 11
5.8125
 21
5.0
 31
0.0
  0
LINE
  5
E2
330
DA
100
AcDbEntity
  8
0
100
AcDbLine
 10
4.90625
 20
5.0
 30
0.0
 11
5.09375
 21
5.0
 31
0.0
  0
LINE
  5
E3
330
DA
100
AcDbEntity
  8
0
100
AcDbLine
 10
4.1875
 20
5.0
 30
0.0
 11
4.75
 21
5.0
 31
0.0
  0
ENDBLK
  5
E4
330
DA
100
AcDbEntity
  8
0
100
AcDbBlockEnd
  0
BLOCK
  5
E9
330
E6
100
AcDbEntity
  8
0
100
AcDbBlockBegin
  2
250NPTFT
 70
     0
 10
0.0
 20
0.0
 30
0.0
  3
250NPTFT
  1

  0
CIRCLE
  5
EA
330
E6
100
AcDbEntity
  8
DAMAN
100
AcDbCircle
 10
0.0
 20
0.0
 30
0.0
 40
0.273
  0
CIRCLE
  5
EB
330
E6
100
AcDbEntity
  8
DAMAN
100
AcDbCircle
 10
0.0
 20
0.0
 30
0.0
 40
0.211
  0
INSERT
  5
EC
330
E6
100
AcDbEntity
  8
DAMAN
100
AcDbBlockReference
  2
100CROSS
 10
0.0
 20
0.0
 30
0.0
 41
0.4220000000000001
 42
0.4220000000000001
  0
CIRCLE
  5
ED
330
E6
100
AcDbEntity
  8
DAMAN
100
AcDbCircle
 10
0.0
 20
0.0
 30
0.0
 40
0.242251
  0
POINT
  5
EE
330
E6
100
AcDbEntity
  8
CHIDDEN
100
AcDbPoint
 10
-0.087928
 20
0.191806
 30
0.0
  0
POINT
  5
EF
330
E6
100
AcDbEntity
  8
CHIDDEN
100
AcDbPoint
 10
-0.137717
 20
-0.15986
 30
0.0
  0
POINT
  5
F0
330
E6
100
AcDbEntity
  8
CHIDDEN
100
AcDbPoint
 10
0.202707
 20
-0.058572
 30
0.0
  0
ENDBLK
  5
F1
330
E6
100
AcDbEntity
  8
0
100
AcDbBlockEnd
  0
ENDSEC
  0
SECTION
  2
ENTITIES
  0
CIRCLE
  5
F2
330
1E
100
AcDbEntity
  8
DAMAN
100
AcDbCircle
 10
8.65625
 20
8.25
 30
0.0
 40
0.1405
  0
CIRCLE
  5
F3
330
1E
100
AcDbEntity
  8
DAMAN
100
AcDbCircle
 10
8.65625
 20
10.375
 30
0.0
 40
0.1405
  0
CIRCLE
  5
F4
330
1E
100
AcDbEntity
  8
DAMAN
100
AcDbCircle
 10
6.84375
 20
8.25
 30
0.0
 40
0.1405
  0
CIRCLE
  5
F5
330
1E
100
AcDbEntity
  8
DAMAN
100
AcDbCircle
 10
6.84375
 20
10.375
 30
0.0
 40
0.1405
  0
INSERT
  5
F6
330
1E
100
AcDbEntity
  8
DAMAN
100
AcDbBlockReference
  2
100CROSS
 10
6.84375
 20
8.25
 30
0.0
 41
0.4060000000000001
 42
0.4060000000000001
  0
CIRCLE
  5
F7
330
1E
100
AcDbEntity
  8
DAMAN
100
AcDbCircle
 10
6.84375
 20
8.25
 30
0.0
 40
0.203
  0
CIRCLE
  5
F8
330
1E
100
AcDbEntity
  8
DAMAN
100
AcDbCircle
 10
6.84375
 20
10.375
 30
0.0
 40
0.203
  0
INSERT
  5
F9
330
1E
100
AcDbEntity
  8
DAMAN
100
AcDbBlockReference
  2
100CROSS
 10
6.84375
 20
10.375
 30
0.0
 41
0.4060000000000001
 42
0.4060000000000001
  0
CIRCLE
  5
FA
330
1E
100
AcDbEntity
  8
DAMAN
100
AcDbCircle
 10
8.65625
 20
8.25
 30
0.0
 40
0.203
  0
INSERT
  5
FB
330
1E
100
AcDbEntity
  8
DAMAN
100
AcDbBlockReference
  2
100CROSS
 10
8.65625
 20
8.25
 30
0.0
 41
0.4060000000000001
 42
0.4060000000000001
  0
CIRCLE
  5
FC
330
1E
100
AcDbEntity
  8
DAMAN
100
AcDbCircle
 10
8.65625
 20
10.375
 30
0.0
 40
0.203
  0
INSERT
  5
FD
330
1E
100
AcDbEntity
  8
DAMAN
100
AcDbBlockReference
  2
100CROSS
 10
8.65625
 20
10.375
 30
0.0
 41
0.4060000000000001
 42
0.4060000000000001
  0
TEXT
  5
FE
330
1E
100
AcDbEntity
  8
DIM
100
AcDbText
 10
8.40625
 20
12.54125
 30
0.0
 40
0.14
  1
  
100
AcDbText
  0
CIRCLE
  5
FF
330
1E
100
AcDbEntity
  8
DAMAN
100
AcDbCircle
 10
8.8125
 20
10.875
 30
0.0
 40
0.25
  0
CIRCLE
  5
100
330
1E
100
AcDbEntity
  8
DAMAN
100
AcDbCircle
 10
8.8125
 20
8.75
 30
0.0
 40
0.25
  0
CIRCLE
  5
101
330
1E
100
AcDbEntity
  8
DAMAN
100
AcDbCircle
 10
6.6875
 20
10.875
 30
0.0
 40
0.25
  0
CIRCLE
  5
102
330
1E
100
AcDbEntity
  8
DAMAN
100
AcDbCircle
 10
6.6875
 20
8.75
 30
0.0
 40
0.25
  0
CIRCLE
  5
103
330
1E
100
AcDbEntity
  8
DAMAN
100
AcDbCircle
 10
8.8125
 20
10.875
 30
0.0
 40
0.2189999999999999
  0
CIRCLE
  5
104
330
1E
100
AcDbEntity
  8
DAMAN
100
AcDbCircle
 10
6.6875
 20
10.875
 30
0.0
 40
0.2189999999999999
  0
CIRCLE
  5
105
330
1E
100
AcDbEntity
  8
DAMAN
100
AcDbCircle
 10
7.75
 20
10.625
 30
0.0
 40
0.2189999999999999
  0
CIRCLE
  5
106
330
1E
100
AcDbEntity
  8
DAMAN
100
AcDbCircle
 10
7.75
 20
9.625
 30
0.0
 40
0.2189999999999999
  0
CIRCLE
  5
107
330
1E
100
AcDbEntity
  8
DAMAN
100
AcDbCircle
 10
6.6875
 20
9.625
 30
0.0
 40
0.14
  0
CIRCLE
  5
108
330
1E
100
AcDbEntity
  8
DAMAN
100
AcDbCircle
 10
8.8125
 20
9.625
 30
0.0
 40
0.14
  0
CIRCLE
  5
109
330
1E
100
AcDbEntity
  8
DAMAN
100
AcDbCircle
 10
8.8125
 20
8.75
 30
0.0
 40
0.2189999999999999
  0
CIRCLE
  5
10A
330
1E
100
AcDbEntity
  8
DAMAN
100
AcDbCircle
 10
6.6875
 20
8.75
 30
0.0
 40
0.2189999999999999
  0
INSERT
  5
10B
330
1E
100
AcDbEntity
  8
DAMAN
100
AcDbBlockReference
  2
100CROSS
 10
8.8125
 20
10.875
 30
0.0
 41
0.5
 42
0.5
  0
INSERT
  5
10C
330
1E
100
AcDbEntity
  8
DAMAN
100
AcDbBlockReference
  2
100CROSS
 10
8.8125
 20
9.625
 30
0.0
 41
0.28
 42
0.28
  0
INSERT
  5
10D
330
1E
100
AcDbEntity
  8
DAMAN
100
AcDbBlockReference
  2
100CROSS
 10
8.8125
 20
8.75
 30
0.0
 41
0.5
 42
0.5
  0
INSERT
  5
10E
330
1E
100
AcDbEntity
  8
DAMAN
100
AcDbBlockReference
  2
100CROSS
 10
7.75
 20
9.625
 30
0.0
 41
0.4400000000000001
 42
0.4400000000000001
  0
INSERT
  5
10F
330
1E
100
AcDbEntity
  8
DAMAN
100
AcDbBlockReference
  2
100CROSS
 10
7.75
 20
10.625
 30
0.0
 41
0.4400000000000001
 42
0.4400000000000001
  0
INSERT
  5
110
330
1E
100
AcDbEntity
  8
DAMAN
100
AcDbBlockReference
  2
100CROSS
 10
6.6875
 20
10.875
 30
0.0
 41
0.5
 42
0.5
  0
INSERT
  5
111
330
1E
100
AcDbEntity
  8
DAMAN
100
AcDbBlockReference
  2
100CROSS
 10
6.6875
 20
9.625
 30
0.0
 41
0.28
 42
0.28
  0
INSERT
  5
112
330
1E
100
AcDbEntity
  8
DAMAN
100
AcDbBlockReference
  2
100CROSS
 10
6.6875
 20
8.75
 30
0.0
 41
0.5
 42
0.5
  0
INSERT
  5
113
330
1E
100
AcDbEntity
  8
DAMAN
100
AcDbBlockReference
  2
100CROSS
 10
7.75
 20
8.75
 30
0.0
 41
0.188
 42
0.188
 43
0.188
  0
CIRCLE
  5
114
330
1E
100
AcDbEntity
  8
DAMAN
100
AcDbCircle
 10
7.75
 20
8.75
 30
0.0
 40
0.09375
  0
TEXT
  5
115
330
1E
100
AcDbEntity
  8
DAMAN
100
AcDbText
 10
8.263580772928989
 20
5.508754514119942
 30
0.0
 40
0.25
  1
V
  7
STR
100
AcDbText
  0
LWPOLYLINE
  5
116
330
1E
100
AcDbEntity
  8
DAMAN
100
AcDbPolyline
 90
        4
 70
     1
 43
0.0
 10
6.25
 20
11.4375
 10
9.25
 20
11.4375
 10
9.25
 20
7.4375
 10
6.25
 20
7.4375
  0
LWPOLYLINE
  5
11C
330
1E
100
AcDbEntity
  8
DAMAN
100
AcDbPolyline
 90
        4
 70
     1
 43
0.0
 10
6.25
 20
6.375
 10
9.25
 20
6.375
 10
9.25
 20
4.875
 10
6.25
 20
4.875
  0
LWPOLYLINE
  5
122
330
1E
100
AcDbEntity
  8
DAMAN
100
AcDbPolyline
 90
        4
 70
     1
 43
0.0
 10
11.25
 20
11.4375
 10
12.75
 20
11.4375
 10
12.75
 20
7.4375
 10
11.25
 20
7.4375
  0
LWPOLYLINE
  5
128
330
1E
100
AcDbEntity
  8
DAMAN
100
AcDbPolyline
 90
        4
 70
     1
 43
0.0
 10
6.25
 20
12.5
 10
9.25
 20
12.5
 10
9.25
 20
14.0
 10
6.25
 20
14.0
  0
LWPOLYLINE
  5
12E
330
1E
100
AcDbEntity
  8
DAMAN
100
AcDbPolyline
 90
        4
 70
     1
 43
0.0
 10
4.25
 20
11.4375
 10
2.75
 20
11.4375
 10
2.75
 20
7.4375
 10
4.25
 20
7.4375
  0
INSERT
  5
134
330
1E
100
AcDbEntity
  8
DAMAN
100
AcDbBlockReference
  2
025NPTFT
 10
7.75
 20
5.625
 30
0.0
  0
TEXT
  5
135
330
1E
100
AcDbEntity
  8
DAMAN
100
AcDbText
 10
6.40625
 20
6.125
 30
0.0
 40
0.188
  1
DAMAN
100
AcDbText
  0
TEXT
  5
136
330
1E
100
AcDbEntity
  8
DAMAN
100
AcDbText
 10
7.453893585337517
 20
6.119750057549858
 30
0.0
 40
0.188
  1
****
100
AcDbText
  0
ENDSEC
  0
SECTION
  2
OBJECTS
  0
DICTIONARY
  5
C
330
0
100
AcDbDictionary
  3
ACAD_GROUP
350
D
  3
ACAD_LAYOUT
350
19
  3
ACAD_MLINESTYLE
350
16
  3
ACAD_PLOTSETTINGS
350
18
  3
ACAD_PLOTSTYLENAME
350
E
  3
ACDBHEADERROUNDTRIPXREC
350
13C
  0
DICTIONARY
  5
15E
330
1E
100
AcDbDictionary
280
     1
  3
ACAD_LAYOUTSELFREF
360
15F
  0
DICTIONARY
  5
15C
330
1A
100
AcDbDictionary
280
     1
  3
ACAD_LAYOUTSELFREF
360
15D
  0
DICTIONARY
  5
D
102
{ACAD_REACTORS
330
C
102
}
330
C
100
AcDbDictionary
  0
DICTIONARY
  5
19
102
{ACAD_REACTORS
330
C
102
}
330
C
100
AcDbDictionary
  0
DICTIONARY
  5
16
102
{ACAD_REACTORS
330
C
102
}
330
C
100
AcDbDictionary
  3
STANDARD
350
17
  0
DICTIONARY
  5
18
102
{ACAD_REACTORS
330
C
102
}
330
C
100
AcDbDictionary
  0
ACDBDICTIONARYWDFLT
  5
E
102
{ACAD_REACTORS
330
C
102
}
330
C
100
AcDbDictionary
281
     1
  3
Normal
350
F
100
AcDbDictionaryWithDefault
340
F
  0
DICTIONARY
  5
13C
102
{ACAD_REACTORS
330
C
102
}
330
C
100
AcDbDictionary
  3
CEPSNTYPE
350
146
  3
FINGERPRINTGUID
350
147
  3
HYPERLINKBASE
350
13F
  3
INSUNITS
350
145
  3
LAYOUTDICT
350
141
  3
LWETCUNION
350
144
  3
PLOTSETDICT
350
142
  3
PLOTSTYLNAMDICT
350
143
  3
PSVPSCALE
350
149
  3
PUCSBASE
350
14C
  3
PUCSORGBACK
350
152
  3
PUCSORGBOTTOM
350
14E
  3
PUCSORGFRONT
350
151
  3
PUCSORGLEFT
350
14F
  3
PUCSORGRIGHT
350
150
  3
PUCSORGTOP
350
14D
  3
PUCSORTHOREF
350
14A
  3
PUCSORTHOVIEW
350
14B
  3
STYLESHEET
350
140
  3
TSTACKALIGN
350
13D
  3
TSTACKSIZE
350
13E
  3
UCSBASE
350
155
  3
UCSORGBACK
350
15B
  3
UCSORGBOTTOM
350
157
  3
UCSORGFRONT
350
15A
  3
UCSORGLEFT
350
158
  3
UCSORGRIGHT
350
159
  3
UCSORGTOP
350
156
  3
UCSORTHOREF
350
153
  3
UCSORTHOVIEW
350
154
  3
VERSIONGUID
350
148
  0
XRECORD
  5
15F
102
{ACAD_REACTORS
330
15E
102
}
330
15E
100
AcDbXrecord
340
1E
  0
XRECORD
  5
15D
102
{ACAD_REACTORS
330
15C
102
}
330
15C
100
AcDbXrecord
340
1A
  0
MLINESTYLE
  5
17
102
{ACAD_REACTORS
330
16
102
}
330
16
100
AcDbMlineStyle
  2
STANDARD
 70
     0
  3

 62
   256
 51
90.0
 52
90.0
 71
     2
 49
0.5
 62
   256
  6
BYLAYER
 49
-0.5
 62
   256
  6
BYLAYER
  0
ACDBPLACEHOLDER
  5
F
102
{ACAD_REACTORS
330
E
102
}
330
E
100
AcDbPlaceHolder
280
     0
  0
XRECORD
  5
146
102
{ACAD_REACTORS
330
13C
102
}
330
13C
100
AcDbXrecord
 90
        0
  0
XRECORD
  5
147
102
{ACAD_REACTORS
330
13C
102
}
330
13C
100
AcDbXrecord
  1
{F68C65B0-027E-4CF7-AFD4-88C689AD073D}
  0
XRECORD
  5
13F
102
{ACAD_REACTORS
330
13C
102
}
330
13C
100
AcDbXrecord
  1

  0
XRECORD
  5
145
102
{ACAD_REACTORS
330
13C
102
}
330
13C
100
AcDbXrecord
 90
        0
  0
XRECORD
  5
141
102
{ACAD_REACTORS
330
13C
102
}
330
13C
100
AcDbXrecord
340
19
  0
XRECORD
  5
144
102
{ACAD_REACTORS
330
13C
102
}
330
13C
100
AcDbXrecord
 90
    10781
  0
XRECORD
  5
142
102
{ACAD_REACTORS
330
13C
102
}
330
13C
100
AcDbXrecord
340
18
  0
XRECORD
  5
143
102
{ACAD_REACTORS
330
13C
102
}
330
13C
100
AcDbXrecord
340
E
  0
XRECORD
  5
149
102
{ACAD_REACTORS
330
13C
102
}
330
13C
100
AcDbXrecord
 40
0.0
  0
XRECORD
  5
14C
102
{ACAD_REACTORS
330
13C
102
}
330
13C
100
AcDbXrecord
340
0
  0
XRECORD
  5
152
102
{ACAD_REACTORS
330
13C
102
}
330
13C
100
AcDbXrecord
 10
0.0
 20
0.0
 30
0.0
  0
XRECORD
  5
14E
102
{ACAD_REACTORS
330
13C
102
}
330
13C
100
AcDbXrecord
 10
0.0
 20
0.0
 30
0.0
  0
XRECORD
  5
151
102
{ACAD_REACTORS
330
13C
102
}
330
13C
100
AcDbXrecord
 10
0.0
 20
0.0
 30
0.0
  0
XRECORD
  5
14F
102
{ACAD_REACTORS
330
13C
102
}
330
13C
100
AcDbXrecord
 10
0.0
 20
0.0
 30
0.0
  0
XRECORD
  5
150
102
{ACAD_REACTORS
330
13C
102
}
330
13C
100
AcDbXrecord
 10
0.0
 20
0.0
 30
0.0
  0
XRECORD
  5
14D
102
{ACAD_REACTORS
330
13C
102
}
330
13C
100
AcDbXrecord
 10
0.0
 20
0.0
 30
0.0
  0
XRECORD
  5
14A
102
{ACAD_REACTORS
330
13C
102
}
330
13C
100
AcDbXrecord
340
0
  0
XRECORD
  5
14B
102
{ACAD_REACTORS
330
13C
102
}
330
13C
100
AcDbXrecord
 70
     0
  0
XRECORD
  5
140
102
{ACAD_REACTORS
330
13C
102
}
330
13C
100
AcDbXrecord
  1

  0
XRECORD
  5
13D
102
{ACAD_REACTORS
330
13C
102
}
330
13C
100
AcDbXrecord
 90
        1
  0
XRECORD
  5
13E
102
{ACAD_REACTORS
330
13C
102
}
330
13C
100
AcDbXrecord
 90
       70
  0
XRECORD
  5
155
102
{ACAD_REACTORS
330
13C
102
}
330
13C
100
AcDbXrecord
340
0
  0
XRECORD
  5
15B
102
{ACAD_REACTORS
330
13C
102
}
330
13C
100
AcDbXrecord
 10
0.0
 20
0.0
 30
0.0
  0
XRECORD
  5
157
102
{ACAD_REACTORS
330
13C
102
}
330
13C
100
AcDbXrecord
 10
0.0
 20
0.0
 30
0.0
  0
XRECORD
  5
15A
102
{ACAD_REACTORS
330
13C
102
}
330
13C
100
AcDbXrecord
 10
0.0
 20
0.0
 30
0.0
  0
XRECORD
  5
158
102
{ACAD_REACTORS
330
13C
102
}
330
13C
100
AcDbXrecord
 10
0.0
 20
0.0
 30
0.0
  0
XRECORD
  5
159
102
{ACAD_REACTORS
330
13C
102
}
330
13C
100
AcDbXrecord
 10
0.0
 20
0.0
 30
0.0
  0
XRECORD
  5
156
102
{ACAD_REACTORS
330
13C
102
}
330
13C
100
AcDbXrecord
 10
0.0
 20
0.0
 30
0.0
  0
XRECORD
  5
153
102
{ACAD_REACTORS
330
13C
102
}
330
13C
100
AcDbXrecord
340
0
  0
XRECORD
  5
154
102
{ACAD_REACTORS
330
13C
102
}
330
13C
100
AcDbXrecord
 70
     0
  0
XRECORD
  5
148
102
{ACAD_REACTORS
330
13C
102
}
330
13C
100
AcDbXrecord
  1
{380DB80C-7BC2-4FE6-B03D-4A684C527702}
  0
ENDSEC
  0
EOF
