  0
SECTION
  2
HEADER
  9
$ACADVER
  1
AC1009
  9
$INSBASE
 10
0.0
 20
0.0
 30
0.0
  9
$EXTMIN
 10
0.2
 20
-3.576437
 30
0.0
  9
$EXTMAX
 10
22.175
 20
6.076437
 30
0.0
  9
$LIMMIN
 10
0.0
 20
0.0
  9
$LIMMAX
 10
12.0
 20
9.0
  9
$ORTHOMODE
 70
     1
  9
$REGENMODE
 70
     1
  9
$FILLMODE
 70
     1
  9
$QTEXTMODE
 70
     0
  9
$MIRRTEXT
 70
     1
  9
$DRAGMODE
 70
     2
  9
$LTSCALE
 40
1.0
  9
$OSMODE
 70
     0
  9
$ATTMODE
 70
     1
  9
$TEXTSIZE
 40
0.2
  9
$TRACEWID
 40
0.05
  9
$TEXTSTYLE
  7
STANDARD
  9
$CLAYER
  8
DAMAN
  9
$CELTYPE
  6
BYLAYER
  9
$CECOLOR
 62
   256
  9
$DIMSCALE
 40
1.0
  9
$DIMASZ
 40
0.18
  9
$DIMEXO
 40
0.0625
  9
$DIMDLI
 40
0.38
  9
$DIMRND
 40
0.0
  9
$DIMDLE
 40
0.0
  9
$DIMEXE
 40
0.18
  9
$DIMTP
 40
0.0
  9
$DIMTM
 40
0.0
  9
$DIMTXT
 40
0.18
  9
$DIMCEN
 40
0.09
  9
$DIMTSZ
 40
0.0
  9
$DIMTOL
 70
     0
  9
$DIMLIM
 70
     0
  9
$DIMTIH
 70
     1
  9
$DIMTOH
 70
     1
  9
$DIMSE1
 70
     0
  9
$DIMSE2
 70
     0
  9
$DIMTAD
 70
     0
  9
$DIMZIN
 70
     0
  9
$DIMBLK
  1

  9
$DIMASO
 70
     1
  9
$DIMSHO
 70
     1
  9
$DIMPOST
  1

  9
$DIMAPOST
  1

  9
$DIMALT
 70
     0
  9
$DIMALTD
 70
     2
  9
$DIMALTF
 40
25.4
  9
$DIMLFAC
 40
1.0
  9
$DIMTOFL
 70
     0
  9
$DIMTVP
 40
0.0
  9
$DIMTIX
 70
     0
  9
$DIMSOXD
 70
     0
  9
$DIMSAH
 70
     0
  9
$DIMBLK1
  1

  9
$DIMBLK2
  1

  9
$DIMSTYLE
  2
*UNNAMED
  9
$DIMCLRD
 70
     0
  9
$DIMCLRE
 70
     0
  9
$DIMCLRT
 70
     0
  9
$DIMTFAC
 40
1.0
  9
$DIMGAP
 40
0.09
  9
$LUNITS
 70
     2
  9
$LUPREC
 70
     4
  9
$SKETCHINC
 40
0.1
  9
$FILLETRAD
 40
0.0
  9
$AUNITS
 70
     0
  9
$AUPREC
 70
     0
  9
$MENU
  1
tom
  9
$ELEVATION
 40
0.0
  9
$PELEVATION
 40
0.0
  9
$THICKNESS
 40
0.0
  9
$LIMCHECK
 70
     0
  9
$BLIPMODE
 70
     1
  9
$CHAMFERA
 40
0.0
  9
$CHAMFERB
 40
0.0
  9
$SKPOLY
 70
     0
  9
$TDCREATE
 40
2449728.637560220
  9
$TDUPDATE
 40
2449836.792285335
  9
$TDINDWG
 40
0.0009500000
  9
$TDUSRTIMER
 40
0.0009500000
  9
$USRTIMER
 70
     1
  9
$ANGBASE
 50
0.0
  9
$ANGDIR
 70
     0
  9
$PDMODE
 70
     0
  9
$PDSIZE
 40
0.0
  9
$PLINEWID
 40
0.0
  9
$COORDS
 70
     1
  9
$SPLFRAME
 70
     0
  9
$SPLINETYPE
 70
     6
  9
$SPLINESEGS
 70
     8
  9
$ATTDIA
 70
     0
  9
$ATTREQ
 70
     1
  9
$HANDLING
 70
     1
  9
$HANDSEED
  5
4E
  9
$SURFTAB1
 70
     6
  9
$SURFTAB2
 70
     6
  9
$SURFTYPE
 70
     6
  9
$SURFU
 70
     6
  9
$SURFV
 70
     6
  9
$UCSNAME
  2

  9
$UCSORG
 10
0.0
 20
0.0
 30
0.0
  9
$UCSXDIR
 10
1.0
 20
0.0
 30
0.0
  9
$UCSYDIR
 10
0.0
 20
1.0
 30
0.0
  9
$PUCSNAME
  2

  9
$PUCSORG
 10
0.0
 20
0.0
 30
0.0
  9
$PUCSXDIR
 10
1.0
 20
0.0
 30
0.0
  9
$PUCSYDIR
 10
0.0
 20
1.0
 30
0.0
  9
$USERI1
 70
     0
  9
$USERI2
 70
     0
  9
$USERI3
 70
     0
  9
$USERI4
 70
     0
  9
$USERI5
 70
     0
  9
$USERR1
 40
0.0
  9
$USERR2
 40
0.0
  9
$USERR3
 40
0.0
  9
$USERR4
 40
0.0
  9
$USERR5
 40
0.0
  9
$WORLDVIEW
 70
     1
  9
$SHADEDGE
 70
     3
  9
$SHADEDIF
 70
    70
  9
$TILEMODE
 70
     1
  9
$MAXACTVP
 70
    16
  9
$PINSBASE
 10
0.0
 20
0.0
 30
0.0
  9
$PLIMCHECK
 70
     0
  9
$PEXTMIN
 10
1.000000E+20
 20
1.000000E+20
 30
1.000000E+20
  9
$PEXTMAX
 10
-1.000000E+20
 20
-1.000000E+20
 30
-1.000000E+20
  9
$PLIMMIN
 10
0.0
 20
0.0
  9
$PLIMMAX
 10
12.0
 20
9.0
  9
$UNITMODE
 70
     0
  9
$VISRETAIN
 70
     0
  9
$PLINEGEN
 70
     0
  9
$PSLTSCALE
 70
     1
  9
$TREEDEPTH
 70
  3020
  9
$DWGCODEPAGE
  3
ascii
  0
ENDSEC
  0
SECTION
  2
TABLES
  0
TABLE
  2
VPORT
 70
     2
  0
VPORT
  2
*ACTIVE
 70
     0
 10
0.0
 20
0.0
 11
1.0
 21
1.0
 12
11.1875
 22
1.28125
 13
0.0
 23
0.0
 14
0.03125
 24
0.03125
 15
0.25
 25
0.25
 16
0.0
 26
0.0
 36
1.0
 17
0.0
 27
0.0
 37
0.0
 40
16.237548
 41
1.365662
 42
50.0
 43
0.0
 44
0.0
 50
0.0
 51
0.0
 71
     0
 72
   100
 73
     1
 74
     1
 75
     1
 76
     0
 77
     0
 78
     2
  0
ENDTAB
  0
TABLE
  2
LTYPE
 70
     4
  0
LTYPE
  2
CONTINUOUS
 70
    64
  3
Solid line
 72
    65
 73
     0
 40
0.0
  0
LTYPE
  2
HIDDEN
 70
    64
  3
_ _ _ _ _ _ _ _ _ _ _ _ _ _ _ _ _ _ _ _ _ _ _
 72
    65
 73
     2
 40
0.375
 49
0.25
 49
-0.125
  0
LTYPE
  2
CENTER
 70
    64
  3
____ _ ____ _ ____ _ ____ _ ____ _ ____ _ ____
 72
    65
 73
     4
 40
2.0
 49
1.25
 49
-0.25
 49
0.25
 49
-0.25
  0
LTYPE
  2
PHANTOM
 70
    64
  3
_____ _ _ _____ _ _ _____ _ _ _____ _ _ ____
 72
    65
 73
     6
 40
2.5
 49
1.25
 49
-0.25
 49
0.25
 49
-0.25
 49
0.25
 49
-0.25
  0
ENDTAB
  0
TABLE
  2
LAYER
 70
     6
  0
LAYER
  2
0
 70
    64
 62
     7
  6
CONTINUOUS
  0
LAYER
  2
DAMAN
 70
    64
 62
     5
  6
CONTINUOUS
  0
LAYER
  2
CSOLID
 70
    64
 62
     3
  6
CONTINUOUS
  0
LAYER
  2
CHIDDEN
 70
    64
 62
     3
  6
HIDDEN
  0
LAYER
  2
CCENTER
 70
    64
 62
     4
  6
CENTER
  0
LAYER
  2
PHANTOM
 70
    64
 62
     1
  6
PHANTOM
  0
ENDTAB
  0
TABLE
  2
STYLE
 70
     1
  0
STYLE
  2
STANDARD
 70
     0
 40
0.0
 41
1.0
 50
0.0
 71
     0
 42
0.2
  3
txt
  4

  0
ENDTAB
  0
TABLE
  2
VIEW
 70
     0
  0
ENDTAB
  0
TABLE
  2
UCS
 70
     0
  0
ENDTAB
  0
TABLE
  2
APPID
 70
     1
  0
APPID
  2
ACAD
 70
    64
  0
ENDTAB
  0
TABLE
  2
DIMSTYLE
 70
     0
  0
ENDTAB
  0
ENDSEC
  0
SECTION
  2
BLOCKS
  0
BLOCK
  8
0
  5
2C
  2
16SAET
 70
    64
 10
0.0
 20
0.0
 30
0.0
  3
16SAET
  0
CIRCLE
  8
DAMAN
  5
2D
 10
0.0
 20
0.0
 30
0.0
 40
0.6125
  0
CIRCLE
  8
DAMAN
  5
2E
 10
0.0
 20
0.0
 30
0.0
 40
0.562
  0
CIRCLE
  8
DAMAN
  5
2F
 10
0.0
 20
0.0
 30
0.0
 40
1.0
  0
INSERT
  8
DAMAN
  5
30
  2
100CROSS
 10
0.0
 20
0.0
 30
0.0
 41
1.6
 42
1.6
 43
0.0
  0
CIRCLE
  8
DAMAN
  5
31
 10
0.0
 20
0.0
 30
0.0
 40
0.65625
  0
ENDBLK
  8
0
  5
32
  0
BLOCK
  8
0
  5
33
  2
100CROSS
 70
    64
 10
5.625
 20
4.59375
 30
0.0
  3
100CROSS
  0
INSERT
  8
0
  5
34
  2
050CROSS
 10
5.625
 20
4.59375
 30
0.0
 43
0.0
  0
ENDBLK
  8
0
  5
35
  0
BLOCK
  8
0
  5
36
  2
050CROSS
 70
    64
 10
5.0
 20
5.0
 30
0.0
  3
050CROSS
  0
LINE
  8
0
  5
37
 10
5.0
 20
5.28125
 30
0.0
 11
5.0
 21
5.78125
 31
0.0
  0
LINE
  8
0
  5
38
 10
5.0
 20
4.875
 30
0.0
 11
5.0
 21
5.125
 31
0.0
  0
LINE
  8
0
  5
39
 10
5.0
 20
4.15625
 30
0.0
 11
5.0
 21
4.71875
 31
0.0
  0
LINE
  8
0
  5
3A
 10
5.25
 20
5.0
 30
0.0
 11
5.8125
 21
5.0
 31
0.0
  0
LINE
  8
0
  5
3B
 10
4.90625
 20
5.0
 30
0.0
 11
5.09375
 21
5.0
 31
0.0
  0
LINE
  8
0
  5
3C
 10
4.1875
 20
5.0
 30
0.0
 11
4.75
 21
5.0
 31
0.0
  0
ENDBLK
  8
0
  5
3D
  0
BLOCK
  8
0
  5
3E
  2
12SAET
 70
    64
 10
0.0
 20
0.0
 30
0.0
  3
12SAET
  0
CIRCLE
  8
DAMAN
  5
3F
 10
0.0
 20
0.0
 30
0.0
 40
0.492
  0
CIRCLE
  8
DAMAN
  5
40
 10
0.0
 20
0.0
 30
0.0
 40
0.453
  0
CIRCLE
  8
DAMAN
  5
41
 10
0.0
 20
0.0
 30
0.0
 40
0.8125
  0
INSERT
  8
DAMAN
  5
42
  2
100CROSS
 10
0.0
 20
0.0
 30
0.0
 41
1.33
 42
1.33
 43
0.0
  0
CIRCLE
  8
DAMAN
  5
43
 10
0.0
 20
0.0
 30
0.0
 40
0.53125
  0
ENDBLK
  8
0
  5
44
  0
BLOCK
  8
0
  5
45
  2
106SAET
 70
     0
 10
0.0
 20
0.0
 30
0.0
  3
106SAET
  0
CIRCLE
  8
CSOLID
  5
46
 10
0.0
 20
0.0
 30
0.0
 40
0.492
  0
CIRCLE
  8
CSOLID
  5
47
 10
0.0
 20
0.0
 30
0.0
 40
0.453
  0
CIRCLE
  8
CSOLID
  5
48
 10
0.0
 20
0.0
 30
0.0
 40
0.8125
  0
INSERT
  8
CCENTER
  5
49
  2
100CROSS
 10
0.0
 20
0.0
 30
0.0
 41
1.33
 42
1.33
 43
0.0
  0
CIRCLE
  8
CHIDDEN
  5
4A
 10
0.0
 20
0.0
 30
0.0
 40
0.53125
  0
CIRCLE
  8
PHANTOM
  5
4B
 10
0.0
 20
0.0
 30
0.0
 40
0.725
  0
ENDBLK
  8
0
  5
4C
  0
ENDSEC
  0
SECTION
  2
ENTITIES
  0
LINE
  8
DAMAN
  5
1
 10
0.25
 20
3.5
 30
0.0
 11
2.75
 21
3.5
 31
0.0
  0
LINE
  8
DAMAN
  5
2
 10
2.75
 20
3.5
 30
0.0
 11
2.75
 21
6.0
 31
0.0
  0
LINE
  8
DAMAN
  5
3
 10
2.75
 20
6.0
 30
0.0
 11
0.25
 21
6.0
 31
0.0
  0
LINE
  8
DAMAN
  5
4
 10
0.25
 20
6.0
 30
0.0
 11
0.25
 21
3.5
 31
0.0
  0
LINE
  8
DAMAN
  5
5
 10
4.5
 20
3.5
 30
0.0
 11
17.875
 21
3.5
 31
0.0
  0
LINE
  8
DAMAN
  5
6
 10
17.875
 20
3.5
 30
0.0
 11
17.875
 21
6.0
 31
0.0
  0
LINE
  8
DAMAN
  5
7
 10
17.875
 20
6.0
 30
0.0
 11
4.5
 21
6.0
 31
0.0
  0
LINE
  8
DAMAN
  5
8
 10
4.5
 20
6.0
 30
0.0
 11
4.5
 21
3.5
 31
0.0
  0
INSERT
  8
DAMAN
  5
9
  2
16SAET
 10
1.5
 20
4.75
 30
0.0
  0
INSERT
  8
DAMAN
  5
A
  2
12SAET
 10
6.3125
 20
4.75
 30
0.0
  0
INSERT
  8
DAMAN
  5
B
  2
12SAET
 10
9.5625
 20
4.75
 30
0.0
  0
INSERT
  8
DAMAN
  5
C
  2
16SAET
 10
20.875
 20
4.75
 30
0.0
 41
-1.0
  0
LINE
  8
DAMAN
  5
D
 10
22.125
 20
6.0
 30
0.0
 11
22.125
 21
3.5
 31
0.0
  0
LINE
  8
DAMAN
  5
E
 10
19.625
 20
3.5
 30
0.0
 11
19.625
 21
6.0
 31
0.0
  0
LINE
  8
DAMAN
  5
F
 10
22.125
 20
3.5
 30
0.0
 11
19.625
 21
3.5
 31
0.0
  0
LINE
  8
DAMAN
  5
10
 10
19.625
 20
6.0
 30
0.0
 11
22.125
 21
6.0
 31
0.0
  0
CIRCLE
  8
DAMAN
  5
11
 10
4.875
 20
5.719
 30
0.0
 40
0.172
  0
INSERT
  8
DAMAN
  5
12
  2
100CROSS
 10
4.875
 20
5.719
 30
0.0
 41
0.45752
 42
0.45752
 43
0.0
  0
INSERT
  8
DAMAN
  5
13
  2
100CROSS
 10
17.5
 20
3.781
 30
0.0
 41
0.45752
 42
0.45752
 43
0.0
  0
CIRCLE
  8
DAMAN
  5
14
 10
17.5
 20
3.781
 30
0.0
 40
0.172
  0
INSERT
  8
DAMAN
  5
15
  2
100CROSS
 10
4.875
 20
2.219
 30
0.0
 41
0.45752
 42
0.45752
 43
0.0
  0
CIRCLE
  8
DAMAN
  5
16
 10
4.875
 20
2.219
 30
0.0
 40
0.172
  0
LINE
  8
DAMAN
  5
17
 10
4.5
 20
0.0
 30
0.0
 11
17.875
 21
0.0
 31
0.0
  0
LINE
  8
DAMAN
  5
18
 10
17.875
 20
0.0
 30
0.0
 11
17.875
 21
2.5
 31
0.0
  0
INSERT
  8
DAMAN
  5
19
  2
100CROSS
 10
17.5
 20
0.281
 30
0.0
 41
0.45752
 42
0.45752
 43
0.0
  0
CIRCLE
  8
DAMAN
  5
1A
 10
17.5
 20
0.281
 30
0.0
 40
0.172
  0
LINE
  8
DAMAN
  5
1B
 10
4.5
 20
2.5
 30
0.0
 11
17.375
 21
2.5
 31
0.0
  0
LINE
  8
DAMAN
  5
1C
 10
17.875
 20
2.5
 30
0.0
 11
4.5
 21
2.5
 31
0.0
  0
LINE
  8
DAMAN
  5
1D
 10
4.5
 20
2.5
 30
0.0
 11
4.5
 21
0.0
 31
0.0
  0
INSERT
  8
DAMAN
  5
1E
  2
12SAET
 10
16.0625
 20
4.75
 30
0.0
  0
INSERT
  8
DAMAN
  5
1F
  2
12SAET
 10
12.8125
 20
4.75
 30
0.0
  0
LINE
  8
DAMAN
  5
20
 10
17.875
 20
-3.5
 30
0.0
 11
4.5
 21
-3.5
 31
0.0
  0
LINE
  8
DAMAN
  5
21
 10
4.5
 20
-1.0
 30
0.0
 11
17.875
 21
-1.0
 31
0.0
  0
INSERT
  8
DAMAN
  5
22
  2
12SAET
 10
9.5625
 20
-2.25
 30
0.0
 41
-1.0
 50
180.0
  0
INSERT
  8
DAMAN
  5
23
  2
12SAET
 10
6.3125
 20
-2.25
 30
0.0
 41
-1.0
 50
180.0
  0
LINE
  8
DAMAN
  5
24
 10
4.5
 20
-3.5
 30
0.0
 11
4.5
 21
-1.0
 31
0.0
  0
INSERT
  8
DAMAN
  5
25
  2
100CROSS
 10
4.875
 20
-3.219
 30
0.0
 41
-0.45752
 42
0.45752
 50
180.0
 43
0.0
  0
CIRCLE
  8
DAMAN
  5
26
 10
4.875
 20
-3.219
 30
0.0
 40
0.172
  0
INSERT
  8
DAMAN
  5
27
  2
12SAET
 10
12.8125
 20
-2.25
 30
0.0
 41
-1.0
 50
180.0
  0
INSERT
  8
DAMAN
  5
28
  2
12SAET
 10
16.0625
 20
-2.25
 30
0.0
 41
-1.0
 50
180.0
  0
LINE
  8
DAMAN
  5
29
 10
17.875
 20
-1.0
 30
0.0
 11
17.875
 21
-3.5
 31
0.0
  0
CIRCLE
  8
DAMAN
  5
2A
 10
17.5
 20
-1.281
 30
0.0
 40
0.172
  0
INSERT
  8
DAMAN
  5
2B
  2
100CROSS
 10
17.5
 20
-1.281
 30
0.0
 41
-0.45752
 42
0.45752
 50
180.0
 43
0.0
  0
TEXT
  8
DAMAN
  5
4D
 10
6.78125
 20
5.5625
 30
0.0
 40
0.2
  1
DAMAN ****
  0
ENDSEC
  0
EOF
