  0
SECTION
  2
HEADER
  9
$ACADVER
  1
AC1009
  9
$INSBASE
 10
0.0
 20
0.0
 30
0.0
  9
$EXTMIN
 10
1.75
 20
1.5
 30
0.0
  9
$EXTMAX
 10
12.875
 20
6.0
 30
0.0
  9
$LIMMIN
 10
0.0
 20
0.0
  9
$LIMMAX
 10
12.0
 20
9.0
  9
$ORTHOMODE
 70
     1
  9
$REGENMODE
 70
     1
  9
$FILLMODE
 70
     1
  9
$QTEXTMODE
 70
     0
  9
$MIRRTEXT
 70
     1
  9
$DRAGMODE
 70
     2
  9
$LTSCALE
 40
1.0
  9
$OSMODE
 70
     0
  9
$ATTMODE
 70
     1
  9
$TEXTSIZE
 40
0.188
  9
$TRACEWID
 40
0.05
  9
$TEXTSTYLE
  7
STANDARD
  9
$CLAYER
  8
DAMAN
  9
$CELTYPE
  6
BYLAYER
  9
$CECOLOR
 62
   256
  9
$DIMSCALE
 40
1.0
  9
$DIMASZ
 40
0.18
  9
$DIMEXO
 40
0.0625
  9
$DIMDLI
 40
0.38
  9
$DIMRND
 40
0.0
  9
$DIMDLE
 40
0.0
  9
$DIMEXE
 40
0.18
  9
$DIMTP
 40
0.0
  9
$DIMTM
 40
0.0
  9
$DIMTXT
 40
0.18
  9
$DIMCEN
 40
0.09
  9
$DIMTSZ
 40
0.0
  9
$DIMTOL
 70
     0
  9
$DIMLIM
 70
     0
  9
$DIMTIH
 70
     1
  9
$DIMTOH
 70
     1
  9
$DIMSE1
 70
     0
  9
$DIMSE2
 70
     0
  9
$DIMTAD
 70
     0
  9
$DIMZIN
 70
     0
  9
$DIMBLK
  1

  9
$DIMASO
 70
     1
  9
$DIMSHO
 70
     1
  9
$DIMPOST
  1

  9
$DIMAPOST
  1

  9
$DIMALT
 70
     0
  9
$DIMALTD
 70
     2
  9
$DIMALTF
 40
25.4
  9
$DIMLFAC
 40
1.0
  9
$DIMTOFL
 70
     0
  9
$DIMTVP
 40
0.0
  9
$DIMTIX
 70
     0
  9
$DIMSOXD
 70
     0
  9
$DIMSAH
 70
     0
  9
$DIMBLK1
  1

  9
$DIMBLK2
  1

  9
$DIMSTYLE
  2
*UNNAMED
  9
$DIMCLRD
 70
     0
  9
$DIMCLRE
 70
     0
  9
$DIMCLRT
 70
     0
  9
$DIMTFAC
 40
1.0
  9
$DIMGAP
 40
0.09
  9
$LUNITS
 70
     2
  9
$LUPREC
 70
     4
  9
$SKETCHINC
 40
0.1
  9
$FILLETRAD
 40
0.0
  9
$AUNITS
 70
     0
  9
$AUPREC
 70
     0
  9
$MENU
  1
tom
  9
$ELEVATION
 40
0.0
  9
$PELEVATION
 40
0.0
  9
$THICKNESS
 40
0.0
  9
$LIMCHECK
 70
     0
  9
$BLIPMODE
 70
     1
  9
$CHAMFERA
 40
0.0
  9
$CHAMFERB
 40
0.0
  9
$SKPOLY
 70
     0
  9
$TDCREATE
 40
2449724.305743564
  9
$TDUPDATE
 40
2449724.305743564
  9
$TDINDWG
 40
0.0000000000
  9
$TDUSRTIMER
 40
0.0000000000
  9
$USRTIMER
 70
     1
  9
$ANGBASE
 50
0.0
  9
$ANGDIR
 70
     0
  9
$PDMODE
 70
     0
  9
$PDSIZE
 40
0.0
  9
$PLINEWID
 40
0.0
  9
$COORDS
 70
     1
  9
$SPLFRAME
 70
     0
  9
$SPLINETYPE
 70
     6
  9
$SPLINESEGS
 70
     8
  9
$ATTDIA
 70
     0
  9
$ATTREQ
 70
     1
  9
$HANDLING
 70
     0
  9
$HANDSEED
  5
0
  9
$SURFTAB1
 70
     6
  9
$SURFTAB2
 70
     6
  9
$SURFTYPE
 70
     6
  9
$SURFU
 70
     6
  9
$SURFV
 70
     6
  9
$UCSNAME
  2

  9
$UCSORG
 10
0.0
 20
0.0
 30
0.0
  9
$UCSXDIR
 10
1.0
 20
0.0
 30
0.0
  9
$UCSYDIR
 10
0.0
 20
1.0
 30
0.0
  9
$PUCSNAME
  2

  9
$PUCSORG
 10
0.0
 20
0.0
 30
0.0
  9
$PUCSXDIR
 10
1.0
 20
0.0
 30
0.0
  9
$PUCSYDIR
 10
0.0
 20
1.0
 30
0.0
  9
$USERI1
 70
     0
  9
$USERI2
 70
     0
  9
$USERI3
 70
     0
  9
$USERI4
 70
     0
  9
$USERI5
 70
     0
  9
$USERR1
 40
0.0
  9
$USERR2
 40
0.0
  9
$USERR3
 40
0.0
  9
$USERR4
 40
0.0
  9
$USERR5
 40
0.0
  9
$WORLDVIEW
 70
     1
  9
$SHADEDGE
 70
     3
  9
$SHADEDIF
 70
    70
  9
$TILEMODE
 70
     1
  9
$MAXACTVP
 70
    16
  9
$PINSBASE
 10
0.0
 20
0.0
 30
0.0
  9
$PLIMCHECK
 70
     0
  9
$PEXTMIN
 10
1.000000E+20
 20
1.000000E+20
 30
1.000000E+20
  9
$PEXTMAX
 10
-1.000000E+20
 20
-1.000000E+20
 30
-1.000000E+20
  9
$PLIMMIN
 10
0.0
 20
0.0
  9
$PLIMMAX
 10
12.0
 20
9.0
  9
$UNITMODE
 70
     0
  9
$VISRETAIN
 70
     0
  9
$PLINEGEN
 70
     0
  9
$PSLTSCALE
 70
     1
  9
$TREEDEPTH
 70
  3020
  9
$DWGCODEPAGE
  3
ascii
  0
ENDSEC
  0
SECTION
  2
TABLES
  0
TABLE
  2
VPORT
 70
     2
  0
VPORT
  2
*ACTIVE
 70
     0
 10
0.0
 20
0.0
 11
1.0
 21
1.0
 12
7.3125
 22
3.8125
 13
0.0
 23
0.0
 14
0.0625
 24
0.0625
 15
0.0
 25
0.0
 16
0.0
 26
0.0
 36
1.0
 17
0.0
 27
0.0
 37
0.0
 40
9.427663
 41
1.365662
 42
50.0
 43
0.0
 44
0.0
 50
0.0
 51
0.0
 71
     0
 72
   100
 73
     1
 74
     1
 75
     1
 76
     0
 77
     0
 78
     0
  0
ENDTAB
  0
TABLE
  2
LTYPE
 70
     4
  0
LTYPE
  2
CONTINUOUS
 70
    64
  3
Solid line
 72
    65
 73
     0
 40
0.0
  0
LTYPE
  2
HIDDEN
 70
    64
  3
_ _ _ _ _ _ _ _ _ _ _ _ _ _ _ _ _ _ _ _ _ _ _
 72
    65
 73
     2
 40
0.375
 49
0.25
 49
-0.125
  0
LTYPE
  2
CENTER
 70
    64
  3
____ _ ____ _ ____ _ ____ _ ____ _ ____ _ ____
 72
    65
 73
     4
 40
2.0
 49
1.25
 49
-0.25
 49
0.25
 49
-0.25
  0
LTYPE
  2
PHANTOM
 70
    64
  3
_____ _ _ _____ _ _ _____ _ _ _____ _ _ ____
 72
    65
 73
     6
 40
2.5
 49
1.25
 49
-0.25
 49
0.25
 49
-0.25
 49
0.25
 49
-0.25
  0
ENDTAB
  0
TABLE
  2
LAYER
 70
     6
  0
LAYER
  2
0
 70
     0
 62
     7
  6
CONTINUOUS
  0
LAYER
  2
DAMAN
 70
     0
 62
     5
  6
CONTINUOUS
  0
LAYER
  2
CSOLID
 70
    64
 62
     5
  6
CONTINUOUS
  0
LAYER
  2
CHIDDEN
 70
     0
 62
     3
  6
HIDDEN
  0
LAYER
  2
CCENTER
 70
     0
 62
     4
  6
CENTER
  0
LAYER
  2
PHANTOM
 70
     0
 62
     1
  6
PHANTOM
  0
ENDTAB
  0
TABLE
  2
STYLE
 70
     1
  0
STYLE
  2
STANDARD
 70
    64
 40
0.0
 41
1.0
 50
0.0
 71
     0
 42
0.188
  3
txt
  4

  0
ENDTAB
  0
TABLE
  2
VIEW
 70
     0
  0
ENDTAB
  0
TABLE
  2
UCS
 70
     0
  0
ENDTAB
  0
TABLE
  2
APPID
 70
     1
  0
APPID
  2
ACAD
 70
    64
  0
ENDTAB
  0
TABLE
  2
DIMSTYLE
 70
     0
  0
ENDTAB
  0
ENDSEC
  0
SECTION
  2
BLOCKS
  0
BLOCK
  8
0
  2
06SAET
 70
    64
 10
0.0
 20
0.0
 30
0.0
  3
06SAET
  0
CIRCLE
  8
CSOLID
  6
HIDDEN
 10
0.0
 20
0.0
 30
0.0
 40
0.281
  0
CIRCLE
  8
CSOLID
 10
0.0
 20
0.0
 30
0.0
 40
0.308
  0
CIRCLE
  8
CSOLID
 10
0.0
 20
0.0
 30
0.0
 40
0.25
  0
CIRCLE
  8
CSOLID
 10
0.0
 20
0.0
 30
0.0
 40
0.4844
  0
INSERT
  8
DAMAN
  2
100CROSS
 10
0.0
 20
0.0
 30
0.0
 41
0.88
 42
0.88
 43
0.0
  0
ENDBLK
  8
0
  0
BLOCK
  8
0
  2
100CROSS
 70
    64
 10
5.625
 20
4.59375
 30
0.0
  3
100CROSS
  0
INSERT
  8
0
  2
050CROSS
 10
5.625
 20
4.59375
 30
0.0
 43
0.0
  0
ENDBLK
  8
0
  0
BLOCK
  8
0
  2
050CROSS
 70
    64
 10
5.0
 20
5.0
 30
0.0
  3
050CROSS
  0
LINE
  8
0
 10
5.0
 20
5.28125
 30
0.0
 11
5.0
 21
5.78125
 31
0.0
  0
LINE
  8
0
 10
5.0
 20
4.875
 30
0.0
 11
5.0
 21
5.125
 31
0.0
  0
LINE
  8
0
 10
5.0
 20
4.15625
 30
0.0
 11
5.0
 21
4.71875
 31
0.0
  0
LINE
  8
0
 10
5.25
 20
5.0
 30
0.0
 11
5.8125
 21
5.0
 31
0.0
  0
LINE
  8
0
 10
4.90625
 20
5.0
 30
0.0
 11
5.09375
 21
5.0
 31
0.0
  0
LINE
  8
0
 10
4.1875
 20
5.0
 30
0.0
 11
4.75
 21
5.0
 31
0.0
  0
ENDBLK
  8
0
  0
BLOCK
  8
0
  2
04SAET
 70
    64
 10
0.0
 20
0.0
 30
0.0
  3
04SAET
  0
CIRCLE
  8
DAMAN
 10
0.0
 20
0.0
 30
0.0
 40
0.4375
  0
INSERT
  8
DAMAN
  2
100CROSS
 10
0.0
 20
0.0
 30
0.0
 41
0.8
 42
0.8
 43
0.0
  0
CIRCLE
  8
DAMAN
  6
HIDDEN
 10
0.0
 20
0.0
 30
0.0
 40
0.21875
  0
CIRCLE
  8
DAMAN
 10
0.0
 20
0.0
 30
0.0
 40
0.1875
  0
CIRCLE
  8
DAMAN
 10
0.0
 20
0.0
 30
0.0
 40
0.2435
  0
ENDBLK
  8
0
  0
BLOCK
  8
0
  2
375NPTFT
 70
    64
 10
0.0
 20
0.0
 30
0.0
  3
375NPTFT
  0
INSERT
  8
DAMAN
  2
100CROSS
 10
0.0
 20
0.0
 30
0.0
 41
0.68
 42
0.68
 43
0.0
  0
CIRCLE
  8
DAMAN
 10
0.0
 20
0.0
 30
0.0
 40
0.3125
  0
CIRCLE
  8
DAMAN
 10
0.0
 20
0.0
 30
0.0
 40
0.281
  0
CIRCLE
  8
DAMAN
 10
0.0
 20
0.0
 30
0.0
 40
0.344
  0
ENDBLK
  8
0
  0
BLOCK
  8
0
  2
250NPTFT
 70
    64
 10
0.0
 20
0.0
 30
0.0
  3
250NPTFT
  0
CIRCLE
  8
DAMAN
 10
0.0
 20
0.0
 30
0.0
 40
0.273
  0
CIRCLE
  8
DAMAN
 10
0.0
 20
0.0
 30
0.0
 40
0.211
  0
INSERT
  8
DAMAN
  2
100CROSS
 10
0.0
 20
0.0
 30
0.0
 41
0.422
 42
0.422
 43
0.0
  0
CIRCLE
  8
DAMAN
 10
0.0
 20
0.0
 30
0.0
 40
0.242251
  0
POINT
  8
CHIDDEN
 10
-0.087928
 20
0.191806
 30
0.0
  0
POINT
  8
CHIDDEN
 10
-0.137717
 20
-0.15986
 30
0.0
  0
POINT
  8
CHIDDEN
 10
0.202707
 20
-0.058572
 30
0.0
  0
ENDBLK
  8
0
  0
ENDSEC
  0
SECTION
  2
ENTITIES
  0
LINE
  8
DAMAN
 10
1.75
 20
6.0
 30
0.0
 11
1.75
 21
4.25
 31
0.0
  0
LINE
  8
DAMAN
 10
1.75
 20
4.25
 30
0.0
 11
3.5
 21
4.25
 31
0.0
  0
LINE
  8
DAMAN
 10
3.5
 20
4.25
 30
0.0
 11
3.5
 21
6.0
 31
0.0
  0
LINE
  8
DAMAN
 10
3.5
 20
6.0
 30
0.0
 11
1.75
 21
6.0
 31
0.0
  0
LINE
  8
DAMAN
 10
4.5
 20
4.25
 30
0.0
 11
4.5
 21
6.0
 31
0.0
  0
LINE
  8
DAMAN
 10
4.5
 20
6.0
 30
0.0
 11
10.125
 21
6.0
 31
0.0
  0
LINE
  8
DAMAN
 10
10.125
 20
6.0
 30
0.0
 11
10.125
 21
4.25
 31
0.0
  0
LINE
  8
DAMAN
 10
10.125
 20
4.25
 30
0.0
 11
4.5
 21
4.25
 31
0.0
  0
CIRCLE
  8
DAMAN
 10
4.8125
 20
5.75
 30
0.0
 40
0.1405
  0
INSERT
  8
DAMAN
  2
100CROSS
 10
4.8125
 20
5.75
 30
0.0
 41
0.2248
 42
0.2248
 43
0.0
  0
INSERT
  8
DAMAN
  2
100CROSS
 10
9.8125
 20
4.5
 30
0.0
 41
0.2248
 42
0.2248
 43
0.0
  0
CIRCLE
  8
DAMAN
 10
9.8125
 20
4.5
 30
0.0
 40
0.1405
  0
LINE
  8
DAMAN
 10
12.875
 20
4.25
 30
0.0
 11
12.875
 21
6.0
 31
0.0
  0
LINE
  8
DAMAN
 10
11.125
 20
6.0
 30
0.0
 11
11.125
 21
4.25
 31
0.0
  0
LINE
  8
DAMAN
 10
11.125
 20
4.25
 30
0.0
 11
12.875
 21
4.25
 31
0.0
  0
LINE
  8
DAMAN
 10
12.875
 20
6.0
 30
0.0
 11
11.125
 21
6.0
 31
0.0
  0
LINE
  8
DAMAN
 10
10.125
 20
1.5
 30
0.0
 11
4.5
 21
1.5
 31
0.0
  0
LINE
  8
DAMAN
 10
4.5
 20
3.25
 30
0.0
 11
10.125
 21
3.25
 31
0.0
  0
LINE
  8
DAMAN
 10
4.5
 20
1.5
 30
0.0
 11
4.5
 21
3.25
 31
0.0
  0
INSERT
  8
DAMAN
  2
100CROSS
 10
4.8125
 20
3.0
 30
0.0
 41
0.2248
 42
0.2248
 43
0.0
  0
CIRCLE
  8
DAMAN
 10
4.8125
 20
3.0
 30
0.0
 40
0.1405
  0
CIRCLE
  8
DAMAN
 10
9.8125
 20
1.75
 30
0.0
 40
0.1405
  0
INSERT
  8
DAMAN
  2
100CROSS
 10
9.8125
 20
1.75
 30
0.0
 41
0.2248
 42
0.2248
 43
0.0
  0
LINE
  8
DAMAN
 10
10.125
 20
3.25
 30
0.0
 11
10.125
 21
1.5
 31
0.0
  0
TEXT
  8
DAMAN
 10
5.5625
 20
5.75
 30
0.0
 40
0.188
  1
DAMAN ****
  0
INSERT
  8
DAMAN
  2
375NPTFT
 10
2.625
 20
5.125
 30
0.0
  0
INSERT
  8
DAMAN
  2
250NPTFT
 10
5.5625
 20
5.125
 30
0.0
  0
INSERT
  8
DAMAN
  2
375NPTFT
 10
12.0
 20
5.125
 30
0.0
  0
INSERT
  8
DAMAN
  2
250NPTFT
 10
7.3125
 20
5.125
 30
0.0
  0
INSERT
  8
DAMAN
  2
250NPTFT
 10
9.0625
 20
5.125
 30
0.0
  0
ENDSEC
  0
EOF
