  0
SECTION
  2
HEADER
  9
$ACADVER
  1
AC1014
  9
$ACADMAINTVER
 70
     9
  9
$DWGCODEPAGE
  3
ANSI_1252
  9
$INSBASE
 10
0.0
 20
0.0
 30
0.0
  9
$EXTMIN
 10
1.624832682160295
 20
0.8745709970359136
 30
-0.0015258207003583
  9
$EXTMAX
 10
13.25068521733083
 20
6.125433061733996
 30
0.0000000349246037
  9
$LIMMIN
 10
0.0
 20
0.0
  9
$LIMMAX
 10
12.0
 20
9.0
  9
$ORTHOMODE
 70
     0
  9
$REGENMODE
 70
     1
  9
$FILLMODE
 70
     1
  9
$QTEXTMODE
 70
     0
  9
$MIRRTEXT
 70
     1
  9
$DRAGMODE
 70
     2
  9
$LTSCALE
 40
1.0
  9
$OSMODE
 70
    37
  9
$ATTMODE
 70
     1
  9
$TEXTSIZE
 40
0.2
  9
$TRACEWID
 40
0.05
  9
$TEXTSTYLE
  7
STANDARD
  9
$CLAYER
  8
DAMAN
  9
$CELTYPE
  6
BYLAYER
  9
$CECOLOR
 62
   256
  9
$CELTSCALE
 40
1.0
  9
$DELOBJ
 70
     1
  9
$DISPSILH
 70
     0
  9
$DIMSCALE
 40
1.0
  9
$DIMASZ
 40
0.18
  9
$DIMEXO
 40
0.0625
  9
$DIMDLI
 40
0.38
  9
$DIMRND
 40
0.0
  9
$DIMDLE
 40
0.0
  9
$DIMEXE
 40
0.18
  9
$DIMTP
 40
0.0
  9
$DIMTM
 40
0.0
  9
$DIMTXT
 40
0.18
  9
$DIMCEN
 40
0.09
  9
$DIMTSZ
 40
0.0
  9
$DIMTOL
 70
     0
  9
$DIMLIM
 70
     0
  9
$DIMTIH
 70
     1
  9
$DIMTOH
 70
     1
  9
$DIMSE1
 70
     0
  9
$DIMSE2
 70
     0
  9
$DIMTAD
 70
     0
  9
$DIMZIN
 70
     0
  9
$DIMBLK
  1

  9
$DIMASO
 70
     1
  9
$DIMSHO
 70
     1
  9
$DIMPOST
  1

  9
$DIMAPOST
  1

  9
$DIMALT
 70
     0
  9
$DIMALTD
 70
     2
  9
$DIMALTF
 40
25.4
  9
$DIMLFAC
 40
1.0
  9
$DIMTOFL
 70
     0
  9
$DIMTVP
 40
0.0
  9
$DIMTIX
 70
     0
  9
$DIMSOXD
 70
     0
  9
$DIMSAH
 70
     0
  9
$DIMBLK1
  1

  9
$DIMBLK2
  1

  9
$DIMSTYLE
  2
STANDARD
  9
$DIMCLRD
 70
     0
  9
$DIMCLRE
 70
     0
  9
$DIMCLRT
 70
     0
  9
$DIMTFAC
 40
1.0
  9
$DIMGAP
 40
0.09
  9
$DIMJUST
 70
     0
  9
$DIMSD1
 70
     0
  9
$DIMSD2
 70
     0
  9
$DIMTOLJ
 70
     1
  9
$DIMTZIN
 70
     0
  9
$DIMALTZ
 70
     0
  9
$DIMALTTZ
 70
     0
  9
$DIMFIT
 70
     3
  9
$DIMUPT
 70
     0
  9
$DIMUNIT
 70
     2
  9
$DIMDEC
 70
     4
  9
$DIMTDEC
 70
     4
  9
$DIMALTU
 70
     2
  9
$DIMALTTD
 70
     2
  9
$DIMTXSTY
  7
STANDARD
  9
$DIMAUNIT
 70
     0
  9
$LUNITS
 70
     2
  9
$LUPREC
 70
     4
  9
$SKETCHINC
 40
0.1
  9
$FILLETRAD
 40
0.0
  9
$AUNITS
 70
     0
  9
$AUPREC
 70
     0
  9
$MENU
  1
tom
  9
$ELEVATION
 40
0.0
  9
$PELEVATION
 40
0.0
  9
$THICKNESS
 40
0.0
  9
$LIMCHECK
 70
     0
  9
$BLIPMODE
 70
     0
  9
$CHAMFERA
 40
0.0
  9
$CHAMFERB
 40
0.0
  9
$CHAMFERC
 40
0.0
  9
$CHAMFERD
 40
0.0
  9
$SKPOLY
 70
     0
  9
$TDCREATE
 40
2449727.246755937
  9
$TDUPDATE
 40
2453424.265177615
  9
$TDINDWG
 40
0.0200029398
  9
$TDUSRTIMER
 40
0.0200029398
  9
$USRTIMER
 70
     1
  9
$ANGBASE
 50
0.0
  9
$ANGDIR
 70
     0
  9
$PDMODE
 70
     0
  9
$PDSIZE
 40
0.0
  9
$PLINEWID
 40
0.0
  9
$COORDS
 70
     1
  9
$SPLFRAME
 70
     0
  9
$SPLINETYPE
 70
     6
  9
$SPLINESEGS
 70
     8
  9
$ATTDIA
 70
     0
  9
$ATTREQ
 70
     1
  9
$HANDLING
 70
-16383
  9
$HANDSEED
  5
E7
  9
$SURFTAB1
 70
     6
  9
$SURFTAB2
 70
     6
  9
$SURFTYPE
 70
     6
  9
$SURFU
 70
     6
  9
$SURFV
 70
     6
  9
$UCSNAME
  2

  9
$UCSORG
 10
0.0
 20
0.0
 30
0.0
  9
$UCSXDIR
 10
1.0
 20
0.0
 30
0.0
  9
$UCSYDIR
 10
0.0
 20
1.0
 30
0.0
  9
$PUCSNAME
  2

  9
$PUCSORG
 10
0.0
 20
0.0
 30
0.0
  9
$PUCSXDIR
 10
1.0
 20
0.0
 30
0.0
  9
$PUCSYDIR
 10
0.0
 20
1.0
 30
0.0
  9
$USERI1
 70
     0
  9
$USERI2
 70
     0
  9
$USERI3
 70
     0
  9
$USERI4
 70
     0
  9
$USERI5
 70
     0
  9
$USERR1
 40
0.0
  9
$USERR2
 40
0.0
  9
$USERR3
 40
0.0
  9
$USERR4
 40
0.0
  9
$USERR5
 40
0.0
  9
$WORLDVIEW
 70
     1
  9
$SHADEDGE
 70
     3
  9
$SHADEDIF
 70
    70
  9
$TILEMODE
 70
     1
  9
$MAXACTVP
 70
    16
  9
$PINSBASE
 10
0.0
 20
0.0
 30
0.0
  9
$PLIMCHECK
 70
     0
  9
$PEXTMIN
 10
1.000000000000000E+20
 20
1.000000000000000E+20
 30
1.000000000000000E+20
  9
$PEXTMAX
 10
-1.000000000000000E+20
 20
-1.000000000000000E+20
 30
-1.000000000000000E+20
  9
$PLIMMIN
 10
0.0
 20
0.0
  9
$PLIMMAX
 10
12.0
 20
9.0
  9
$UNITMODE
 70
     0
  9
$VISRETAIN
 70
     0
  9
$PLINEGEN
 70
     0
  9
$PSLTSCALE
 70
     1
  9
$TREEDEPTH
 70
  3020
  9
$PICKSTYLE
 70
     1
  9
$CMLSTYLE
  2
STANDARD
  9
$CMLJUST
 70
     0
  9
$CMLSCALE
 40
1.0
  9
$PROXYGRAPHICS
 70
     1
  9
$MEASUREMENT
 70
     0
  0
ENDSEC
  0
SECTION
  2
CLASSES
  0
CLASS
  1
ACDBDICTIONARYWDFLT
  2
AcDbDictionaryWithDefault
  3
AutoCAD 2000
 90
        0
280
     0
281
     0
  0
CLASS
  1
ACDBPLACEHOLDER
  2
AcDbPlaceHolder
  3
AutoCAD 2000
 90
        0
280
     0
281
     0
  0
CLASS
  1
LAYOUT
  2
AcDbLayout
  3
AutoCAD 2000
 90
        0
280
     0
281
     0
  0
CLASS
  1
LONG_TRANSACTION
  2
AcDbLongTransaction
  3
AutoCAD 2000
 90
        0
280
     0
281
     0
  0
CLASS
  1
LWPOLYLINE
  2
AcDbPolyline
  3
AutoCAD 2000
 90
        0
280
     0
281
     1
  0
CLASS
  1
HATCH
  2
AcDbHatch
  3
AutoCAD 2000
 90
        0
280
     0
281
     1
  0
CLASS
  1
XRECORD
  2
AcDbXrecord
  3
AutoCAD 2000
 90
        0
280
     0
281
     0
  0
ENDSEC
  0
SECTION
  2
TABLES
  0
TABLE
  2
VPORT
  5
55
330
0
100
AcDbSymbolTable
 70
     2
  0
VPORT
  5
C2
330
55
100
AcDbSymbolTableRecord
100
AcDbViewportTableRecord
  2
*ACTIVE
 70
     0
 10
0.0
 20
0.0
 11
1.0
 21
1.0
 12
7.536382599602394
 22
3.481841377928557
 13
0.0
 23
0.0
 14
0.0625
 24
0.0625
 15
0.0
 25
0.0
 16
0.0
 26
0.0
 36
1.0
 17
0.0
 27
0.0
 37
0.0
 40
7.804257818620564
 41
1.647569444444444
 42
50.0
 43
0.0
 44
0.0
 50
0.0
 51
0.0
 71
     0
 72
   100
 73
     1
 74
     1
 75
     1
 76
     0
 77
     0
 78
     0
  0
ENDTAB
  0
TABLE
  2
LTYPE
  5
52
330
0
100
AcDbSymbolTable
 70
     4
  0
LTYPE
  5
60
330
52
100
AcDbSymbolTableRecord
100
AcDbLinetypeTableRecord
  2
BYBLOCK
 70
     0
  3

 72
    65
 73
     0
 40
0.0
  0
LTYPE
  5
61
330
52
100
AcDbSymbolTableRecord
100
AcDbLinetypeTableRecord
  2
BYLAYER
 70
     0
  3

 72
    65
 73
     0
 40
0.0
  0
LTYPE
  5
62
330
52
100
AcDbSymbolTableRecord
100
AcDbLinetypeTableRecord
  2
CONTINUOUS
 70
     0
  3
Solid line
 72
    65
 73
     0
 40
0.0
  0
LTYPE
  5
71
330
52
100
AcDbSymbolTableRecord
100
AcDbLinetypeTableRecord
  2
HIDDEN
 70
     0
  3
_ _ _ _ _ _ _ _ _ _ _ _ _ _ _ _ _ _ _ _ _ _ _
 72
    65
 73
     2
 40
0.375
 49
0.25
 74
     0
 49
-0.125
 74
     0
  0
LTYPE
  5
72
330
52
100
AcDbSymbolTableRecord
100
AcDbLinetypeTableRecord
  2
CENTER
 70
     0
  3
____ _ ____ _ ____ _ ____ _ ____ _ ____ _ ____
 72
    65
 73
     4
 40
2.0
 49
1.25
 74
     0
 49
-0.25
 74
     0
 49
0.25
 74
     0
 49
-0.25
 74
     0
  0
LTYPE
  5
73
330
52
100
AcDbSymbolTableRecord
100
AcDbLinetypeTableRecord
  2
PHANTOM
 70
     0
  3
_____ _ _ _____ _ _ _____ _ _ _____ _ _ ____
 72
    65
 73
     6
 40
2.5
 49
1.25
 74
     0
 49
-0.25
 74
     0
 49
0.25
 74
     0
 49
-0.25
 74
     0
 49
0.25
 74
     0
 49
-0.25
 74
     0
  0
ENDTAB
  0
TABLE
  2
LAYER
  5
4F
330
0
100
AcDbSymbolTable
 70
     6
  0
LAYER
  5
5D
330
4F
100
AcDbSymbolTableRecord
100
AcDbLayerTableRecord
  2
0
 70
     0
 62
     7
  6
CONTINUOUS
  0
LAYER
  5
6F
330
4F
100
AcDbSymbolTableRecord
100
AcDbLayerTableRecord
  2
DAMAN
 70
     0
 62
     5
  6
CONTINUOUS
  0
LAYER
  5
74
330
4F
100
AcDbSymbolTableRecord
100
AcDbLayerTableRecord
  2
CSOLID
 70
     0
 62
     3
  6
CONTINUOUS
  0
LAYER
  5
75
330
4F
100
AcDbSymbolTableRecord
100
AcDbLayerTableRecord
  2
CHIDDEN
 70
     0
 62
     3
  6
HIDDEN
  0
LAYER
  5
76
330
4F
100
AcDbSymbolTableRecord
100
AcDbLayerTableRecord
  2
CCENTER
 70
     0
 62
     4
  6
CENTER
  0
LAYER
  5
77
330
4F
100
AcDbSymbolTableRecord
100
AcDbLayerTableRecord
  2
PHANTOM
 70
     0
 62
     1
  6
PHANTOM
  0
ENDTAB
  0
TABLE
  2
STYLE
  5
50
330
0
100
AcDbSymbolTable
 70
     1
  0
STYLE
  5
5E
330
50
100
AcDbSymbolTableRecord
100
AcDbTextStyleTableRecord
  2
STANDARD
 70
     0
 40
0.0
 41
1.0
 50
0.0
 71
     0
 42
0.2
  3
txt
  4

  0
ENDTAB
  0
TABLE
  2
VIEW
  5
53
330
0
100
AcDbSymbolTable
 70
     0
  0
ENDTAB
  0
TABLE
  2
UCS
  5
54
330
0
100
AcDbSymbolTable
 70
     0
  0
ENDTAB
  0
TABLE
  2
APPID
  5
56
330
0
100
AcDbSymbolTable
 70
     1
  0
APPID
  5
5F
330
56
100
AcDbSymbolTableRecord
100
AcDbRegAppTableRecord
  2
ACAD
 70
     0
  0
ENDTAB
  0
TABLE
  2
DIMSTYLE
  5
57
330
0
100
AcDbSymbolTable
 70
     1
  0
DIMSTYLE
105
C0
330
57
100
AcDbSymbolTableRecord
100
AcDbDimStyleTableRecord
  2
STANDARD
 70
     0
  3

  4

  5

  6

  7

 40
1.0
 41
0.18
 42
0.0625
 43
0.38
 44
0.18
 45
0.0
 46
0.0
 47
0.0
 48
0.0
140
0.18
141
0.09
142
0.0
143
25.4
144
1.0
145
0.0
146
1.0
147
0.09
 71
     0
 72
     0
 73
     1
 74
     1
 75
     0
 76
     0
 77
     0
 78
     0
170
     0
171
     2
172
     0
173
     0
174
     0
175
     0
176
     0
177
     0
178
     0
270
     2
271
     4
272
     4
273
     2
274
     2
340
5E
275
     0
280
     0
281
     0
282
     0
283
     1
284
     0
285
     0
286
     0
287
     3
288
     0
  0
ENDTAB
  0
TABLE
  2
BLOCK_RECORD
  5
4E
330
0
100
AcDbSymbolTable
 70
     6
  0
BLOCK_RECORD
  5
6B
102
{ACAD_XDICTIONARY
360
E5
102
}
330
4E
100
AcDbSymbolTableRecord
100
AcDbBlockTableRecord
  2
*MODEL_SPACE
  0
BLOCK_RECORD
  5
67
102
{ACAD_XDICTIONARY
360
E3
102
}
330
4E
100
AcDbSymbolTableRecord
100
AcDbBlockTableRecord
  2
*PAPER_SPACE
  0
BLOCK_RECORD
  5
79
330
4E
100
AcDbSymbolTableRecord
100
AcDbBlockTableRecord
  2
106SAET
  0
BLOCK_RECORD
  5
7E
330
4E
100
AcDbSymbolTableRecord
100
AcDbBlockTableRecord
  2
100CROSS
  0
BLOCK_RECORD
  5
84
330
4E
100
AcDbSymbolTableRecord
100
AcDbBlockTableRecord
  2
050CROSS
  0
BLOCK_RECORD
  5
8F
330
4E
100
AcDbSymbolTableRecord
100
AcDbBlockTableRecord
  2
08SAET
  0
BLOCK_RECORD
  5
97
330
4E
100
AcDbSymbolTableRecord
100
AcDbBlockTableRecord
  2
012SAET
  0
BLOCK_RECORD
  5
99
330
4E
100
AcDbSymbolTableRecord
100
AcDbBlockTableRecord
  2
12SAET
  0
ENDTAB
  0
ENDSEC
  0
SECTION
  2
BLOCKS
  0
BLOCK
  5
6C
330
6B
100
AcDbEntity
  8
0
100
AcDbBlockBegin
  2
*MODEL_SPACE
 70
     0
 10
0.0
 20
0.0
 30
0.0
  3
*MODEL_SPACE
  1

  0
ENDBLK
  5
6D
330
6B
100
AcDbEntity
  8
0
100
AcDbBlockEnd
  0
BLOCK
  5
68
330
67
100
AcDbEntity
 67
     1
  8
0
100
AcDbBlockBegin
  2
*PAPER_SPACE
 70
     0
 10
0.0
 20
0.0
 30
0.0
  3
*PAPER_SPACE
  1

  0
ENDBLK
  5
69
330
67
100
AcDbEntity
 67
     1
  8
0
100
AcDbBlockEnd
  0
BLOCK
  5
7A
330
79
100
AcDbEntity
  8
0
100
AcDbBlockBegin
  2
106SAET
 70
     0
 10
0.0
 20
0.0
 30
0.0
  3
106SAET
  1

  0
CIRCLE
  5
7B
330
79
100
AcDbEntity
  8
CSOLID
100
AcDbCircle
 10
0.0
 20
0.0
 30
0.0
 40
0.4920000000000001
  0
CIRCLE
  5
7C
330
79
100
AcDbEntity
  8
CSOLID
100
AcDbCircle
 10
0.0
 20
0.0
 30
0.0
 40
0.453
  0
CIRCLE
  5
7D
330
79
100
AcDbEntity
  8
CSOLID
100
AcDbCircle
 10
0.0
 20
0.0
 30
0.0
 40
0.8125
  0
INSERT
  5
7F
330
79
100
AcDbEntity
  8
CCENTER
100
AcDbBlockReference
  2
100CROSS
 10
0.0
 20
0.0
 30
0.0
 41
1.33
 42
1.33
  0
CIRCLE
  5
80
330
79
100
AcDbEntity
  8
CHIDDEN
100
AcDbCircle
 10
0.0
 20
0.0
 30
0.0
 40
0.53125
  0
CIRCLE
  5
81
330
79
100
AcDbEntity
  8
PHANTOM
100
AcDbCircle
 10
0.0
 20
0.0
 30
0.0
 40
0.725
  0
ENDBLK
  5
82
330
79
100
AcDbEntity
  8
0
100
AcDbBlockEnd
  0
BLOCK
  5
83
330
7E
100
AcDbEntity
  8
0
100
AcDbBlockBegin
  2
100CROSS
 70
     0
 10
5.625
 20
4.59375
 30
0.0
  3
100CROSS
  1

  0
INSERT
  5
85
330
7E
100
AcDbEntity
  8
0
100
AcDbBlockReference
  2
050CROSS
 10
5.625
 20
4.59375
 30
0.0
  0
ENDBLK
  5
86
330
7E
100
AcDbEntity
  8
0
100
AcDbBlockEnd
  0
BLOCK
  5
87
330
84
100
AcDbEntity
  8
0
100
AcDbBlockBegin
  2
050CROSS
 70
     0
 10
5.0
 20
5.0
 30
0.0
  3
050CROSS
  1

  0
LINE
  5
88
330
84
100
AcDbEntity
  8
0
100
AcDbLine
 10
5.0
 20
5.28125
 30
0.0
 11
5.0
 21
5.78125
 31
0.0
  0
LINE
  5
89
330
84
100
AcDbEntity
  8
0
100
AcDbLine
 10
5.0
 20
4.875
 30
0.0
 11
5.0
 21
5.125
 31
0.0
  0
LINE
  5
8A
330
84
100
AcDbEntity
  8
0
100
AcDbLine
 10
5.0
 20
4.15625
 30
0.0
 11
5.0
 21
4.71875
 31
0.0
  0
LINE
  5
8B
330
84
100
AcDbEntity
  8
0
100
AcDbLine
 10
5.25
 20
5.0
 30
0.0
 11
5.8125
 21
5.0
 31
0.0
  0
LINE
  5
8C
330
84
100
AcDbEntity
  8
0
100
AcDbLine
 10
4.90625
 20
5.0
 30
0.0
 11
5.09375
 21
5.0
 31
0.0
  0
LINE
  5
8D
330
84
100
AcDbEntity
  8
0
100
AcDbLine
 10
4.1875
 20
5.0
 30
0.0
 11
4.75
 21
5.0
 31
0.0
  0
ENDBLK
  5
8E
330
84
100
AcDbEntity
  8
0
100
AcDbBlockEnd
  0
BLOCK
  5
90
330
8F
100
AcDbEntity
  8
0
100
AcDbBlockBegin
  2
08SAET
 70
     0
 10
0.0
 20
0.0
 30
0.0
  3
08SAET
  1

  0
CIRCLE
  5
91
330
8F
100
AcDbEntity
  8
DAMAN
100
AcDbCircle
 10
0.0
 20
0.0
 30
0.0
 40
0.375
  0
CIRCLE
  5
92
330
8F
100
AcDbEntity
  8
DAMAN
100
AcDbCircle
 10
0.0
 20
0.0
 30
0.0
 40
0.3125
  0
CIRCLE
  5
93
330
8F
100
AcDbEntity
  8
DAMAN
  6
HIDDEN
100
AcDbCircle
 10
0.0
 20
0.0
 30
0.0
 40
0.3439999999999999
  0
INSERT
  5
94
330
8F
100
AcDbEntity
  8
DAMAN
100
AcDbBlockReference
  2
100CROSS
 10
0.0
 20
0.0
 30
0.0
 41
0.88
 42
0.88
  0
CIRCLE
  5
95
330
8F
100
AcDbEntity
  8
DAMAN
100
AcDbCircle
 10
0.0
 20
0.0
 30
0.0
 40
0.594
  0
ENDBLK
  5
96
330
8F
100
AcDbEntity
  8
0
100
AcDbBlockEnd
  0
BLOCK
  5
98
330
97
100
AcDbEntity
  8
0
100
AcDbBlockBegin
  2
012SAET
 70
     0
 10
0.0
 20
0.0
 30
0.0
  3
012SAET
  1

  0
INSERT
  5
9A
330
97
100
AcDbEntity
  8
DAMAN
100
AcDbBlockReference
  2
12SAET
 10
0.0
 20
0.0
 30
0.0
  0
ENDBLK
  5
9B
330
97
100
AcDbEntity
  8
0
100
AcDbBlockEnd
  0
BLOCK
  5
9C
330
99
100
AcDbEntity
  8
0
100
AcDbBlockBegin
  2
12SAET
 70
     0
 10
0.0
 20
0.0
 30
0.0
  3
12SAET
  1

  0
CIRCLE
  5
9D
330
99
100
AcDbEntity
  8
DAMAN
100
AcDbCircle
 10
0.0
 20
0.0
 30
0.0
 40
0.4920000000000001
  0
CIRCLE
  5
9E
330
99
100
AcDbEntity
  8
DAMAN
100
AcDbCircle
 10
0.0
 20
0.0
 30
0.0
 40
0.453
  0
CIRCLE
  5
9F
330
99
100
AcDbEntity
  8
DAMAN
100
AcDbCircle
 10
0.0
 20
0.0
 30
0.0
 40
0.8125
  0
INSERT
  5
A0
330
99
100
AcDbEntity
  8
DAMAN
100
AcDbBlockReference
  2
100CROSS
 10
0.0
 20
0.0
 30
0.0
 41
1.33
 42
1.33
  0
CIRCLE
  5
A1
330
99
100
AcDbEntity
  8
DAMAN
100
AcDbCircle
 10
0.0
 20
0.0
 30
0.0
 40
0.53125
  0
ENDBLK
  5
A2
330
99
100
AcDbEntity
  8
0
100
AcDbBlockEnd
  0
ENDSEC
  0
SECTION
  2
ENTITIES
  0
LINE
  5
A3
330
6B
100
AcDbEntity
  8
DAMAN
100
AcDbLine
 10
1.625
 20
6.125
 30
0.0
 11
3.875
 21
6.125
 31
0.0
  0
LINE
  5
A4
330
6B
100
AcDbEntity
  8
DAMAN
100
AcDbLine
 10
3.875
 20
6.125
 30
0.0
 11
3.875
 21
3.875
 31
0.0
  0
LINE
  5
A5
330
6B
100
AcDbEntity
  8
DAMAN
100
AcDbLine
 10
3.875
 20
3.875
 30
0.0
 11
1.625
 21
3.875
 31
0.0
  0
LINE
  5
A6
330
6B
100
AcDbEntity
  8
DAMAN
100
AcDbLine
 10
1.625
 20
3.875
 30
0.0
 11
1.625
 21
6.125
 31
0.0
  0
LINE
  5
A7
330
6B
100
AcDbEntity
  8
DAMAN
100
AcDbLine
 10
4.75
 20
3.875
 30
0.0
 11
10.12499999999999
 21
3.875
 31
0.0
  0
LINE
  5
A8
330
6B
100
AcDbEntity
  8
DAMAN
100
AcDbLine
 10
10.12499999999999
 20
3.875
 30
0.0
 11
10.12499999999999
 21
6.125
 31
0.0
  0
LINE
  5
A9
330
6B
100
AcDbEntity
  8
DAMAN
100
AcDbLine
 10
10.12499999999999
 20
6.125
 30
0.0
 11
4.75
 21
6.125
 31
0.0
  0
LINE
  5
AA
330
6B
100
AcDbEntity
  8
DAMAN
100
AcDbLine
 10
4.75
 20
6.125
 30
0.0
 11
4.75
 21
3.875
 31
0.0
  0
INSERT
  5
AB
330
6B
100
AcDbEntity
  8
DAMAN
100
AcDbBlockReference
  2
08SAET
 10
6.25
 20
5.0
 30
0.0
  0
INSERT
  5
AC
330
6B
100
AcDbEntity
  8
DAMAN
100
AcDbBlockReference
  2
08SAET
 10
8.625
 20
5.0
 30
0.0
  0
CIRCLE
  5
AD
330
6B
100
AcDbEntity
  8
DAMAN
100
AcDbCircle
 10
5.0625
 20
5.875
 30
0.0
 40
0.1405
  0
INSERT
  5
AE
330
6B
100
AcDbEntity
  8
DAMAN
100
AcDbBlockReference
  2
100CROSS
 10
5.0625
 20
5.875
 30
0.0
 41
0.24728
 42
0.24728
 43
0.281
  0
INSERT
  5
AF
330
6B
100
AcDbEntity
  8
DAMAN
100
AcDbBlockReference
  2
100CROSS
 10
9.8125
 20
4.125
 30
0.0
 41
0.24728
 42
0.24728
 43
0.281
  0
CIRCLE
  5
B0
330
6B
100
AcDbEntity
  8
DAMAN
100
AcDbCircle
 10
9.8125
 20
4.125
 30
0.0
 40
0.1405
  0
LINE
  5
B1
330
6B
100
AcDbEntity
  8
DAMAN
100
AcDbLine
 10
11.0
 20
3.875
 30
0.0
 11
11.0
 21
6.125
 31
0.0
  0
LINE
  5
B2
330
6B
100
AcDbEntity
  8
DAMAN
100
AcDbLine
 10
13.25
 20
6.125
 30
0.0
 11
13.25
 21
3.875
 31
0.0
  0
LINE
  5
B3
330
6B
100
AcDbEntity
  8
DAMAN
100
AcDbLine
 10
13.25
 20
3.875
 30
0.0
 11
11.0
 21
3.875
 31
0.0
  0
LINE
  5
B4
330
6B
100
AcDbEntity
  8
DAMAN
100
AcDbLine
 10
11.0
 20
6.125
 30
0.0
 11
13.25
 21
6.125
 31
0.0
  0
LINE
  5
B5
330
6B
100
AcDbEntity
  8
DAMAN
100
AcDbLine
 10
4.75
 20
0.875
 30
0.0
 11
10.12499999999999
 21
0.875
 31
0.0
  0
LINE
  5
B6
330
6B
100
AcDbEntity
  8
DAMAN
100
AcDbLine
 10
10.12499999999999
 20
0.875
 30
0.0
 11
10.12499999999999
 21
3.125
 31
0.0
  0
CIRCLE
  5
B7
330
6B
100
AcDbEntity
  8
DAMAN
100
AcDbCircle
 10
9.8125
 20
1.125
 30
0.0
 40
0.1405
  0
INSERT
  5
B8
330
6B
100
AcDbEntity
  8
DAMAN
100
AcDbBlockReference
  2
100CROSS
 10
9.8125
 20
1.125
 30
0.0
 41
0.24728
 42
0.24728
 43
0.281
  0
LINE
  5
B9
330
6B
100
AcDbEntity
  8
DAMAN
100
AcDbLine
 10
10.12499999999999
 20
3.125
 30
0.0
 11
4.75
 21
3.125
 31
0.0
  0
LINE
  5
BA
330
6B
100
AcDbEntity
  8
DAMAN
100
AcDbLine
 10
4.75
 20
3.125
 30
0.0
 11
4.75
 21
0.875
 31
0.0
  0
CIRCLE
  5
BB
330
6B
100
AcDbEntity
  8
DAMAN
100
AcDbCircle
 10
5.0625
 20
2.875
 30
0.0
 40
0.1405
  0
INSERT
  5
BC
330
6B
100
AcDbEntity
  8
DAMAN
100
AcDbBlockReference
  2
100CROSS
 10
5.0625
 20
2.875
 30
0.0
 41
0.24728
 42
0.24728
 43
0.281
  0
TEXT
  5
BD
330
6B
100
AcDbEntity
  8
DAMAN
100
AcDbText
 10
6.375
 20
5.8125
 30
0.0
 40
0.2
  1
DAMAN ****
100
AcDbText
  0
INSERT
  5
BE
330
6B
100
AcDbEntity
  8
DAMAN
100
AcDbBlockReference
  2
012SAET
 10
2.75
 20
5.0
 30
0.0
  0
INSERT
  5
BF
330
6B
100
AcDbEntity
  8
DAMAN
100
AcDbBlockReference
  2
012SAET
 10
12.125
 20
5.0
 30
0.0
  0
ENDSEC
  0
SECTION
  2
OBJECTS
  0
DICTIONARY
  5
59
330
0
100
AcDbDictionary
  3
ACAD_GROUP
350
5A
  3
ACAD_LAYOUT
350
66
  3
ACAD_MLINESTYLE
350
63
  3
ACAD_PLOTSETTINGS
350
65
  3
ACAD_PLOTSTYLENAME
350
5B
  3
ACDBHEADERROUNDTRIPXREC
350
C3
  0
DICTIONARY
  5
E5
330
6B
100
AcDbDictionary
280
     1
  3
ACAD_LAYOUTSELFREF
360
E6
  0
DICTIONARY
  5
E3
330
67
100
AcDbDictionary
280
     1
  3
ACAD_LAYOUTSELFREF
360
E4
  0
DICTIONARY
  5
5A
102
{ACAD_REACTORS
330
59
102
}
330
59
100
AcDbDictionary
  0
DICTIONARY
  5
66
102
{ACAD_REACTORS
330
59
102
}
330
59
100
AcDbDictionary
  0
DICTIONARY
  5
63
102
{ACAD_REACTORS
330
59
102
}
330
59
100
AcDbDictionary
  3
STANDARD
350
64
  0
DICTIONARY
  5
65
102
{ACAD_REACTORS
330
59
102
}
330
59
100
AcDbDictionary
  0
ACDBDICTIONARYWDFLT
  5
5B
102
{ACAD_REACTORS
330
59
102
}
330
59
100
AcDbDictionary
281
     1
  3
Normal
350
5C
100
AcDbDictionaryWithDefault
340
5C
  0
DICTIONARY
  5
C3
102
{ACAD_REACTORS
330
59
102
}
330
59
100
AcDbDictionary
  3
CEPSNTYPE
350
CD
  3
FINGERPRINTGUID
350
CE
  3
HYPERLINKBASE
350
C6
  3
INSUNITS
350
CC
  3
LAYOUTDICT
350
C8
  3
LWETCUNION
350
CB
  3
PLOTSETDICT
350
C9
  3
PLOTSTYLNAMDICT
350
CA
  3
PSVPSCALE
350
D0
  3
PUCSBASE
350
D3
  3
PUCSORGBACK
350
D9
  3
PUCSORGBOTTOM
350
D5
  3
PUCSORGFRONT
350
D8
  3
PUCSORGLEFT
350
D6
  3
PUCSORGRIGHT
350
D7
  3
PUCSORGTOP
350
D4
  3
PUCSORTHOREF
350
D1
  3
PUCSORTHOVIEW
350
D2
  3
STYLESHEET
350
C7
  3
TSTACKALIGN
350
C4
  3
TSTACKSIZE
350
C5
  3
UCSBASE
350
DC
  3
UCSORGBACK
350
E2
  3
UCSORGBOTTOM
350
DE
  3
UCSORGFRONT
350
E1
  3
UCSORGLEFT
350
DF
  3
UCSORGRIGHT
350
E0
  3
UCSORGTOP
350
DD
  3
UCSORTHOREF
350
DA
  3
UCSORTHOVIEW
350
DB
  3
VERSIONGUID
350
CF
  0
XRECORD
  5
E6
102
{ACAD_REACTORS
330
E5
102
}
330
E5
100
AcDbXrecord
340
6B
  0
XRECORD
  5
E4
102
{ACAD_REACTORS
330
E3
102
}
330
E3
100
AcDbXrecord
340
67
  0
MLINESTYLE
  5
64
102
{ACAD_REACTORS
330
63
102
}
330
63
100
AcDbMlineStyle
  2
STANDARD
 70
     0
  3

 62
   256
 51
90.0
 52
90.0
 71
     2
 49
0.5
 62
   256
  6
BYLAYER
 49
-0.5
 62
   256
  6
BYLAYER
  0
ACDBPLACEHOLDER
  5
5C
102
{ACAD_REACTORS
330
5B
102
}
330
5B
100
AcDbPlaceHolder
280
     0
  0
XRECORD
  5
CD
102
{ACAD_REACTORS
330
C3
102
}
330
C3
100
AcDbXrecord
 90
        0
  0
XRECORD
  5
CE
102
{ACAD_REACTORS
330
C3
102
}
330
C3
100
AcDbXrecord
  1
{16482F47-3AA6-46AE-A8D9-32E693782958}
  0
XRECORD
  5
C6
102
{ACAD_REACTORS
330
C3
102
}
330
C3
100
AcDbXrecord
  1

  0
XRECORD
  5
CC
102
{ACAD_REACTORS
330
C3
102
}
330
C3
100
AcDbXrecord
 90
        0
  0
XRECORD
  5
C8
102
{ACAD_REACTORS
330
C3
102
}
330
C3
100
AcDbXrecord
340
66
  0
XRECORD
  5
CB
102
{ACAD_REACTORS
330
C3
102
}
330
C3
100
AcDbXrecord
 90
    10781
  0
XRECORD
  5
C9
102
{ACAD_REACTORS
330
C3
102
}
330
C3
100
AcDbXrecord
340
65
  0
XRECORD
  5
CA
102
{ACAD_REACTORS
330
C3
102
}
330
C3
100
AcDbXrecord
340
5B
  0
XRECORD
  5
D0
102
{ACAD_REACTORS
330
C3
102
}
330
C3
100
AcDbXrecord
 40
0.0
  0
XRECORD
  5
D3
102
{ACAD_REACTORS
330
C3
102
}
330
C3
100
AcDbXrecord
340
0
  0
XRECORD
  5
D9
102
{ACAD_REACTORS
330
C3
102
}
330
C3
100
AcDbXrecord
 10
0.0
 20
0.0
 30
0.0
  0
XRECORD
  5
D5
102
{ACAD_REACTORS
330
C3
102
}
330
C3
100
AcDbXrecord
 10
0.0
 20
0.0
 30
0.0
  0
XRECORD
  5
D8
102
{ACAD_REACTORS
330
C3
102
}
330
C3
100
AcDbXrecord
 10
0.0
 20
0.0
 30
0.0
  0
XRECORD
  5
D6
102
{ACAD_REACTORS
330
C3
102
}
330
C3
100
AcDbXrecord
 10
0.0
 20
0.0
 30
0.0
  0
XRECORD
  5
D7
102
{ACAD_REACTORS
330
C3
102
}
330
C3
100
AcDbXrecord
 10
0.0
 20
0.0
 30
0.0
  0
XRECORD
  5
D4
102
{ACAD_REACTORS
330
C3
102
}
330
C3
100
AcDbXrecord
 10
0.0
 20
0.0
 30
0.0
  0
XRECORD
  5
D1
102
{ACAD_REACTORS
330
C3
102
}
330
C3
100
AcDbXrecord
340
0
  0
XRECORD
  5
D2
102
{ACAD_REACTORS
330
C3
102
}
330
C3
100
AcDbXrecord
 70
     0
  0
XRECORD
  5
C7
102
{ACAD_REACTORS
330
C3
102
}
330
C3
100
AcDbXrecord
  1

  0
XRECORD
  5
C4
102
{ACAD_REACTORS
330
C3
102
}
330
C3
100
AcDbXrecord
 90
        1
  0
XRECORD
  5
C5
102
{ACAD_REACTORS
330
C3
102
}
330
C3
100
AcDbXrecord
 90
       70
  0
XRECORD
  5
DC
102
{ACAD_REACTORS
330
C3
102
}
330
C3
100
AcDbXrecord
340
0
  0
XRECORD
  5
E2
102
{ACAD_REACTORS
330
C3
102
}
330
C3
100
AcDbXrecord
 10
0.0
 20
0.0
 30
0.0
  0
XRECORD
  5
DE
102
{ACAD_REACTORS
330
C3
102
}
330
C3
100
AcDbXrecord
 10
0.0
 20
0.0
 30
0.0
  0
XRECORD
  5
E1
102
{ACAD_REACTORS
330
C3
102
}
330
C3
100
AcDbXrecord
 10
0.0
 20
0.0
 30
0.0
  0
XRECORD
  5
DF
102
{ACAD_REACTORS
330
C3
102
}
330
C3
100
AcDbXrecord
 10
0.0
 20
0.0
 30
0.0
  0
XRECORD
  5
E0
102
{ACAD_REACTORS
330
C3
102
}
330
C3
100
AcDbXrecord
 10
0.0
 20
0.0
 30
0.0
  0
XRECORD
  5
DD
102
{ACAD_REACTORS
330
C3
102
}
330
C3
100
AcDbXrecord
 10
0.0
 20
0.0
 30
0.0
  0
XRECORD
  5
DA
102
{ACAD_REACTORS
330
C3
102
}
330
C3
100
AcDbXrecord
340
0
  0
XRECORD
  5
DB
102
{ACAD_REACTORS
330
C3
102
}
330
C3
100
AcDbXrecord
 70
     0
  0
XRECORD
  5
CF
102
{ACAD_REACTORS
330
C3
102
}
330
C3
100
AcDbXrecord
  1
{8C824F9C-A88B-4AB1-A74C-67DA9FA877C6}
  0
ENDSEC
  0
EOF
