  0
SECTION
  2
HEADER
  9
$ACADVER
  1
AC1014
  9
$ACADMAINTVER
 70
     9
  9
$DWGCODEPAGE
  3
ANSI_1252
  9
$INSBASE
 10
0.0
 20
0.0
 30
0.0
  9
$EXTMIN
 10
2.280831935430498
 20
6.468442327182536
 30
-0.0000000000112498
  9
$EXTMAX
 10
62.09826172337321
 20
26.87686360434338
 30
0.0000000000002956
  9
$LIMMIN
 10
0.0
 20
0.0
  9
$LIMMAX
 10
12.0
 20
9.0
  9
$ORTHOMODE
 70
     0
  9
$REGENMODE
 70
     1
  9
$FILLMODE
 70
     1
  9
$QTEXTMODE
 70
     0
  9
$MIRRTEXT
 70
     1
  9
$DRAGMODE
 70
     2
  9
$LTSCALE
 40
1.0
  9
$OSMODE
 70
    37
  9
$ATTMODE
 70
     1
  9
$TEXTSIZE
 40
0.2
  9
$TRACEWID
 40
0.05
  9
$TEXTSTYLE
  7
STANDARD
  9
$CLAYER
  8
0
  9
$CELTYPE
  6
CONTINUOUS
  9
$CECOLOR
 62
   256
  9
$CELTSCALE
 40
1.0
  9
$DELOBJ
 70
     1
  9
$DISPSILH
 70
     0
  9
$DIMSCALE
 40
1.0
  9
$DIMASZ
 40
0.18
  9
$DIMEXO
 40
0.0625
  9
$DIMDLI
 40
0.38
  9
$DIMRND
 40
0.0
  9
$DIMDLE
 40
0.0
  9
$DIMEXE
 40
0.18
  9
$DIMTP
 40
0.0
  9
$DIMTM
 40
0.0
  9
$DIMTXT
 40
0.18
  9
$DIMCEN
 40
0.09
  9
$DIMTSZ
 40
0.0
  9
$DIMTOL
 70
     0
  9
$DIMLIM
 70
     0
  9
$DIMTIH
 70
     1
  9
$DIMTOH
 70
     1
  9
$DIMSE1
 70
     0
  9
$DIMSE2
 70
     0
  9
$DIMTAD
 70
     0
  9
$DIMZIN
 70
     0
  9
$DIMBLK
  1

  9
$DIMASO
 70
     1
  9
$DIMSHO
 70
     1
  9
$DIMPOST
  1

  9
$DIMAPOST
  1

  9
$DIMALT
 70
     0
  9
$DIMALTD
 70
     2
  9
$DIMALTF
 40
25.4
  9
$DIMLFAC
 40
1.0
  9
$DIMTOFL
 70
     0
  9
$DIMTVP
 40
0.0
  9
$DIMTIX
 70
     0
  9
$DIMSOXD
 70
     0
  9
$DIMSAH
 70
     0
  9
$DIMBLK1
  1

  9
$DIMBLK2
  1

  9
$DIMSTYLE
  2
STANDARD
  9
$DIMCLRD
 70
     0
  9
$DIMCLRE
 70
     0
  9
$DIMCLRT
 70
     0
  9
$DIMTFAC
 40
1.0
  9
$DIMGAP
 40
0.09
  9
$DIMJUST
 70
     0
  9
$DIMSD1
 70
     0
  9
$DIMSD2
 70
     0
  9
$DIMTOLJ
 70
     1
  9
$DIMTZIN
 70
     0
  9
$DIMALTZ
 70
     0
  9
$DIMALTTZ
 70
     0
  9
$DIMFIT
 70
     3
  9
$DIMUPT
 70
     0
  9
$DIMUNIT
 70
     2
  9
$DIMDEC
 70
     4
  9
$DIMTDEC
 70
     4
  9
$DIMALTU
 70
     2
  9
$DIMALTTD
 70
     2
  9
$DIMTXSTY
  7
STANDARD
  9
$DIMAUNIT
 70
     0
  9
$LUNITS
 70
     2
  9
$LUPREC
 70
     4
  9
$SKETCHINC
 40
0.1
  9
$FILLETRAD
 40
0.0
  9
$AUNITS
 70
     0
  9
$AUPREC
 70
     0
  9
$MENU
  1
.
  9
$ELEVATION
 40
0.0
  9
$PELEVATION
 40
0.0
  9
$THICKNESS
 40
0.0
  9
$LIMCHECK
 70
     0
  9
$BLIPMODE
 70
     0
  9
$CHAMFERA
 40
0.0
  9
$CHAMFERB
 40
0.0
  9
$CHAMFERC
 40
0.0
  9
$CHAMFERD
 40
0.0
  9
$SKPOLY
 70
     0
  9
$TDCREATE
 40
2453439.413428506
  9
$TDUPDATE
 40
2453440.620383993
  9
$TDINDWG
 40
0.0066256134
  9
$TDUSRTIMER
 40
0.0066256134
  9
$USRTIMER
 70
     1
  9
$ANGBASE
 50
0.0
  9
$ANGDIR
 70
     0
  9
$PDMODE
 70
     0
  9
$PDSIZE
 40
0.0
  9
$PLINEWID
 40
0.0
  9
$COORDS
 70
     1
  9
$SPLFRAME
 70
     0
  9
$SPLINETYPE
 70
     6
  9
$SPLINESEGS
 70
     8
  9
$ATTDIA
 70
     0
  9
$ATTREQ
 70
     1
  9
$HANDLING
 70
-16383
  9
$HANDSEED
  5
89F
  9
$SURFTAB1
 70
     6
  9
$SURFTAB2
 70
     6
  9
$SURFTYPE
 70
     6
  9
$SURFU
 70
     6
  9
$SURFV
 70
     6
  9
$UCSNAME
  2

  9
$UCSORG
 10
0.0
 20
0.0
 30
0.0
  9
$UCSXDIR
 10
1.0
 20
0.0
 30
0.0
  9
$UCSYDIR
 10
0.0
 20
1.0
 30
0.0
  9
$PUCSNAME
  2

  9
$PUCSORG
 10
0.0
 20
0.0
 30
0.0
  9
$PUCSXDIR
 10
1.0
 20
0.0
 30
0.0
  9
$PUCSYDIR
 10
0.0
 20
1.0
 30
0.0
  9
$USERI1
 70
     0
  9
$USERI2
 70
     0
  9
$USERI3
 70
     0
  9
$USERI4
 70
     0
  9
$USERI5
 70
     0
  9
$USERR1
 40
0.0
  9
$USERR2
 40
0.0
  9
$USERR3
 40
0.0
  9
$USERR4
 40
0.0
  9
$USERR5
 40
0.0
  9
$WORLDVIEW
 70
     1
  9
$SHADEDGE
 70
     3
  9
$SHADEDIF
 70
    70
  9
$TILEMODE
 70
     1
  9
$MAXACTVP
 70
    64
  9
$PINSBASE
 10
0.0
 20
0.0
 30
0.0
  9
$PLIMCHECK
 70
     0
  9
$PEXTMIN
 10
1.000000000000000E+20
 20
1.000000000000000E+20
 30
1.000000000000000E+20
  9
$PEXTMAX
 10
-1.000000000000000E+20
 20
-1.000000000000000E+20
 30
-1.000000000000000E+20
  9
$PLIMMIN
 10
0.0
 20
0.0
  9
$PLIMMAX
 10
12.0
 20
9.0
  9
$UNITMODE
 70
     0
  9
$VISRETAIN
 70
     1
  9
$PLINEGEN
 70
     0
  9
$PSLTSCALE
 70
     1
  9
$TREEDEPTH
 70
  3020
  9
$PICKSTYLE
 70
     1
  9
$CMLSTYLE
  2
STANDARD
  9
$CMLJUST
 70
     0
  9
$CMLSCALE
 40
1.0
  9
$PROXYGRAPHICS
 70
     1
  9
$MEASUREMENT
 70
     0
  0
ENDSEC
  0
SECTION
  2
CLASSES
  0
CLASS
  1
ACDBDICTIONARYWDFLT
  2
AcDbDictionaryWithDefault
  3
AutoCAD 2000
 90
        0
280
     0
281
     0
  0
CLASS
  1
ACDBPLACEHOLDER
  2
AcDbPlaceHolder
  3
AutoCAD 2000
 90
        0
280
     0
281
     0
  0
CLASS
  1
LAYOUT
  2
AcDbLayout
  3
AutoCAD 2000
 90
        0
280
     0
281
     0
  0
CLASS
  1
LONG_TRANSACTION
  2
AcDbLongTransaction
  3
AutoCAD 2000
 90
        0
280
     0
281
     0
  0
CLASS
  1
LWPOLYLINE
  2
AcDbPolyline
  3
AutoCAD 2000
 90
        0
280
     0
281
     1
  0
CLASS
  1
HATCH
  2
AcDbHatch
  3
AutoCAD 2000
 90
        0
280
     0
281
     1
  0
CLASS
  1
XRECORD
  2
AcDbXrecord
  3
AutoCAD 2000
 90
        0
280
     0
281
     0
  0
CLASS
  1
LONG_TRANSACTION
  2
AcDbLongTransaction
  3
AutoCAD 2000
 90
        0
280
     0
281
     0
  0
CLASS
  1
LWPOLYLINE
  2
AcDbPolyline
  3
AutoCAD 2000
 90
        0
280
     0
281
     1
  0
CLASS
  1
HATCH
  2
AcDbHatch
  3
AutoCAD 2000
 90
        0
280
     0
281
     1
  0
CLASS
  1
XRECORD
  2
AcDbXrecord
  3
AutoCAD 2000
 90
        0
280
     0
281
     0
  0
CLASS
  1
LONG_TRANSACTION
  2
AcDbLongTransaction
  3
AutoCAD 2000
 90
        0
280
     0
281
     0
  0
CLASS
  1
LWPOLYLINE
  2
AcDbPolyline
  3
AutoCAD 2000
 90
        0
280
     0
281
     1
  0
CLASS
  1
HATCH
  2
AcDbHatch
  3
AutoCAD 2000
 90
        0
280
     0
281
     1
  0
CLASS
  1
XRECORD
  2
AcDbXrecord
  3
AutoCAD 2000
 90
        0
280
     0
281
     0
  0
ENDSEC
  0
SECTION
  2
TABLES
  0
TABLE
  2
VPORT
  5
8
330
0
100
AcDbSymbolTable
 70
     2
  0
VPORT
  5
87C
330
8
100
AcDbSymbolTableRecord
100
AcDbViewportTableRecord
  2
*ACTIVE
 70
     0
 10
0.0
 20
0.0
 11
1.0
 21
1.0
 12
32.31640667610991
 22
16.51578266249838
 13
0.0
 23
0.0
 14
1.0
 24
1.0
 15
0.0
 25
0.0
 16
0.0
 26
0.0
 36
1.0
 17
0.0
 27
0.0
 37
0.0
 40
40.15452984229663
 41
1.647569444444444
 42
50.0
 43
0.0
 44
0.0
 50
0.0
 51
0.0
 71
     0
 72
   100
 73
     1
 74
     1
 75
     0
 76
     0
 77
     0
 78
     0
  0
ENDTAB
  0
TABLE
  2
LTYPE
  5
5
330
0
100
AcDbSymbolTable
 70
    12
  0
LTYPE
  5
13
330
5
100
AcDbSymbolTableRecord
100
AcDbLinetypeTableRecord
  2
BYBLOCK
 70
     0
  3

 72
    65
 73
     0
 40
0.0
  0
LTYPE
  5
14
330
5
100
AcDbSymbolTableRecord
100
AcDbLinetypeTableRecord
  2
BYLAYER
 70
     0
  3

 72
    65
 73
     0
 40
0.0
  0
LTYPE
  5
15
330
5
100
AcDbSymbolTableRecord
100
AcDbLinetypeTableRecord
  2
CONTINUOUS
 70
     0
  3
Solid line
 72
    65
 73
     0
 40
0.0
  0
LTYPE
  5
22
330
5
100
AcDbSymbolTableRecord
100
AcDbLinetypeTableRecord
  2
DASHED
 70
     0
  3
__ __ __ __ __ __ __ __ __ __ __ __ __ __ __
 72
    65
 73
     2
 40
0.6891850000000001
 49
0.258444
 74
     0
 49
-0.129222
 74
     0
  0
LTYPE
  5
23
330
5
100
AcDbSymbolTableRecord
100
AcDbLinetypeTableRecord
  2
DOT
 70
     0
  3
...............................................
 72
    65
 73
     2
 40
0.129222
 49
0.0
 74
     0
 49
-0.129222
 74
     0
  0
LTYPE
  5
24
330
5
100
AcDbSymbolTableRecord
100
AcDbLinetypeTableRecord
  2
DASHDOT
 70
     0
  3
__ . __ . __ . __ . __ . __ . __ . __ . __ . __
 72
    65
 73
     4
 40
0.5168890000000001
 49
0.258444
 74
     0
 49
-0.129222
 74
     0
 49
0.0
 74
     0
 49
-0.129222
 74
     0
  0
LTYPE
  5
25
330
5
100
AcDbSymbolTableRecord
100
AcDbLinetypeTableRecord
  2
CENTER
 70
     0
  3
____ _ ____ _ ____ _ ____ _ ____ _ ____ _ ____
 72
    65
 73
     4
 40
1.033778
 49
0.646111
 74
     0
 49
-0.129222
 74
     0
 49
0.129222
 74
     0
 49
-0.129222
 74
     0
  0
LTYPE
  5
26
330
5
100
AcDbSymbolTableRecord
100
AcDbLinetypeTableRecord
  2
PHANTOM
 70
     0
  3
_____ _ _ _____ _ _ _____ _ _ _____ _ _ ____
 72
    65
 73
     6
 40
1.292221999999997
 49
0.646111
 74
     0
 49
-0.129222
 74
     0
 49
0.129222
 74
     0
 49
-0.129222
 74
     0
 49
0.129222
 74
     0
 49
-0.129222
 74
     0
  0
LTYPE
  5
27
330
5
100
AcDbSymbolTableRecord
100
AcDbLinetypeTableRecord
  2
HIDDEN
 70
     0
  3
_ _ _ _ _ _ _ _ _ _ _ _ _ _ _ _ _ _ _ _ _ _ _
 72
    65
 73
     2
 40
0.5168890000000001
 49
0.344593
 74
     0
 49
-0.172296
 74
     0
  0
LTYPE
  5
28
330
5
100
AcDbSymbolTableRecord
100
AcDbLinetypeTableRecord
  2
BORDER
 70
     0
  3
__ __ . __ __ . __ __ . __ __ . __ __ . __ __
 72
    65
 73
     6
 40
0.9047059999999998
 49
0.129222
 74
     0
 49
-0.129222
 74
     0
 49
0.258444
 74
     0
 49
-0.129222
 74
     0
 49
0.0
 74
     0
 49
-0.129222
 74
     0
  0
LTYPE
  5
29
330
5
100
AcDbSymbolTableRecord
100
AcDbLinetypeTableRecord
  2
DIVIDE
 70
     0
  3
__ . . __ . . __ . . __ . . __ . . __ . . __
 72
    65
 73
     6
 40
-0.129222
 49
-0.129222
 74
     0
 49
-0.129222
 74
     0
 49
0.0
 74
     0
 49
-0.129222
 74
     0
 49
0.0
 74
     0
 49
-0.129222
 74
     0
  0
LTYPE
  5
2A
330
5
100
AcDbSymbolTableRecord
100
AcDbLinetypeTableRecord
  2
POINT31
 70
     0
  3
+                                          +
 72
    65
 73
     0
 40
0.0
  0
LTYPE
  5
2B
330
5
100
AcDbSymbolTableRecord
100
AcDbLinetypeTableRecord
  2
POINT63
 70
     0
  3
*                                          *
 72
    65
 73
     0
 40
0.0
  0
LTYPE
  5
2C
330
5
100
AcDbSymbolTableRecord
100
AcDbLinetypeTableRecord
  2
DBLDASH
 70
     0
  3
-- -- -- -- -- -- -- -- -- -- -- -- -- -- --
 72
    65
 73
     4
 40
0.452353
 49
0.129222
 74
     0
 49
-0.129222
 74
     0
 49
0.129222
 74
     0
 49
-0.129222
 74
     0
  0
ENDTAB
  0
TABLE
  2
LAYER
  5
2
330
0
100
AcDbSymbolTable
 70
     3
  0
LAYER
  5
10
330
2
100
AcDbSymbolTableRecord
100
AcDbLayerTableRecord
  2
0
 70
     0
 62
     5
  6
CONTINUOUS
  0
LAYER
  5
2D
330
2
100
AcDbSymbolTableRecord
100
AcDbLayerTableRecord
  2
PEN2
 70
     0
 62
     9
  6
PHANTOM
  0
LAYER
  5
72F
330
2
100
AcDbSymbolTableRecord
100
AcDbLayerTableRecord
  2
DAMAN
 70
     0
 62
     5
  6
CONTINUOUS
  0
ENDTAB
  0
TABLE
  2
STYLE
  5
3
330
0
100
AcDbSymbolTable
 70
     1
  0
STYLE
  5
11
330
3
100
AcDbSymbolTableRecord
100
AcDbTextStyleTableRecord
  2
STANDARD
 70
     0
 40
0.0
 41
1.0
 50
0.0
 71
     0
 42
0.2
  3
txt
  4

  0
ENDTAB
  0
TABLE
  2
VIEW
  5
6
330
0
100
AcDbSymbolTable
 70
     0
  0
ENDTAB
  0
TABLE
  2
UCS
  5
7
330
0
100
AcDbSymbolTable
 70
     0
  0
ENDTAB
  0
TABLE
  2
APPID
  5
9
330
0
100
AcDbSymbolTable
 70
     1
  0
APPID
  5
12
330
9
100
AcDbSymbolTableRecord
100
AcDbRegAppTableRecord
  2
ACAD
 70
     0
  0
ENDTAB
  0
TABLE
  2
DIMSTYLE
  5
A
330
0
100
AcDbSymbolTable
 70
     1
  0
DIMSTYLE
105
511
330
A
100
AcDbSymbolTableRecord
100
AcDbDimStyleTableRecord
  2
STANDARD
 70
     0
  3

  4

  5

  6

  7

 40
1.0
 41
0.18
 42
0.0625
 43
0.38
 44
0.18
 45
0.0
 46
0.0
 47
0.0
 48
0.0
140
0.18
141
0.09
142
0.0
143
25.4
144
1.0
145
0.0
146
1.0
147
0.09
 71
     0
 72
     0
 73
     1
 74
     1
 75
     0
 76
     0
 77
     0
 78
     0
170
     0
171
     2
172
     0
173
     0
174
     0
175
     0
176
     0
177
     0
178
     0
270
     2
271
     4
272
     4
273
     2
274
     2
340
11
275
     0
280
     0
281
     0
282
     0
283
     1
284
     0
285
     0
286
     0
287
     3
288
     0
  0
ENDTAB
  0
TABLE
  2
BLOCK_RECORD
  5
1
330
0
100
AcDbSymbolTable
 70
    13
  0
BLOCK_RECORD
  5
1E
102
{ACAD_XDICTIONARY
360
537
102
}
330
1
100
AcDbSymbolTableRecord
100
AcDbBlockTableRecord
  2
*MODEL_SPACE
  0
BLOCK_RECORD
  5
1A
102
{ACAD_XDICTIONARY
360
535
102
}
330
1
100
AcDbSymbolTableRecord
100
AcDbBlockTableRecord
  2
*PAPER_SPACE
  0
BLOCK_RECORD
  5
657
330
1
100
AcDbSymbolTableRecord
100
AcDbBlockTableRecord
  2
100CROSS
  0
BLOCK_RECORD
  5
65B
330
1
100
AcDbSymbolTableRecord
100
AcDbBlockTableRecord
  2
050CROSS
  0
BLOCK_RECORD
  5
664
330
1
100
AcDbSymbolTableRecord
100
AcDbBlockTableRecord
  2
A$C6C1E3A26
  0
BLOCK_RECORD
  5
6B8
330
1
100
AcDbSymbolTableRecord
100
AcDbBlockTableRecord
  2
A$C795C2FC0
  0
BLOCK_RECORD
  5
6BC
330
1
100
AcDbSymbolTableRecord
100
AcDbBlockTableRecord
  2
A$C4A9A30E6
  0
BLOCK_RECORD
  5
6FA
330
1
100
AcDbSymbolTableRecord
100
AcDbBlockTableRecord
  2
600MKS
  0
BLOCK_RECORD
  5
727
330
1
100
AcDbSymbolTableRecord
100
AcDbBlockTableRecord
  2
A$C0A7625C0
  0
BLOCK_RECORD
  5
72B
330
1
100
AcDbSymbolTableRecord
100
AcDbBlockTableRecord
  2
A$C72542925
  0
BLOCK_RECORD
  5
7DB
330
1
100
AcDbSymbolTableRecord
100
AcDbBlockTableRecord
  2
A$C64CF391A
  0
BLOCK_RECORD
  5
819
330
1
100
AcDbSymbolTableRecord
100
AcDbBlockTableRecord
  2
A$C46A623EC
  0
BLOCK_RECORD
  5
81E
330
1
100
AcDbSymbolTableRecord
100
AcDbBlockTableRecord
  2
A$C07121D74
  0
ENDTAB
  0
ENDSEC
  0
SECTION
  2
BLOCKS
  0
BLOCK
  5
1F
330
1E
100
AcDbEntity
  8
0
100
AcDbBlockBegin
  2
*MODEL_SPACE
 70
     0
 10
0.0
 20
0.0
 30
0.0
  3
*MODEL_SPACE
  1

  0
ENDBLK
  5
20
330
1E
100
AcDbEntity
  8
0
100
AcDbBlockEnd
  0
BLOCK
  5
1B
330
1A
100
AcDbEntity
 67
     1
  8
0
100
AcDbBlockBegin
  2
*PAPER_SPACE
 70
     0
 10
0.0
 20
0.0
 30
0.0
  3
*PAPER_SPACE
  1

  0
ENDBLK
  5
1C
330
1A
100
AcDbEntity
 67
     1
  8
0
100
AcDbBlockEnd
  0
BLOCK
  5
659
330
657
100
AcDbEntity
  8
0
100
AcDbBlockBegin
  2
100CROSS
 70
     0
 10
5.625
 20
4.59375
 30
0.0
  3
100CROSS
  1

  0
INSERT
  5
658
330
657
100
AcDbEntity
  8
0
100
AcDbMInsertBlock
  2
050CROSS
 10
5.625
 20
4.59375
 30
0.0
 70
     1
 71
     1
  0
ENDBLK
  5
65A
330
657
100
AcDbEntity
  8
0
100
AcDbBlockEnd
  0
BLOCK
  5
662
330
65B
100
AcDbEntity
  8
0
100
AcDbBlockBegin
  2
050CROSS
 70
     0
 10
5.0
 20
5.0
 30
0.0
  3
050CROSS
  1

  0
LINE
  5
65C
330
65B
100
AcDbEntity
  8
0
100
AcDbLine
 10
5.0
 20
5.28125
 30
0.0
 11
5.0
 21
5.78125
 31
0.0
  0
LINE
  5
65D
330
65B
100
AcDbEntity
  8
0
100
AcDbLine
 10
5.0
 20
4.875
 30
0.0
 11
5.0
 21
5.125
 31
0.0
  0
LINE
  5
65E
330
65B
100
AcDbEntity
  8
0
100
AcDbLine
 10
5.0
 20
4.15625
 30
0.0
 11
5.0
 21
4.71875
 31
0.0
  0
LINE
  5
65F
330
65B
100
AcDbEntity
  8
0
100
AcDbLine
 10
5.25
 20
5.0
 30
0.0
 11
5.8125
 21
5.0
 31
0.0
  0
LINE
  5
660
330
65B
100
AcDbEntity
  8
0
100
AcDbLine
 10
4.90625
 20
5.0
 30
0.0
 11
5.09375
 21
5.0
 31
0.0
  0
LINE
  5
661
330
65B
100
AcDbEntity
  8
0
100
AcDbLine
 10
4.1875
 20
5.0
 30
0.0
 11
4.75
 21
5.0
 31
0.0
  0
ENDBLK
  5
663
330
65B
100
AcDbEntity
  8
0
100
AcDbBlockEnd
  0
BLOCK
  5
6B6
330
664
100
AcDbEntity
  8
0
100
AcDbBlockBegin
  2
A$C6C1E3A26
 70
     0
 10
0.0
 20
0.0
 30
0.0
  3
A$C6C1E3A26
  1

  0
LINE
  5
665
330
664
100
AcDbEntity
  8
0
  6
HIDDEN
100
AcDbLine
 10
0.0
 20
-9.0
 30
0.0
 11
0.0
 21
0.0
 31
0.0
  0
INSERT
  5
666
330
664
100
AcDbEntity
  8
DAMAN
100
AcDbBlockReference
  2
100CROSS
 10
0.5
 20
-4.5
 30
0.0
 41
0.8
 42
0.8000000000000007
  0
LINE
  5
667
330
664
100
AcDbEntity
  8
DAMAN
100
AcDbLine
 10
-0.375
 20
-8.999500000000011
 30
0.0
 11
-0.375
 21
0.0004999999999917
 31
0.0
  0
LINE
  5
668
330
664
100
AcDbEntity
  8
DAMAN
100
AcDbLine
 10
-0.5625
 20
-8.999500000000011
 30
0.0
 11
-0.5625
 21
0.0004999999999917
 31
0.0
  0
LINE
  5
669
330
664
100
AcDbEntity
  8
DAMAN
100
AcDbLine
 10
1.0625
 20
0.0004999999999917
 30
0.0
 11
1.0625
 21
-8.999500000000011
 31
0.0
  0
INSERT
  5
66A
330
664
100
AcDbEntity
  8
DAMAN
100
AcDbBlockReference
  2
100CROSS
 10
0.5
 20
-8.312000000000001
 30
0.0
 41
0.8
 42
0.8000000000000007
  0
LWPOLYLINE
  5
66B
330
664
100
AcDbEntity
  8
DAMAN
100
AcDbPolyline
 90
        6
 70
     1
 43
0.0
 10
0.875
 20
-8.095494000000012
 10
0.5
 20
-7.878987000000012
 10
0.125
 20
-8.095494000000012
 10
0.125
 20
-8.528506000000009
 10
0.5
 20
-8.745013000000009
 10
0.875
 20
-8.528506000000009
  0
CIRCLE
  5
66C
330
664
100
AcDbEntity
  8
DAMAN
100
AcDbCircle
 10
0.5
 20
-8.312000000000001
 30
0.0
 40
0.375
  0
CIRCLE
  5
66D
330
664
100
AcDbEntity
  8
DAMAN
100
AcDbCircle
 10
0.5
 20
-8.312000000000001
 30
0.0
 40
0.53125
  0
LINE
  5
66E
330
664
100
AcDbEntity
  8
DAMAN
100
AcDbLine
 10
1.0625
 20
-8.999500000000011
 30
0.0
 11
-0.5625
 21
-8.999500000000011
 31
0.0
  0
LINE
  5
66F
330
664
100
AcDbEntity
  8
DAMAN
100
AcDbLine
 10
0.125
 20
-8.312000000000001
 30
0.0
 11
-1.40625
 21
-8.312000000000001
 31
0.0
  0
LINE
  5
670
330
664
100
AcDbEntity
  8
DAMAN
100
AcDbLine
 10
-0.5625
 20
-8.530750000000011
 30
0.0
 11
-1.3125
 21
-8.530750000000011
 31
0.0
  0
LINE
  5
671
330
664
100
AcDbEntity
  8
DAMAN
100
AcDbLine
 10
-0.5625
 20
-8.093250000000011
 30
0.0
 11
-1.3125
 21
-8.093250000000011
 31
0.0
  0
LINE
  5
672
330
664
100
AcDbEntity
  8
DAMAN
100
AcDbLine
 10
-1.28125
 20
-8.562000000000011
 30
0.0
 11
-0.5625
 21
-8.562000000000011
 31
0.0
  0
LINE
  5
673
330
664
100
AcDbEntity
  8
DAMAN
100
AcDbLine
 10
-0.5625
 20
-8.062000000000011
 30
0.0
 11
-1.28125
 21
-8.062000000000011
 31
0.0
  0
LINE
  5
674
330
664
100
AcDbEntity
  8
DAMAN
100
AcDbLine
 10
-1.3125
 20
-8.093250000000011
 30
0.0
 11
-1.3125
 21
-8.530750000000011
 31
0.0
  0
LINE
  5
675
330
664
100
AcDbEntity
  8
DAMAN
100
AcDbLine
 10
-1.3125
 20
-8.530750000000011
 30
0.0
 11
-1.28125
 21
-8.562000000000011
 31
0.0
  0
LINE
  5
676
330
664
100
AcDbEntity
  8
DAMAN
100
AcDbLine
 10
-1.28125
 20
-8.062000000000011
 30
0.0
 11
-1.3125
 21
-8.093250000000011
 31
0.0
  0
ARC
  5
677
330
664
100
AcDbEntity
  8
DAMAN
100
AcDbCircle
 10
-0.40625
 20
-8.312000000000001
 30
0.0
 40
0.40625
100
AcDbArc
 50
327.7957719999999
 51
32.2042279999999
  0
LINE
  5
678
330
664
100
AcDbEntity
  8
DAMAN
100
AcDbLine
 10
0.0
 20
-7.953179000000012
 30
0.0
 11
0.0
 21
-8.670821000000008
 31
0.0
  0
LINE
  5
679
330
664
100
AcDbEntity
  8
DAMAN
100
AcDbLine
 10
-0.3125
 20
-7.780750000000011
 30
0.0
 11
-0.3125
 21
-8.843250000000011
 31
0.0
  0
LINE
  5
67A
330
664
100
AcDbEntity
  8
DAMAN
100
AcDbLine
 10
-0.0428350000000011
 20
-8.745013000000009
 30
0.0
 11
0.0
 21
-8.670821000000008
 31
0.0
  0
ARC
  5
67B
330
664
100
AcDbEntity
  8
DAMAN
100
AcDbCircle
 10
-0.125
 20
-8.636760000000013
 30
0.0
 40
0.125
100
AcDbArc
 50
300.0
 51
59.99999999999992
  0
LINE
  5
67C
330
664
100
AcDbEntity
  8
DAMAN
100
AcDbLine
 10
-0.0428350000000011
 20
-8.745013000000009
 30
0.0
 11
-0.3125
 21
-8.745013000000009
 31
0.0
  0
LINE
  5
67D
330
664
100
AcDbEntity
  8
DAMAN
100
AcDbLine
 10
-0.3125
 20
-8.843250000000011
 30
0.0
 11
-0.375
 21
-8.843250000000011
 31
0.0
  0
LINE
  5
67E
330
664
100
AcDbEntity
  8
DAMAN
100
AcDbLine
 10
-0.3125
 20
-8.528506000000009
 30
0.0
 11
-0.0625
 21
-8.528506000000009
 31
0.0
  0
LINE
  5
67F
330
664
100
AcDbEntity
  8
DAMAN
100
AcDbLine
 10
-0.3125
 20
-8.095494000000012
 30
0.0
 11
-0.0625
 21
-8.095494000000012
 31
0.0
  0
LINE
  5
680
330
664
100
AcDbEntity
  8
DAMAN
100
AcDbLine
 10
-0.3125
 20
-7.878987000000012
 30
0.0
 11
-0.0428350000000011
 21
-7.878987000000012
 31
0.0
  0
LINE
  5
681
330
664
100
AcDbEntity
  8
DAMAN
100
AcDbLine
 10
-0.375
 20
-7.780750000000011
 30
0.0
 11
-0.3125
 21
-7.780750000000011
 31
0.0
  0
LINE
  5
682
330
664
100
AcDbEntity
  8
DAMAN
100
AcDbLine
 10
-0.0428350000000011
 20
-7.878987000000012
 30
0.0
 11
0.0
 21
-7.953179000000012
 31
0.0
  0
ARC
  5
683
330
664
100
AcDbEntity
  8
DAMAN
100
AcDbCircle
 10
-0.125
 20
-7.987239999999999
 30
0.0
 40
0.125
100
AcDbArc
 50
300.0
 51
59.99999999999992
  0
INSERT
  5
684
330
664
100
AcDbEntity
  8
DAMAN
100
AcDbBlockReference
  2
100CROSS
 10
0.5
 20
-0.6869999999999977
 30
0.0
 41
0.8
 42
0.8000000000000007
  0
CIRCLE
  5
685
330
664
100
AcDbEntity
  8
DAMAN
100
AcDbCircle
 10
0.5
 20
-0.6869999999999977
 30
0.0
 40
0.375
  0
LWPOLYLINE
  5
686
330
664
100
AcDbEntity
  8
DAMAN
100
AcDbPolyline
 90
        6
 70
     1
 43
0.0
 10
0.875
 20
-0.4704940000000093
 10
0.5
 20
-0.2539870000000093
 10
0.125
 20
-0.4704940000000093
 10
0.125
 20
-0.9035059999999999
 10
0.5
 20
-1.120012999999999
 10
0.875
 20
-0.9035059999999999
  0
CIRCLE
  5
687
330
664
100
AcDbEntity
  8
DAMAN
100
AcDbCircle
 10
0.5
 20
-0.6869999999999977
 30
0.0
 40
0.53125
  0
LINE
  5
688
330
664
100
AcDbEntity
  8
DAMAN
100
AcDbLine
 10
0.0
 20
-0.3281789999999987
 30
0.0
 11
0.0
 21
-1.045821000000009
 31
0.0
  0
LINE
  5
689
330
664
100
AcDbEntity
  8
DAMAN
100
AcDbLine
 10
-0.3125
 20
-0.1557500000000083
 30
0.0
 11
-0.3125
 21
-1.21825
 31
0.0
  0
ARC
  5
68A
330
664
100
AcDbEntity
  8
DAMAN
100
AcDbCircle
 10
-0.40625
 20
-0.6869999999999977
 30
0.0
 40
0.40625
100
AcDbArc
 50
327.7957719999999
 51
32.2042279999999
  0
LINE
  5
68B
330
664
100
AcDbEntity
  8
DAMAN
100
AcDbLine
 10
-1.3125
 20
-0.4682500000000084
 30
0.0
 11
-1.3125
 21
-0.9057500000000011
 31
0.0
  0
CIRCLE
  5
68C
330
664
100
AcDbEntity
  8
DAMAN
100
AcDbCircle
 10
0.5
 20
-4.5
 30
0.0
 40
0.375
  0
LWPOLYLINE
  5
68D
330
664
100
AcDbEntity
  8
DAMAN
100
AcDbPolyline
 90
        6
 70
     1
 43
0.0
 10
0.875
 20
-4.283494000000008
 10
0.5
 20
-4.066987000000008
 10
0.125
 20
-4.283494000000008
 10
0.125
 20
-4.716505999999998
 10
0.5
 20
-4.933012999999998
 10
0.875
 20
-4.716505999999998
  0
CIRCLE
  5
68E
330
664
100
AcDbEntity
  8
DAMAN
100
AcDbCircle
 10
0.5
 20
-4.5
 30
0.0
 40
0.53125
  0
LINE
  5
68F
330
664
100
AcDbEntity
  8
DAMAN
100
AcDbLine
 10
-0.5625
 20
-4.25
 30
0.0
 11
-1.28125
 21
-4.25
 31
0.0
  0
LINE
  5
690
330
664
100
AcDbEntity
  8
DAMAN
100
AcDbLine
 10
-0.5625
 20
-4.281250000000009
 30
0.0
 11
-1.3125
 21
-4.281250000000009
 31
0.0
  0
LINE
  5
691
330
664
100
AcDbEntity
  8
DAMAN
100
AcDbLine
 10
-1.28125
 20
-4.750000000000009
 30
0.0
 11
-0.5625
 21
-4.750000000000009
 31
0.0
  0
LINE
  5
692
330
664
100
AcDbEntity
  8
DAMAN
100
AcDbLine
 10
-0.5625
 20
-4.71875
 30
0.0
 11
-1.3125
 21
-4.71875
 31
0.0
  0
LINE
  5
693
330
664
100
AcDbEntity
  8
DAMAN
100
AcDbLine
 10
0.125
 20
-4.5
 30
0.0
 11
-1.40625
 21
-4.5
 31
0.0
  0
LINE
  5
694
330
664
100
AcDbEntity
  8
DAMAN
100
AcDbLine
 10
-1.3125
 20
-4.281250000000009
 30
0.0
 11
-1.3125
 21
-4.71875
 31
0.0
  0
LINE
  5
695
330
664
100
AcDbEntity
  8
DAMAN
100
AcDbLine
 10
-1.3125
 20
-4.71875
 30
0.0
 11
-1.28125
 21
-4.750000000000009
 31
0.0
  0
LINE
  5
696
330
664
100
AcDbEntity
  8
DAMAN
100
AcDbLine
 10
-1.28125
 20
-4.25
 30
0.0
 11
-1.3125
 21
-4.281250000000009
 31
0.0
  0
LINE
  5
697
330
664
100
AcDbEntity
  8
DAMAN
100
AcDbLine
 10
-0.3125
 20
-3.968750000000009
 30
0.0
 11
-0.3125
 21
-5.03125
 31
0.0
  0
LINE
  5
698
330
664
100
AcDbEntity
  8
DAMAN
100
AcDbLine
 10
0.0
 20
-4.141179000000001
 30
0.0
 11
0.0
 21
-4.858820999999998
 31
0.0
  0
ARC
  5
699
330
664
100
AcDbEntity
  8
DAMAN
100
AcDbCircle
 10
-0.40625
 20
-4.5
 30
0.0
 40
0.40625
100
AcDbArc
 50
327.7957719999999
 51
32.2042279999999
  0
LINE
  5
69A
330
664
100
AcDbEntity
  8
DAMAN
100
AcDbLine
 10
-0.3125
 20
-4.716505999999998
 30
0.0
 11
-0.0625
 21
-4.716505999999998
 31
0.0
  0
LINE
  5
69B
330
664
100
AcDbEntity
  8
DAMAN
100
AcDbLine
 10
-0.0428350000000011
 20
-4.933012999999998
 30
0.0
 11
-0.3125
 21
-4.933012999999998
 31
0.0
  0
LINE
  5
69C
330
664
100
AcDbEntity
  8
DAMAN
100
AcDbLine
 10
-0.3125
 20
-5.03125
 30
0.0
 11
-0.375
 21
-5.03125
 31
0.0
  0
ARC
  5
69D
330
664
100
AcDbEntity
  8
DAMAN
100
AcDbCircle
 10
-0.125
 20
-4.824760000000007
 30
0.0
 40
0.125
100
AcDbArc
 50
300.0
 51
59.99999999999992
  0
LINE
  5
69E
330
664
100
AcDbEntity
  8
DAMAN
100
AcDbLine
 10
-0.0428350000000011
 20
-4.933012999999998
 30
0.0
 11
0.0
 21
-4.858820999999998
 31
0.0
  0
LINE
  5
69F
330
664
100
AcDbEntity
  8
DAMAN
100
AcDbLine
 10
-0.3125
 20
-4.066987000000008
 30
0.0
 11
-0.0428350000000011
 21
-4.066987000000008
 31
0.0
  0
LINE
  5
6A0
330
664
100
AcDbEntity
  8
DAMAN
100
AcDbLine
 10
-0.3125
 20
-4.283494000000008
 30
0.0
 11
-0.0625
 21
-4.283494000000008
 31
0.0
  0
ARC
  5
6A1
330
664
100
AcDbEntity
  8
DAMAN
100
AcDbCircle
 10
-0.125
 20
-4.175239999999997
 30
0.0
 40
0.125
100
AcDbArc
 50
300.0
 51
59.99999999999992
  0
LINE
  5
6A2
330
664
100
AcDbEntity
  8
DAMAN
100
AcDbLine
 10
-0.0428350000000011
 20
-4.066987000000008
 30
0.0
 11
0.0
 21
-4.141179000000001
 31
0.0
  0
LINE
  5
6A3
330
664
100
AcDbEntity
  8
DAMAN
100
AcDbLine
 10
-0.375
 20
-3.968750000000009
 30
0.0
 11
-0.3125
 21
-3.968750000000009
 31
0.0
  0
LINE
  5
6A4
330
664
100
AcDbEntity
  8
DAMAN
100
AcDbLine
 10
-1.28125
 20
-0.937000000000008
 30
0.0
 11
-0.5625
 21
-0.937000000000008
 31
0.0
  0
LINE
  5
6A5
330
664
100
AcDbEntity
  8
DAMAN
100
AcDbLine
 10
-0.5625
 20
-0.9057500000000011
 30
0.0
 11
-1.3125
 21
-0.9057500000000011
 31
0.0
  0
LINE
  5
6A6
330
664
100
AcDbEntity
  8
DAMAN
100
AcDbLine
 10
-1.3125
 20
-0.9057500000000011
 30
0.0
 11
-1.28125
 21
-0.937000000000008
 31
0.0
  0
LINE
  5
6A7
330
664
100
AcDbEntity
  8
DAMAN
100
AcDbLine
 10
-0.0428350000000011
 20
-1.120012999999999
 30
0.0
 11
-0.3125
 21
-1.120012999999999
 31
0.0
  0
LINE
  5
6A8
330
664
100
AcDbEntity
  8
DAMAN
100
AcDbLine
 10
-0.3125
 20
-0.9035059999999999
 30
0.0
 11
-0.0625
 21
-0.9035059999999999
 31
0.0
  0
LINE
  5
6A9
330
664
100
AcDbEntity
  8
DAMAN
100
AcDbLine
 10
-0.3125
 20
-1.21825
 30
0.0
 11
-0.375
 21
-1.21825
 31
0.0
  0
LINE
  5
6AA
330
664
100
AcDbEntity
  8
DAMAN
100
AcDbLine
 10
-0.0428350000000011
 20
-1.120012999999999
 30
0.0
 11
0.0
 21
-1.045821000000009
 31
0.0
  0
ARC
  5
6AB
330
664
100
AcDbEntity
  8
DAMAN
100
AcDbCircle
 10
-0.125
 20
-1.011760000000009
 30
0.0
 40
0.125
100
AcDbArc
 50
300.0
 51
59.99999999999992
  0
LINE
  5
6AC
330
664
100
AcDbEntity
  8
DAMAN
100
AcDbLine
 10
-0.5625
 20
0.0004999999999917
 30
0.0
 11
1.0625
 21
0.0004999999999917
 31
0.0
  0
LINE
  5
6AD
330
664
100
AcDbEntity
  8
DAMAN
100
AcDbLine
 10
-0.5625
 20
-0.4369999999999977
 30
0.0
 11
-1.28125
 21
-0.4369999999999977
 31
0.0
  0
LINE
  5
6AE
330
664
100
AcDbEntity
  8
DAMAN
100
AcDbLine
 10
-0.5625
 20
-0.4682500000000084
 30
0.0
 11
-1.3125
 21
-0.4682500000000084
 31
0.0
  0
LINE
  5
6AF
330
664
100
AcDbEntity
  8
DAMAN
100
AcDbLine
 10
0.125
 20
-0.6869999999999977
 30
0.0
 11
-1.40625
 21
-0.6869999999999977
 31
0.0
  0
LINE
  5
6B0
330
664
100
AcDbEntity
  8
DAMAN
100
AcDbLine
 10
-1.28125
 20
-0.4369999999999977
 30
0.0
 11
-1.3125
 21
-0.4682500000000084
 31
0.0
  0
LINE
  5
6B1
330
664
100
AcDbEntity
  8
DAMAN
100
AcDbLine
 10
-0.0428350000000011
 20
-0.2539870000000093
 30
0.0
 11
0.0
 21
-0.3281789999999987
 31
0.0
  0
ARC
  5
6B2
330
664
100
AcDbEntity
  8
DAMAN
100
AcDbCircle
 10
-0.125
 20
-0.3622400000000034
 30
0.0
 40
0.125
100
AcDbArc
 50
300.0
 51
59.99999999999992
  0
LINE
  5
6B3
330
664
100
AcDbEntity
  8
DAMAN
100
AcDbLine
 10
-0.3125
 20
-0.4704940000000093
 30
0.0
 11
-0.0625
 21
-0.4704940000000093
 31
0.0
  0
LINE
  5
6B4
330
664
100
AcDbEntity
  8
DAMAN
100
AcDbLine
 10
-0.3125
 20
-0.2539870000000093
 30
0.0
 11
-0.0428350000000011
 21
-0.2539870000000093
 31
0.0
  0
LINE
  5
6B5
330
664
100
AcDbEntity
  8
DAMAN
100
AcDbLine
 10
-0.375
 20
-0.1557500000000083
 30
0.0
 11
-0.3125
 21
-0.1557500000000083
 31
0.0
  0
ENDBLK
  5
6B7
330
664
100
AcDbEntity
  8
0
100
AcDbBlockEnd
  0
BLOCK
  5
6BA
330
6B8
100
AcDbEntity
  8
0
100
AcDbBlockBegin
  2
A$C795C2FC0
 70
     0
 10
0.0
 20
0.0
 30
0.0
  3
A$C795C2FC0
  1

  0
INSERT
  5
6B9
330
6B8
100
AcDbEntity
  8
0
  6
CONTINUOUS
100
AcDbBlockReference
  2
A$C6C1E3A26
 10
-3.5
 20
2.0
 30
0.0
  0
ENDBLK
  5
6BB
330
6B8
100
AcDbEntity
  8
0
100
AcDbBlockEnd
  0
BLOCK
  5
6F8
330
6BC
100
AcDbEntity
  8
0
100
AcDbBlockBegin
  2
A$C4A9A30E6
 70
     0
 10
0.0
 20
0.0
 30
0.0
  3
A$C4A9A30E6
  1

  0
LINE
  5
6BD
330
6BC
100
AcDbEntity
  8
DAMAN
100
AcDbLine
 10
-0.25
 20
-8.84375
 30
0.0
 11
-0.25
 21
-7.78125
 31
0.0
  0
CIRCLE
  5
6BE
330
6BC
100
AcDbEntity
  8
DAMAN
100
AcDbCircle
 10
-1.0625
 20
-8.3125
 30
0.0
 40
0.375
  0
CIRCLE
  5
6BF
330
6BC
100
AcDbEntity
  8
DAMAN
100
AcDbCircle
 10
-1.0625
 20
-8.3125
 30
0.0
 40
0.53125
  0
LINE
  5
6C0
330
6BC
100
AcDbEntity
  8
DAMAN
100
AcDbLine
 10
-0.5625
 20
-8.671320999999997
 30
0.0
 11
-0.5625
 21
-7.953679000000001
 31
0.0
  0
ARC
  5
6C1
330
6BC
100
AcDbEntity
  8
DAMAN
100
AcDbCircle
 10
-0.15625
 20
-8.3125
 30
0.0
 40
0.40625
100
AcDbArc
 50
147.795772
 51
212.2042279999999
  0
LWPOLYLINE
  5
6C2
330
6BC
100
AcDbEntity
  8
DAMAN
100
AcDbPolyline
 90
        6
 70
     1
 43
0.0
 10
-1.4375
 20
-8.529005999999997
 10
-1.0625
 20
-8.745512999999997
 10
-0.6875
 20
-8.529005999999997
 10
-0.6875
 20
-8.095994000000001
 10
-1.0625
 20
-7.879487000000001
 10
-1.4375
 20
-8.095994000000001
  0
INSERT
  5
6C3
330
6BC
100
AcDbEntity
  8
DAMAN
100
AcDbBlockReference
  2
100CROSS
 10
-1.0625
 20
-8.3125
 30
0.0
 41
0.8000000000000007
 42
0.8000000000000007
 50
180.0
  0
LINE
  5
6C4
330
6BC
100
AcDbEntity
  8
0
  6
CONTINUOUS
 62
     5
100
AcDbLine
 10
0.0
 20
0.0
 30
0.0
 11
0.0
 21
-9.0
 31
0.0
  0
LINE
  5
6C5
330
6BC
100
AcDbEntity
  8
DAMAN
100
AcDbLine
 10
-0.1875
 20
0.0
 30
0.0
 11
-0.1875
 21
-9.0
 31
0.0
  0
LINE
  5
6C6
330
6BC
100
AcDbEntity
  8
DAMAN
100
AcDbLine
 10
0.0
 20
0.0
 30
0.0
 11
0.0
 21
-9.0
 31
0.0
  0
LINE
  5
6C7
330
6BC
100
AcDbEntity
  8
DAMAN
100
AcDbLine
 10
-1.625
 20
-9.0
 30
0.0
 11
-1.625
 21
0.0
 31
0.0
  0
LINE
  5
6C8
330
6BC
100
AcDbEntity
  8
DAMAN
100
AcDbLine
 10
0.0
 20
0.0
 30
0.0
 11
0.0
 21
-9.0
 31
0.0
  0
LINE
  5
6C9
330
6BC
100
AcDbEntity
  8
DAMAN
100
AcDbLine
 10
0.0
 20
0.0
 30
0.0
 11
0.0
 21
-9.0
 31
0.0
  0
LINE
  5
6CA
330
6BC
100
AcDbEntity
  8
DAMAN
100
AcDbLine
 10
0.0
 20
-9.0
 30
0.0
 11
-1.625
 21
-9.0
 31
0.0
  0
LINE
  5
6CB
330
6BC
100
AcDbEntity
  8
DAMAN
100
AcDbLine
 10
-0.25
 20
-8.529005999999997
 30
0.0
 11
-0.5
 21
-8.529005999999997
 31
0.0
  0
LINE
  5
6CC
330
6BC
100
AcDbEntity
  8
DAMAN
100
AcDbLine
 10
-0.25
 20
-8.745512999999997
 30
0.0
 11
-0.5196649999999999
 21
-8.745512999999997
 31
0.0
  0
ARC
  5
6CD
330
6BC
100
AcDbEntity
  8
DAMAN
100
AcDbCircle
 10
-0.4375
 20
-8.637259999999997
 30
0.0
 40
0.125
100
AcDbArc
 50
119.9999999999999
 51
239.9999999999999
  0
LINE
  5
6CE
330
6BC
100
AcDbEntity
  8
DAMAN
100
AcDbLine
 10
-0.5196649999999999
 20
-8.745512999999997
 30
0.0
 11
-0.5625
 21
-8.671320999999997
 31
0.0
  0
LINE
  5
6CF
330
6BC
100
AcDbEntity
  8
DAMAN
100
AcDbLine
 10
-0.1875
 20
-8.84375
 30
0.0
 11
-0.25
 21
-8.84375
 31
0.0
  0
LINE
  5
6D0
330
6BC
100
AcDbEntity
  8
DAMAN
100
AcDbLine
 10
-0.5196649999999999
 20
-7.879487000000001
 30
0.0
 11
-0.25
 21
-7.879487000000001
 31
0.0
  0
LINE
  5
6D1
330
6BC
100
AcDbEntity
  8
DAMAN
100
AcDbLine
 10
-0.25
 20
-8.095994000000001
 30
0.0
 11
-0.5
 21
-8.095994000000001
 31
0.0
  0
ARC
  5
6D2
330
6BC
100
AcDbEntity
  8
DAMAN
100
AcDbCircle
 10
-0.4375
 20
-7.987740000000002
 30
0.0
 40
0.125
100
AcDbArc
 50
119.9999999999999
 51
239.9999999999999
  0
LINE
  5
6D3
330
6BC
100
AcDbEntity
  8
DAMAN
100
AcDbLine
 10
-0.5196649999999999
 20
-7.879487000000001
 30
0.0
 11
-0.5625
 21
-7.953679000000001
 31
0.0
  0
LINE
  5
6D4
330
6BC
100
AcDbEntity
  8
DAMAN
100
AcDbLine
 10
-0.25
 20
-7.78125
 30
0.0
 11
-0.1875
 21
-7.78125
 31
0.0
  0
LWPOLYLINE
  5
6D5
330
6BC
100
AcDbEntity
  8
DAMAN
100
AcDbPolyline
 90
        6
 70
     1
 43
0.0
 10
-1.4375
 20
-4.717006000000001
 10
-1.0625
 20
-4.933513000000001
 10
-0.6875
 20
-4.717006000000001
 10
-0.6875
 20
-4.283994000000003
 10
-1.0625
 20
-4.067487000000003
 10
-1.4375
 20
-4.283994000000003
  0
CIRCLE
  5
6D6
330
6BC
100
AcDbEntity
  8
DAMAN
100
AcDbCircle
 10
-1.0625
 20
-4.500500000000001
 30
0.0
 40
0.375
  0
CIRCLE
  5
6D7
330
6BC
100
AcDbEntity
  8
DAMAN
100
AcDbCircle
 10
-1.0625
 20
-4.500500000000001
 30
0.0
 40
0.53125
  0
INSERT
  5
6D8
330
6BC
100
AcDbEntity
  8
DAMAN
100
AcDbBlockReference
  2
100CROSS
 10
-1.0625
 20
-4.500500000000001
 30
0.0
 41
0.8000000000000007
 42
0.8000000000000007
 50
180.0
  0
LINE
  5
6D9
330
6BC
100
AcDbEntity
  8
DAMAN
100
AcDbLine
 10
-0.25
 20
-5.031750000000001
 30
0.0
 11
-0.25
 21
-3.969250000000002
 31
0.0
  0
LINE
  5
6DA
330
6BC
100
AcDbEntity
  8
DAMAN
100
AcDbLine
 10
-0.5196649999999999
 20
-4.067487000000003
 30
0.0
 11
-0.5625
 21
-4.141679000000002
 31
0.0
  0
ARC
  5
6DB
330
6BC
100
AcDbEntity
  8
DAMAN
100
AcDbCircle
 10
-0.4375
 20
-4.175740000000001
 30
0.0
 40
0.125
100
AcDbArc
 50
119.9999999999999
 51
239.9999999999999
  0
ARC
  5
6DC
330
6BC
100
AcDbEntity
  8
DAMAN
100
AcDbCircle
 10
-0.4375
 20
-4.825260000000002
 30
0.0
 40
0.125
100
AcDbArc
 50
119.9999999999999
 51
239.9999999999999
  0
LINE
  5
6DD
330
6BC
100
AcDbEntity
  8
DAMAN
100
AcDbLine
 10
-0.5625
 20
-4.859321000000001
 30
0.0
 11
-0.5625
 21
-4.141679000000002
 31
0.0
  0
LINE
  5
6DE
330
6BC
100
AcDbEntity
  8
DAMAN
100
AcDbLine
 10
-0.25
 20
-4.933513000000001
 30
0.0
 11
-0.5196649999999999
 21
-4.933513000000001
 31
0.0
  0
LINE
  5
6DF
330
6BC
100
AcDbEntity
  8
DAMAN
100
AcDbLine
 10
-0.5196649999999999
 20
-4.933513000000001
 30
0.0
 11
-0.5625
 21
-4.859321000000001
 31
0.0
  0
LINE
  5
6E0
330
6BC
100
AcDbEntity
  8
DAMAN
100
AcDbLine
 10
-0.1875
 20
-5.031750000000001
 30
0.0
 11
-0.25
 21
-5.031750000000001
 31
0.0
  0
LINE
  5
6E1
330
6BC
100
AcDbEntity
  8
DAMAN
100
AcDbLine
 10
-0.25
 20
-4.717006000000001
 30
0.0
 11
-0.5
 21
-4.717006000000001
 31
0.0
  0
LINE
  5
6E2
330
6BC
100
AcDbEntity
  8
DAMAN
100
AcDbLine
 10
-0.25
 20
-4.283994000000003
 30
0.0
 11
-0.5
 21
-4.283994000000003
 31
0.0
  0
ARC
  5
6E3
330
6BC
100
AcDbEntity
  8
DAMAN
100
AcDbCircle
 10
-0.15625
 20
-4.500500000000001
 30
0.0
 40
0.40625
100
AcDbArc
 50
147.795772
 51
212.2042279999999
  0
LINE
  5
6E4
330
6BC
100
AcDbEntity
  8
DAMAN
100
AcDbLine
 10
-0.5196649999999999
 20
-4.067487000000003
 30
0.0
 11
-0.25
 21
-4.067487000000003
 31
0.0
  0
LINE
  5
6E5
330
6BC
100
AcDbEntity
  8
DAMAN
100
AcDbLine
 10
-0.25
 20
-3.969250000000002
 30
0.0
 11
-0.1875
 21
-3.969250000000002
 31
0.0
  0
CIRCLE
  5
6E6
330
6BC
100
AcDbEntity
  8
DAMAN
100
AcDbCircle
 10
-1.0625
 20
-0.6875
 30
0.0
 40
0.53125
  0
CIRCLE
  5
6E7
330
6BC
100
AcDbEntity
  8
DAMAN
100
AcDbCircle
 10
-1.0625
 20
-0.6875
 30
0.0
 40
0.375
  0
LWPOLYLINE
  5
6E8
330
6BC
100
AcDbEntity
  8
DAMAN
100
AcDbPolyline
 90
        6
 70
     1
 43
0.0
 10
-1.4375
 20
-0.9040059999999987
 10
-1.0625
 20
-1.120512999999998
 10
-0.6875
 20
-0.9040059999999987
 10
-0.6875
 20
-0.4709940000000012
 10
-1.0625
 20
-0.254487000000001
 10
-1.4375
 20
-0.4709940000000012
  0
INSERT
  5
6E9
330
6BC
100
AcDbEntity
  8
DAMAN
100
AcDbBlockReference
  2
100CROSS
 10
-1.0625
 20
-0.6875
 30
0.0
 41
0.8000000000000007
 42
0.8000000000000007
 50
180.0
  0
LINE
  5
6EA
330
6BC
100
AcDbEntity
  8
DAMAN
100
AcDbLine
 10
-1.625
 20
0.0
 30
0.0
 11
0.0
 21
0.0
 31
0.0
  0
LINE
  5
6EB
330
6BC
100
AcDbEntity
  8
DAMAN
100
AcDbLine
 10
-0.5625
 20
-1.046320999999997
 30
0.0
 11
-0.5625
 21
-0.328679000000001
 31
0.0
  0
ARC
  5
6EC
330
6BC
100
AcDbEntity
  8
DAMAN
100
AcDbCircle
 10
-0.15625
 20
-0.6875
 30
0.0
 40
0.40625
100
AcDbArc
 50
147.795772
 51
212.2042279999999
  0
LINE
  5
6ED
330
6BC
100
AcDbEntity
  8
DAMAN
100
AcDbLine
 10
-0.25
 20
-1.21875
 30
0.0
 11
-0.25
 21
-0.15625
 31
0.0
  0
LINE
  5
6EE
330
6BC
100
AcDbEntity
  8
DAMAN
100
AcDbLine
 10
-0.25
 20
-1.120512999999998
 30
0.0
 11
-0.5196649999999999
 21
-1.120512999999998
 31
0.0
  0
LINE
  5
6EF
330
6BC
100
AcDbEntity
  8
DAMAN
100
AcDbLine
 10
-0.25
 20
-0.9040059999999987
 30
0.0
 11
-0.5
 21
-0.9040059999999987
 31
0.0
  0
ARC
  5
6F0
330
6BC
100
AcDbEntity
  8
DAMAN
100
AcDbCircle
 10
-0.4375
 20
-1.012260000000001
 30
0.0
 40
0.125
100
AcDbArc
 50
119.9999999999999
 51
239.9999999999999
  0
LINE
  5
6F1
330
6BC
100
AcDbEntity
  8
DAMAN
100
AcDbLine
 10
-0.5196649999999999
 20
-1.120512999999998
 30
0.0
 11
-0.5625
 21
-1.046320999999997
 31
0.0
  0
LINE
  5
6F2
330
6BC
100
AcDbEntity
  8
DAMAN
100
AcDbLine
 10
-0.1875
 20
-1.21875
 30
0.0
 11
-0.25
 21
-1.21875
 31
0.0
  0
LINE
  5
6F3
330
6BC
100
AcDbEntity
  8
DAMAN
100
AcDbLine
 10
-0.5196649999999999
 20
-0.254487000000001
 30
0.0
 11
-0.25
 21
-0.254487000000001
 31
0.0
  0
LINE
  5
6F4
330
6BC
100
AcDbEntity
  8
DAMAN
100
AcDbLine
 10
-0.25
 20
-0.4709940000000012
 30
0.0
 11
-0.5
 21
-0.4709940000000012
 31
0.0
  0
ARC
  5
6F5
330
6BC
100
AcDbEntity
  8
DAMAN
100
AcDbCircle
 10
-0.4375
 20
-0.3627399999999987
 30
0.0
 40
0.125
100
AcDbArc
 50
119.9999999999999
 51
239.9999999999999
  0
LINE
  5
6F6
330
6BC
100
AcDbEntity
  8
DAMAN
100
AcDbLine
 10
-0.5196649999999999
 20
-0.254487000000001
 30
0.0
 11
-0.5625
 21
-0.328679000000001
 31
0.0
  0
LINE
  5
6F7
330
6BC
100
AcDbEntity
  8
DAMAN
100
AcDbLine
 10
-0.25
 20
-0.15625
 30
0.0
 11
-0.1875
 21
-0.15625
 31
0.0
  0
ENDBLK
  5
6F9
330
6BC
100
AcDbEntity
  8
0
100
AcDbBlockEnd
  0
BLOCK
  5
725
330
6FA
100
AcDbEntity
  8
0
100
AcDbBlockBegin
  2
600MKS
 70
     0
 10
0.0
 20
0.0
 30
0.0
  3
600MKS
  1

  0
LINE
  5
6FB
330
6FA
100
AcDbEntity
  8
DAMAN
100
AcDbLine
 10
-1.625
 20
-0.5625
 30
0.0
 11
-1.625
 21
-0.375
 31
0.0
  0
LINE
  5
6FC
330
6FA
100
AcDbEntity
  8
DAMAN
100
AcDbLine
 10
-1.625
 20
-0.375
 30
0.0
 11
-0.4375
 21
-0.375
 31
0.0
  0
LINE
  5
6FD
330
6FA
100
AcDbEntity
  8
DAMAN
100
AcDbLine
 10
-0.1875
 20
-0.125
 30
0.0
 11
-0.1875
 21
1.0625
 31
0.0
  0
LINE
  5
6FE
330
6FA
100
AcDbEntity
  8
DAMAN
100
AcDbLine
 10
-0.1875
 20
1.0625
 30
0.0
 11
0.0
 21
1.0625
 31
0.0
  0
LINE
  5
6FF
330
6FA
100
AcDbEntity
  8
DAMAN
100
AcDbLine
 10
0.0
 20
1.0625
 30
0.0
 11
0.0
 21
-0.125
 31
0.0
  0
LINE
  5
700
330
6FA
100
AcDbEntity
  8
DAMAN
100
AcDbLine
 10
-0.4375
 20
-0.5625
 30
0.0
 11
-1.625
 21
-0.5625
 31
0.0
  0
ARC
  5
701
330
6FA
100
AcDbEntity
  8
DAMAN
100
AcDbCircle
 10
-0.4375
 20
-0.125
 30
0.0
 40
0.25
100
AcDbArc
 50
270.0
 51
0.0
  0
ARC
  5
702
330
6FA
100
AcDbEntity
  8
DAMAN
100
AcDbCircle
 10
-0.4375
 20
-0.125
 30
0.0
 40
0.4375
100
AcDbArc
 50
270.0
 51
0.0
  0
LINE
  5
703
330
6FA
100
AcDbEntity
  8
DAMAN
100
AcDbLine
 10
-1.59375
 20
-0.375
 30
0.0
 11
-1.59375
 21
-0.3125
 31
0.0
  0
LINE
  5
704
330
6FA
100
AcDbEntity
  8
DAMAN
100
AcDbLine
 10
-1.59375
 20
-0.3125
 30
0.0
 11
-0.53125
 21
-0.3125
 31
0.0
  0
LINE
  5
705
330
6FA
100
AcDbEntity
  8
DAMAN
100
AcDbLine
 10
-0.53125
 20
-0.3125
 30
0.0
 11
-0.53125
 21
-0.375
 31
0.0
  0
LINE
  5
706
330
6FA
100
AcDbEntity
  8
DAMAN
100
AcDbLine
 10
-1.495512999999999
 20
-0.3125
 30
0.0
 11
-1.495512999999999
 21
-0.042835
 31
0.0
  0
LINE
  5
707
330
6FA
100
AcDbEntity
  8
DAMAN
100
AcDbLine
 10
-1.421320999999999
 20
0.0
 30
0.0
 11
-0.703679
 21
0.0
 31
0.0
  0
LINE
  5
708
330
6FA
100
AcDbEntity
  8
DAMAN
100
AcDbLine
 10
-0.6294870000000002
 20
-0.042835
 30
0.0
 11
-0.6294870000000002
 21
-0.3125
 31
0.0
  0
LINE
  5
709
330
6FA
100
AcDbEntity
  8
DAMAN
100
AcDbLine
 10
-1.279005999999998
 20
-0.3125
 30
0.0
 11
-1.279005999999998
 21
-0.0625
 31
0.0
  0
LINE
  5
70A
330
6FA
100
AcDbEntity
  8
DAMAN
100
AcDbLine
 10
-0.8459939999999999
 20
-0.3125
 30
0.0
 11
-0.8459939999999999
 21
-0.0625
 31
0.0
  0
ARC
  5
70B
330
6FA
100
AcDbEntity
  8
DAMAN
100
AcDbCircle
 10
-1.0625
 20
-0.40625
 30
0.0
 40
0.40625
100
AcDbArc
 50
57.79577200000001
 51
122.2042279999999
  0
ARC
  5
70C
330
6FA
100
AcDbEntity
  8
DAMAN
100
AcDbCircle
 10
-0.73774
 20
-0.125
 30
0.0
 40
0.125
100
AcDbArc
 50
30.0
 51
150.0
  0
ARC
  5
70D
330
6FA
100
AcDbEntity
  8
DAMAN
100
AcDbCircle
 10
-1.387259999999999
 20
-0.125
 30
0.0
 40
0.125
100
AcDbArc
 50
30.0
 51
150.0
  0
LINE
  5
70E
330
6FA
100
AcDbEntity
  8
DAMAN
100
AcDbLine
 10
-1.495512999999999
 20
-0.042835
 30
0.0
 11
-1.421320999999999
 21
0.0
 31
0.0
  0
LINE
  5
70F
330
6FA
100
AcDbEntity
  8
DAMAN
100
AcDbLine
 10
-0.6294870000000002
 20
-0.042835
 30
0.0
 11
-0.703679
 21
0.0
 31
0.0
  0
LINE
  5
710
330
6FA
100
AcDbEntity
  8
DAMAN
100
AcDbLine
 10
-1.3125
 20
-0.5625
 30
0.0
 11
-1.3125
 21
-1.28125
 31
0.0
  0
LINE
  5
711
330
6FA
100
AcDbEntity
  8
DAMAN
100
AcDbLine
 10
-1.3125
 20
-1.28125
 30
0.0
 11
-1.28125
 21
-1.3125
 31
0.0
  0
LINE
  5
712
330
6FA
100
AcDbEntity
  8
DAMAN
100
AcDbLine
 10
-1.28125
 20
-1.3125
 30
0.0
 11
-0.84375
 21
-1.3125
 31
0.0
  0
LINE
  5
713
330
6FA
100
AcDbEntity
  8
DAMAN
100
AcDbLine
 10
-0.84375
 20
-1.3125
 30
0.0
 11
-0.8125
 21
-1.28125
 31
0.0
  0
LINE
  5
714
330
6FA
100
AcDbEntity
  8
DAMAN
100
AcDbLine
 10
-0.8125
 20
-1.28125
 30
0.0
 11
-0.8125
 21
-0.5625
 31
0.0
  0
LINE
  5
715
330
6FA
100
AcDbEntity
  8
DAMAN
100
AcDbLine
 10
-1.28125
 20
-0.5625
 30
0.0
 11
-1.28125
 21
-1.3125
 31
0.0
  0
LINE
  5
716
330
6FA
100
AcDbEntity
  8
DAMAN
100
AcDbLine
 10
-0.84375
 20
-0.5625
 30
0.0
 11
-0.84375
 21
-1.3125
 31
0.0
  0
LINE
  5
717
330
6FA
100
AcDbEntity
  8
DAMAN
100
AcDbLine
 10
-1.0625
 20
0.125
 30
0.0
 11
-1.0625
 21
-1.40625
 31
0.0
  0
LINE
  5
718
330
6FA
100
AcDbEntity
  8
DAMAN
100
AcDbLine
 10
-0.5196649999999999
 20
0.9330129999999996
 30
0.0
 11
-0.5625
 21
0.858821
 31
0.0
  0
LINE
  5
719
330
6FA
100
AcDbEntity
  8
DAMAN
100
AcDbLine
 10
-0.5196649999999999
 20
0.066987
 30
0.0
 11
-0.5625
 21
0.141179
 31
0.0
  0
ARC
  5
71A
330
6FA
100
AcDbEntity
  8
DAMAN
100
AcDbCircle
 10
-0.4375
 20
0.17524
 30
0.0
 40
0.125
100
AcDbArc
 50
119.9999999999999
 51
239.9999999999999
  0
ARC
  5
71B
330
6FA
100
AcDbEntity
  8
DAMAN
100
AcDbCircle
 10
-0.4375
 20
0.82476
 30
0.0
 40
0.125
100
AcDbArc
 50
119.9999999999999
 51
239.9999999999999
  0
ARC
  5
71C
330
6FA
100
AcDbEntity
  8
DAMAN
100
AcDbCircle
 10
-0.15625
 20
0.5
 30
0.0
 40
0.40625
100
AcDbArc
 50
147.795772
 51
212.2042279999999
  0
LINE
  5
71D
330
6FA
100
AcDbEntity
  8
DAMAN
100
AcDbLine
 10
-0.25
 20
0.7165060000000001
 30
0.0
 11
-0.5
 21
0.7165060000000001
 31
0.0
  0
LINE
  5
71E
330
6FA
100
AcDbEntity
  8
DAMAN
100
AcDbLine
 10
-0.25
 20
0.283494
 30
0.0
 11
-0.5
 21
0.283494
 31
0.0
  0
LINE
  5
71F
330
6FA
100
AcDbEntity
  8
DAMAN
100
AcDbLine
 10
-0.5196649999999999
 20
0.9330129999999996
 30
0.0
 11
-0.25
 21
0.9330129999999996
 31
0.0
  0
LINE
  5
720
330
6FA
100
AcDbEntity
  8
DAMAN
100
AcDbLine
 10
-0.5625
 20
0.141179
 30
0.0
 11
-0.5625
 21
0.858821
 31
0.0
  0
LINE
  5
721
330
6FA
100
AcDbEntity
  8
DAMAN
100
AcDbLine
 10
-0.25
 20
0.066987
 30
0.0
 11
-0.5196649999999999
 21
0.066987
 31
0.0
  0
LINE
  5
722
330
6FA
100
AcDbEntity
  8
DAMAN
100
AcDbLine
 10
-0.25
 20
1.03125
 30
0.0
 11
-0.1875
 21
1.03125
 31
0.0
  0
LINE
  5
723
330
6FA
100
AcDbEntity
  8
DAMAN
100
AcDbLine
 10
-0.25
 20
-0.03125
 30
0.0
 11
-0.25
 21
1.03125
 31
0.0
  0
LINE
  5
724
330
6FA
100
AcDbEntity
  8
DAMAN
100
AcDbLine
 10
-0.1875
 20
-0.03125
 30
0.0
 11
-0.25
 21
-0.03125
 31
0.0
  0
ENDBLK
  5
726
330
6FA
100
AcDbEntity
  8
0
100
AcDbBlockEnd
  0
BLOCK
  5
729
330
727
100
AcDbEntity
  8
0
100
AcDbBlockBegin
  2
A$C0A7625C0
 70
     0
 10
0.0
 20
0.0
 30
0.0
  3
A$C0A7625C0
  1

  0
INSERT
  5
728
330
727
100
AcDbEntity
  8
DAMAN
100
AcDbBlockReference
  2
600MKS
 10
0.0
 20
0.0
 30
0.0
  0
ENDBLK
  5
72A
330
727
100
AcDbEntity
  8
0
100
AcDbBlockEnd
  0
BLOCK
  5
72D
330
72B
100
AcDbEntity
  8
0
100
AcDbBlockBegin
  2
A$C72542925
 70
     0
 10
0.0
 20
0.0
 30
0.0
  3
A$C72542925
  1

  0
INSERT
  5
72C
330
72B
100
AcDbEntity
  8
0
  6
HIDDEN
100
AcDbBlockReference
  2
A$C0A7625C0
 10
0.0
 20
0.0
 30
0.0
  0
ENDBLK
  5
72E
330
72B
100
AcDbEntity
  8
0
100
AcDbBlockEnd
  0
BLOCK
  5
817
330
7DB
100
AcDbEntity
  8
0
100
AcDbBlockBegin
  2
A$C64CF391A
 70
     0
 10
0.0
 20
0.0
 30
0.0
  3
A$C64CF391A
  1

  0
INSERT
  5
7DC
330
7DB
100
AcDbEntity
  8
DAMAN
100
AcDbBlockReference
  2
100CROSS
 10
1.033860895416167
 20
-4.928872856733092
 30
0.0
 41
0.8000000000000007
 42
0.8000000000000007
 50
180.0
  0
LINE
  5
7DD
330
7DB
100
AcDbEntity
  8
DAMAN
100
AcDbLine
 10
2.096360895416168
 20
-0.4283728567330912
 30
0.0
 11
2.096360895416168
 21
-9.428372856733092
 31
0.0
  0
LINE
  5
7DE
330
7DB
100
AcDbEntity
  8
DAMAN
100
AcDbLine
 10
2.096360895416168
 20
-0.4283728567330912
 30
0.0
 11
2.096360895416168
 21
-9.428372856733092
 31
0.0
  0
LINE
  5
7DF
330
7DB
100
AcDbEntity
  8
DAMAN
100
AcDbLine
 10
0.4713608954161687
 20
-9.428372856733092
 30
0.0
 11
0.4713608954161687
 21
-0.4283728567330912
 31
0.0
  0
LINE
  5
7E0
330
7DB
100
AcDbEntity
  8
DAMAN
100
AcDbLine
 10
2.096360895416168
 20
-0.4283728567330912
 30
0.0
 11
2.096360895416168
 21
-9.428372856733092
 31
0.0
  0
LINE
  5
7E1
330
7DB
100
AcDbEntity
  8
DAMAN
100
AcDbLine
 10
1.908860895416168
 20
-0.4283728567330912
 30
0.0
 11
1.908860895416168
 21
-9.428372856733092
 31
0.0
  0
LINE
  5
7E2
330
7DB
100
AcDbEntity
  8
0
  6
CONTINUOUS
 62
     5
100
AcDbLine
 10
2.096360895416168
 20
-0.4283728567330912
 30
0.0
 11
2.096360895416168
 21
-9.428372856733092
 31
0.0
  0
INSERT
  5
7E3
330
7DB
100
AcDbEntity
  8
DAMAN
100
AcDbBlockReference
  2
100CROSS
 10
1.033860895416167
 20
-8.740872856733091
 30
0.0
 41
0.8000000000000007
 42
0.8000000000000007
 50
180.0
  0
LINE
  5
7E4
330
7DB
100
AcDbEntity
  8
DAMAN
100
AcDbLine
 10
2.096360895416168
 20
-9.428372856733092
 30
0.0
 11
0.4713608954161687
 21
-9.428372856733092
 31
0.0
  0
LINE
  5
7E5
330
7DB
100
AcDbEntity
  8
DAMAN
100
AcDbLine
 10
1.846360895416168
 20
-9.17388585673309
 30
0.0
 11
1.576695895416168
 21
-9.17388585673309
 31
0.0
  0
LINE
  5
7E6
330
7DB
100
AcDbEntity
  8
DAMAN
100
AcDbLine
 10
1.846360895416168
 20
-8.95737885673309
 30
0.0
 11
1.596360895416168
 21
-8.95737885673309
 31
0.0
  0
LINE
  5
7E7
330
7DB
100
AcDbEntity
  8
DAMAN
100
AcDbLine
 10
1.846360895416168
 20
-8.524366856733093
 30
0.0
 11
1.596360895416168
 21
-8.524366856733093
 31
0.0
  0
LINE
  5
7E8
330
7DB
100
AcDbEntity
  8
DAMAN
100
AcDbLine
 10
1.576695895416168
 20
-8.307859856733093
 30
0.0
 11
1.846360895416168
 21
-8.307859856733093
 31
0.0
  0
LWPOLYLINE
  5
7E9
330
7DB
100
AcDbEntity
  8
DAMAN
100
AcDbPolyline
 90
        6
 70
     1
 43
0.0
 10
0.6588608954161686
 20
-8.95737885673309
 10
1.033860895416167
 20
-9.17388585673309
 10
1.408860895416168
 20
-8.95737885673309
 10
1.408860895416168
 20
-8.524366856733093
 10
1.033860895416167
 20
-8.307859856733093
 10
0.6588608954161686
 20
-8.524366856733093
  0
ARC
  5
7EA
330
7DB
100
AcDbEntity
  8
DAMAN
100
AcDbCircle
 10
1.940110895416168
 20
-8.740872856733091
 30
0.0
 40
0.40625
100
AcDbArc
 50
147.795772
 51
212.2042279999999
  0
LINE
  5
7EB
330
7DB
100
AcDbEntity
  8
DAMAN
100
AcDbLine
 10
1.533860895416168
 20
-9.09969385673309
 30
0.0
 11
1.533860895416168
 21
-8.382051856733093
 31
0.0
  0
CIRCLE
  5
7EC
330
7DB
100
AcDbEntity
  8
DAMAN
100
AcDbCircle
 10
1.033860895416167
 20
-8.740872856733091
 30
0.0
 40
0.53125
  0
CIRCLE
  5
7ED
330
7DB
100
AcDbEntity
  8
DAMAN
100
AcDbCircle
 10
1.033860895416167
 20
-8.740872856733091
 30
0.0
 40
0.375
  0
LINE
  5
7EE
330
7DB
100
AcDbEntity
  8
DAMAN
100
AcDbLine
 10
1.576695895416168
 20
-9.17388585673309
 30
0.0
 11
1.533860895416168
 21
-9.09969385673309
 31
0.0
  0
ARC
  5
7EF
330
7DB
100
AcDbEntity
  8
DAMAN
100
AcDbCircle
 10
1.658860895416168
 20
-9.065632856733087
 30
0.0
 40
0.125
100
AcDbArc
 50
119.9999999999999
 51
239.9999999999999
  0
LINE
  5
7F0
330
7DB
100
AcDbEntity
  8
DAMAN
100
AcDbLine
 10
1.576695895416168
 20
-8.307859856733093
 30
0.0
 11
1.533860895416168
 21
-8.382051856733093
 31
0.0
  0
ARC
  5
7F1
330
7DB
100
AcDbEntity
  8
DAMAN
100
AcDbCircle
 10
1.658860895416168
 20
-8.416112856733093
 30
0.0
 40
0.125
100
AcDbArc
 50
119.9999999999999
 51
239.9999999999999
  0
LINE
  5
7F2
330
7DB
100
AcDbEntity
  8
DAMAN
100
AcDbLine
 10
1.846360895416168
 20
-9.272122856733092
 30
0.0
 11
1.846360895416168
 21
-8.209622856733091
 31
0.0
  0
LINE
  5
7F3
330
7DB
100
AcDbEntity
  8
DAMAN
100
AcDbLine
 10
1.908860895416168
 20
-9.272122856733092
 30
0.0
 11
1.846360895416168
 21
-9.272122856733092
 31
0.0
  0
LINE
  5
7F4
330
7DB
100
AcDbEntity
  8
DAMAN
100
AcDbLine
 10
1.846360895416168
 20
-8.209622856733091
 30
0.0
 11
1.908860895416168
 21
-8.209622856733091
 31
0.0
  0
LINE
  5
7F5
330
7DB
100
AcDbEntity
  8
DAMAN
100
AcDbLine
 10
0.4713608954161687
 20
-0.4283728567330912
 30
0.0
 11
2.096360895416168
 21
-0.4283728567330912
 31
0.0
  0
INSERT
  5
7F6
330
7DB
100
AcDbEntity
  8
DAMAN
100
AcDbBlockReference
  2
100CROSS
 10
1.033860895416167
 20
-1.11587285673309
 30
0.0
 41
0.8000000000000007
 42
0.8000000000000007
 50
180.0
  0
LINE
  5
7F7
330
7DB
100
AcDbEntity
  8
DAMAN
100
AcDbLine
 10
1.846360895416168
 20
-1.64712285673309
 30
0.0
 11
1.846360895416168
 21
-0.5846228567330912
 31
0.0
  0
LWPOLYLINE
  5
7F8
330
7DB
100
AcDbEntity
  8
DAMAN
100
AcDbPolyline
 90
        6
 70
     1
 43
0.0
 10
0.6588608954161686
 20
-1.33237885673309
 10
1.033860895416167
 20
-1.54888585673309
 10
1.408860895416168
 20
-1.33237885673309
 10
1.408860895416168
 20
-0.8993668567330921
 10
1.033860895416167
 20
-0.6828598567330923
 10
0.6588608954161686
 20
-0.8993668567330921
  0
CIRCLE
  5
7F9
330
7DB
100
AcDbEntity
  8
DAMAN
100
AcDbCircle
 10
1.033860895416167
 20
-1.11587285673309
 30
0.0
 40
0.375
  0
CIRCLE
  5
7FA
330
7DB
100
AcDbEntity
  8
DAMAN
100
AcDbCircle
 10
1.033860895416167
 20
-1.11587285673309
 30
0.0
 40
0.53125
  0
ARC
  5
7FB
330
7DB
100
AcDbEntity
  8
DAMAN
100
AcDbCircle
 10
1.940110895416168
 20
-1.11587285673309
 30
0.0
 40
0.40625
100
AcDbArc
 50
147.795772
 51
212.2042279999999
  0
LINE
  5
7FC
330
7DB
100
AcDbEntity
  8
DAMAN
100
AcDbLine
 10
1.533860895416168
 20
-1.47469385673309
 30
0.0
 11
1.533860895416168
 21
-0.7570518567330922
 31
0.0
  0
LINE
  5
7FD
330
7DB
100
AcDbEntity
  8
DAMAN
100
AcDbLine
 10
1.576695895416168
 20
-4.495859856733093
 30
0.0
 11
1.846360895416168
 21
-4.495859856733093
 31
0.0
  0
LINE
  5
7FE
330
7DB
100
AcDbEntity
  8
DAMAN
100
AcDbLine
 10
1.846360895416168
 20
-4.712366856733093
 30
0.0
 11
1.596360895416168
 21
-4.712366856733093
 31
0.0
  0
LINE
  5
7FF
330
7DB
100
AcDbEntity
  8
DAMAN
100
AcDbLine
 10
1.846360895416168
 20
-5.361885856733092
 30
0.0
 11
1.576695895416168
 21
-5.361885856733092
 31
0.0
  0
LINE
  5
800
330
7DB
100
AcDbEntity
  8
DAMAN
100
AcDbLine
 10
1.846360895416168
 20
-5.145378856733092
 30
0.0
 11
1.596360895416168
 21
-5.145378856733092
 31
0.0
  0
CIRCLE
  5
801
330
7DB
100
AcDbEntity
  8
DAMAN
100
AcDbCircle
 10
1.033860895416167
 20
-4.928872856733092
 30
0.0
 40
0.53125
  0
CIRCLE
  5
802
330
7DB
100
AcDbEntity
  8
DAMAN
100
AcDbCircle
 10
1.033860895416167
 20
-4.928872856733092
 30
0.0
 40
0.375
  0
LWPOLYLINE
  5
803
330
7DB
100
AcDbEntity
  8
DAMAN
100
AcDbPolyline
 90
        6
 70
     1
 43
0.0
 10
0.6588608954161686
 20
-5.145378856733092
 10
1.033860895416167
 20
-5.361885856733092
 10
1.408860895416168
 20
-5.145378856733092
 10
1.408860895416168
 20
-4.712366856733093
 10
1.033860895416167
 20
-4.495859856733093
 10
0.6588608954161686
 20
-4.712366856733093
  0
LINE
  5
804
330
7DB
100
AcDbEntity
  8
DAMAN
100
AcDbLine
 10
1.533860895416168
 20
-5.287693856733092
 30
0.0
 11
1.533860895416168
 21
-4.570051856733093
 31
0.0
  0
ARC
  5
805
330
7DB
100
AcDbEntity
  8
DAMAN
100
AcDbCircle
 10
1.940110895416168
 20
-4.928872856733092
 30
0.0
 40
0.40625
100
AcDbArc
 50
147.795772
 51
212.2042279999999
  0
ARC
  5
806
330
7DB
100
AcDbEntity
  8
DAMAN
100
AcDbCircle
 10
1.658860895416168
 20
-5.253632856733093
 30
0.0
 40
0.125
100
AcDbArc
 50
119.9999999999999
 51
239.9999999999999
  0
LINE
  5
807
330
7DB
100
AcDbEntity
  8
DAMAN
100
AcDbLine
 10
1.576695895416168
 20
-5.361885856733092
 30
0.0
 11
1.533860895416168
 21
-5.287693856733092
 31
0.0
  0
ARC
  5
808
330
7DB
100
AcDbEntity
  8
DAMAN
100
AcDbCircle
 10
1.658860895416168
 20
-4.604112856733092
 30
0.0
 40
0.125
100
AcDbArc
 50
119.9999999999999
 51
239.9999999999999
  0
LINE
  5
809
330
7DB
100
AcDbEntity
  8
DAMAN
100
AcDbLine
 10
1.576695895416168
 20
-4.495859856733093
 30
0.0
 11
1.533860895416168
 21
-4.570051856733093
 31
0.0
  0
LINE
  5
80A
330
7DB
100
AcDbEntity
  8
DAMAN
100
AcDbLine
 10
1.846360895416168
 20
-5.460122856733093
 30
0.0
 11
1.846360895416168
 21
-4.397622856733093
 31
0.0
  0
LINE
  5
80B
330
7DB
100
AcDbEntity
  8
DAMAN
100
AcDbLine
 10
1.908860895416168
 20
-5.460122856733093
 30
0.0
 11
1.846360895416168
 21
-5.460122856733093
 31
0.0
  0
LINE
  5
80C
330
7DB
100
AcDbEntity
  8
DAMAN
100
AcDbLine
 10
1.846360895416168
 20
-4.397622856733093
 30
0.0
 11
1.908860895416168
 21
-4.397622856733093
 31
0.0
  0
LINE
  5
80D
330
7DB
100
AcDbEntity
  8
DAMAN
100
AcDbLine
 10
1.846360895416168
 20
-1.33237885673309
 30
0.0
 11
1.596360895416168
 21
-1.33237885673309
 31
0.0
  0
LINE
  5
80E
330
7DB
100
AcDbEntity
  8
DAMAN
100
AcDbLine
 10
1.846360895416168
 20
-1.54888585673309
 30
0.0
 11
1.576695895416168
 21
-1.54888585673309
 31
0.0
  0
LINE
  5
80F
330
7DB
100
AcDbEntity
  8
DAMAN
100
AcDbLine
 10
1.576695895416168
 20
-1.54888585673309
 30
0.0
 11
1.533860895416168
 21
-1.47469385673309
 31
0.0
  0
ARC
  5
810
330
7DB
100
AcDbEntity
  8
DAMAN
100
AcDbCircle
 10
1.658860895416168
 20
-1.440632856733091
 30
0.0
 40
0.125
100
AcDbArc
 50
119.9999999999999
 51
239.9999999999999
  0
LINE
  5
811
330
7DB
100
AcDbEntity
  8
DAMAN
100
AcDbLine
 10
1.908860895416168
 20
-1.64712285673309
 30
0.0
 11
1.846360895416168
 21
-1.64712285673309
 31
0.0
  0
LINE
  5
812
330
7DB
100
AcDbEntity
  8
DAMAN
100
AcDbLine
 10
1.846360895416168
 20
-0.8993668567330921
 30
0.0
 11
1.596360895416168
 21
-0.8993668567330921
 31
0.0
  0
LINE
  5
813
330
7DB
100
AcDbEntity
  8
DAMAN
100
AcDbLine
 10
1.576695895416168
 20
-0.6828598567330923
 30
0.0
 11
1.846360895416168
 21
-0.6828598567330923
 31
0.0
  0
LINE
  5
814
330
7DB
100
AcDbEntity
  8
DAMAN
100
AcDbLine
 10
1.576695895416168
 20
-0.6828598567330923
 30
0.0
 11
1.533860895416168
 21
-0.7570518567330922
 31
0.0
  0
ARC
  5
815
330
7DB
100
AcDbEntity
  8
DAMAN
100
AcDbCircle
 10
1.658860895416168
 20
-0.79111285673309
 30
0.0
 40
0.125
100
AcDbArc
 50
119.9999999999999
 51
239.9999999999999
  0
LINE
  5
816
330
7DB
100
AcDbEntity
  8
DAMAN
100
AcDbLine
 10
1.846360895416168
 20
-0.5846228567330912
 30
0.0
 11
1.908860895416168
 21
-0.5846228567330912
 31
0.0
  0
ENDBLK
  5
818
330
7DB
100
AcDbEntity
  8
0
100
AcDbBlockEnd
  0
BLOCK
  5
81C
330
819
100
AcDbEntity
  8
0
100
AcDbBlockBegin
  2
A$C46A623EC
 70
     0
 10
0.0
 20
0.0
 30
0.0
  3
A$C46A623EC
  1

  0
LINE
  5
81A
330
819
100
AcDbEntity
  8
0
  6
CONTINUOUS
 62
     5
100
AcDbLine
 10
0.0
 20
0.0
 30
0.0
 11
0.0
 21
-9.0
 31
0.0
  0
INSERT
  5
81B
330
819
100
AcDbEntity
  8
0
  6
HIDDEN
100
AcDbBlockReference
  2
A$C64CF391A
 10
2.096360895416168
 20
0.4283728567330912
 30
0.0
 41
-1.0
  0
ENDBLK
  5
81D
330
819
100
AcDbEntity
  8
0
100
AcDbBlockEnd
  0
BLOCK
  5
870
330
81E
100
AcDbEntity
  8
0
100
AcDbBlockBegin
  2
A$C07121D74
 70
     0
 10
0.0
 20
0.0
 30
0.0
  3
A$C07121D74
  1

  0
LINE
  5
81F
330
81E
100
AcDbEntity
  8
DAMAN
100
AcDbLine
 10
0.375
 20
-8.999500000000011
 30
0.0
 11
0.375
 21
0.0004999999999917
 31
0.0
  0
LINE
  5
820
330
81E
100
AcDbEntity
  8
DAMAN
100
AcDbLine
 10
0.5625
 20
-8.999500000000011
 30
0.0
 11
0.5625
 21
0.0004999999999917
 31
0.0
  0
LINE
  5
821
330
81E
100
AcDbEntity
  8
DAMAN
100
AcDbLine
 10
-1.0625
 20
0.0004999999999917
 30
0.0
 11
-1.0625
 21
-8.999500000000011
 31
0.0
  0
INSERT
  5
822
330
81E
100
AcDbEntity
  8
DAMAN
100
AcDbBlockReference
  2
100CROSS
 10
-0.5
 20
-4.5
 30
0.0
 41
-0.7999999999999972
 42
0.8000000000000007
  0
LINE
  5
823
330
81E
100
AcDbEntity
  8
0
  6
HIDDEN
100
AcDbLine
 10
0.0
 20
-9.0
 30
0.0
 11
0.0
 21
0.0
 31
0.0
  0
LINE
  5
824
330
81E
100
AcDbEntity
  8
DAMAN
100
AcDbLine
 10
0.3125
 20
-7.878987000000012
 30
0.0
 11
0.0428349999999966
 21
-7.878987000000012
 31
0.0
  0
LINE
  5
825
330
81E
100
AcDbEntity
  8
DAMAN
100
AcDbLine
 10
0.3125
 20
-8.095494000000012
 30
0.0
 11
0.0625
 21
-8.095494000000012
 31
0.0
  0
LINE
  5
826
330
81E
100
AcDbEntity
  8
DAMAN
100
AcDbLine
 10
0.3125
 20
-8.528506000000009
 30
0.0
 11
0.0625
 21
-8.528506000000009
 31
0.0
  0
LINE
  5
827
330
81E
100
AcDbEntity
  8
DAMAN
100
AcDbLine
 10
0.0428349999999966
 20
-8.745013000000009
 30
0.0
 11
0.3125
 21
-8.745013000000009
 31
0.0
  0
LINE
  5
828
330
81E
100
AcDbEntity
  8
DAMAN
100
AcDbLine
 10
-1.0625
 20
-8.999500000000011
 30
0.0
 11
0.5625
 21
-8.999500000000011
 31
0.0
  0
LINE
  5
829
330
81E
100
AcDbEntity
  8
DAMAN
100
AcDbLine
 10
-0.125
 20
-8.312000000000001
 30
0.0
 11
1.40625
 21
-8.312000000000001
 31
0.0
  0
INSERT
  5
82A
330
81E
100
AcDbEntity
  8
DAMAN
100
AcDbBlockReference
  2
100CROSS
 10
-0.5
 20
-8.312000000000001
 30
0.0
 41
-0.7999999999999972
 42
0.8000000000000007
  0
LINE
  5
82B
330
81E
100
AcDbEntity
  8
DAMAN
100
AcDbLine
 10
0.0
 20
-7.953179000000012
 30
0.0
 11
0.0
 21
-8.670821000000008
 31
0.0
  0
CIRCLE
  5
82C
330
81E
100
AcDbEntity
  8
DAMAN
100
AcDbCircle
 10
-0.5
 20
-8.312000000000001
 30
0.0
 40
0.375
  0
LWPOLYLINE
  5
82D
330
81E
100
AcDbEntity
  8
DAMAN
100
AcDbPolyline
 90
        6
 70
     1
 43
0.0
 10
-0.875
 20
-8.095494000000012
 10
-0.5
 20
-7.878987000000012
 10
-0.125
 20
-8.095494000000012
 10
-0.125
 20
-8.528506000000009
 10
-0.5
 20
-8.745013000000009
 10
-0.875
 20
-8.528506000000009
  0
ARC
  5
82E
330
81E
100
AcDbEntity
  8
DAMAN
100
AcDbCircle
 10
0.40625
 20
-8.312000000000001
 30
0.0
 40
0.40625
100
AcDbArc
 50
147.795772
 51
212.2042279999999
  0
CIRCLE
  5
82F
330
81E
100
AcDbEntity
  8
DAMAN
100
AcDbCircle
 10
-0.5
 20
-8.312000000000001
 30
0.0
 40
0.53125
  0
ARC
  5
830
330
81E
100
AcDbEntity
  8
DAMAN
100
AcDbCircle
 10
0.125
 20
-8.636760000000013
 30
0.0
 40
0.125
100
AcDbArc
 50
119.9999999999999
 51
239.9999999999999
  0
LINE
  5
831
330
81E
100
AcDbEntity
  8
DAMAN
100
AcDbLine
 10
0.0428349999999966
 20
-8.745013000000009
 30
0.0
 11
0.0
 21
-8.670821000000008
 31
0.0
  0
ARC
  5
832
330
81E
100
AcDbEntity
  8
DAMAN
100
AcDbCircle
 10
0.125
 20
-7.987239999999999
 30
0.0
 40
0.125
100
AcDbArc
 50
119.9999999999999
 51
239.9999999999999
  0
LINE
  5
833
330
81E
100
AcDbEntity
  8
DAMAN
100
AcDbLine
 10
0.0428349999999966
 20
-7.878987000000012
 30
0.0
 11
0.0
 21
-7.953179000000012
 31
0.0
  0
LINE
  5
834
330
81E
100
AcDbEntity
  8
DAMAN
100
AcDbLine
 10
0.3125
 20
-7.780750000000011
 30
0.0
 11
0.3125
 21
-8.843250000000011
 31
0.0
  0
LINE
  5
835
330
81E
100
AcDbEntity
  8
DAMAN
100
AcDbLine
 10
1.3125
 20
-8.093250000000011
 30
0.0
 11
1.3125
 21
-8.530750000000011
 31
0.0
  0
LINE
  5
836
330
81E
100
AcDbEntity
  8
DAMAN
100
AcDbLine
 10
1.28125
 20
-8.562000000000011
 30
0.0
 11
0.5625
 21
-8.562000000000011
 31
0.0
  0
LINE
  5
837
330
81E
100
AcDbEntity
  8
DAMAN
100
AcDbLine
 10
0.5625
 20
-8.530750000000011
 30
0.0
 11
1.3125
 21
-8.530750000000011
 31
0.0
  0
LINE
  5
838
330
81E
100
AcDbEntity
  8
DAMAN
100
AcDbLine
 10
0.3125
 20
-8.843250000000011
 30
0.0
 11
0.375
 21
-8.843250000000011
 31
0.0
  0
LINE
  5
839
330
81E
100
AcDbEntity
  8
DAMAN
100
AcDbLine
 10
1.3125
 20
-8.530750000000011
 30
0.0
 11
1.28125
 21
-8.562000000000011
 31
0.0
  0
LINE
  5
83A
330
81E
100
AcDbEntity
  8
DAMAN
100
AcDbLine
 10
0.5625
 20
-8.062000000000011
 30
0.0
 11
1.28125
 21
-8.062000000000011
 31
0.0
  0
LINE
  5
83B
330
81E
100
AcDbEntity
  8
DAMAN
100
AcDbLine
 10
0.5625
 20
-8.093250000000011
 30
0.0
 11
1.3125
 21
-8.093250000000011
 31
0.0
  0
LINE
  5
83C
330
81E
100
AcDbEntity
  8
DAMAN
100
AcDbLine
 10
0.375
 20
-7.780750000000011
 30
0.0
 11
0.3125
 21
-7.780750000000011
 31
0.0
  0
LINE
  5
83D
330
81E
100
AcDbEntity
  8
DAMAN
100
AcDbLine
 10
1.28125
 20
-8.062000000000011
 30
0.0
 11
1.3125
 21
-8.093250000000011
 31
0.0
  0
LINE
  5
83E
330
81E
100
AcDbEntity
  8
DAMAN
100
AcDbLine
 10
0.3125
 20
-0.2539870000000093
 30
0.0
 11
0.0428349999999966
 21
-0.2539870000000093
 31
0.0
  0
LINE
  5
83F
330
81E
100
AcDbEntity
  8
DAMAN
100
AcDbLine
 10
0.3125
 20
-0.4704940000000093
 30
0.0
 11
0.0625
 21
-0.4704940000000093
 31
0.0
  0
LINE
  5
840
330
81E
100
AcDbEntity
  8
DAMAN
100
AcDbLine
 10
-0.125
 20
-0.6869999999999977
 30
0.0
 11
1.40625
 21
-0.6869999999999977
 31
0.0
  0
LINE
  5
841
330
81E
100
AcDbEntity
  8
DAMAN
100
AcDbLine
 10
0.5625
 20
0.0004999999999917
 30
0.0
 11
-1.0625
 21
0.0004999999999917
 31
0.0
  0
LINE
  5
842
330
81E
100
AcDbEntity
  8
DAMAN
100
AcDbLine
 10
0.0428349999999966
 20
-1.120012999999999
 30
0.0
 11
0.3125
 21
-1.120012999999999
 31
0.0
  0
LINE
  5
843
330
81E
100
AcDbEntity
  8
DAMAN
100
AcDbLine
 10
0.3125
 20
-0.9035059999999999
 30
0.0
 11
0.0625
 21
-0.9035059999999999
 31
0.0
  0
LINE
  5
844
330
81E
100
AcDbEntity
  8
DAMAN
100
AcDbLine
 10
0.3125
 20
-4.283494000000008
 30
0.0
 11
0.0625
 21
-4.283494000000008
 31
0.0
  0
LINE
  5
845
330
81E
100
AcDbEntity
  8
DAMAN
100
AcDbLine
 10
0.3125
 20
-4.066987000000008
 30
0.0
 11
0.0428349999999966
 21
-4.066987000000008
 31
0.0
  0
LINE
  5
846
330
81E
100
AcDbEntity
  8
DAMAN
100
AcDbLine
 10
0.0428349999999966
 20
-4.933012999999998
 30
0.0
 11
0.3125
 21
-4.933012999999998
 31
0.0
  0
LINE
  5
847
330
81E
100
AcDbEntity
  8
DAMAN
100
AcDbLine
 10
0.3125
 20
-4.716505999999998
 30
0.0
 11
0.0625
 21
-4.716505999999998
 31
0.0
  0
LINE
  5
848
330
81E
100
AcDbEntity
  8
DAMAN
100
AcDbLine
 10
-0.125
 20
-4.5
 30
0.0
 11
1.40625
 21
-4.5
 31
0.0
  0
ARC
  5
849
330
81E
100
AcDbEntity
  8
DAMAN
100
AcDbCircle
 10
0.40625
 20
-0.6869999999999977
 30
0.0
 40
0.40625
100
AcDbArc
 50
147.795772
 51
212.2042279999999
  0
INSERT
  5
84A
330
81E
100
AcDbEntity
  8
DAMAN
100
AcDbBlockReference
  2
100CROSS
 10
-0.5
 20
-0.6869999999999977
 30
0.0
 41
-0.7999999999999972
 42
0.8000000000000007
  0
CIRCLE
  5
84B
330
81E
100
AcDbEntity
  8
DAMAN
100
AcDbCircle
 10
-0.5
 20
-0.6869999999999977
 30
0.0
 40
0.53125
  0
CIRCLE
  5
84C
330
81E
100
AcDbEntity
  8
DAMAN
100
AcDbCircle
 10
-0.5
 20
-0.6869999999999977
 30
0.0
 40
0.375
  0
LINE
  5
84D
330
81E
100
AcDbEntity
  8
DAMAN
100
AcDbLine
 10
0.0
 20
-0.3281789999999987
 30
0.0
 11
0.0
 21
-1.045821000000009
 31
0.0
  0
LWPOLYLINE
  5
84E
330
81E
100
AcDbEntity
  8
DAMAN
100
AcDbPolyline
 90
        6
 70
     1
 43
0.0
 10
-0.875
 20
-0.4704940000000093
 10
-0.5
 20
-0.2539870000000093
 10
-0.125
 20
-0.4704940000000093
 10
-0.125
 20
-0.9035059999999999
 10
-0.5
 20
-1.120012999999999
 10
-0.875
 20
-0.9035059999999999
  0
CIRCLE
  5
84F
330
81E
100
AcDbEntity
  8
DAMAN
100
AcDbCircle
 10
-0.5
 20
-4.5
 30
0.0
 40
0.53125
  0
LWPOLYLINE
  5
850
330
81E
100
AcDbEntity
  8
DAMAN
100
AcDbPolyline
 90
        6
 70
     1
 43
0.0
 10
-0.875
 20
-4.283494000000008
 10
-0.5
 20
-4.066987000000008
 10
-0.125
 20
-4.283494000000008
 10
-0.125
 20
-4.716505999999998
 10
-0.5
 20
-4.933012999999998
 10
-0.875
 20
-4.716505999999998
  0
CIRCLE
  5
851
330
81E
100
AcDbEntity
  8
DAMAN
100
AcDbCircle
 10
-0.5
 20
-4.5
 30
0.0
 40
0.375
  0
LINE
  5
852
330
81E
100
AcDbEntity
  8
DAMAN
100
AcDbLine
 10
0.0
 20
-4.141179000000001
 30
0.0
 11
0.0
 21
-4.858820999999998
 31
0.0
  0
ARC
  5
853
330
81E
100
AcDbEntity
  8
DAMAN
100
AcDbCircle
 10
0.40625
 20
-4.5
 30
0.0
 40
0.40625
100
AcDbArc
 50
147.795772
 51
212.2042279999999
  0
LINE
  5
854
330
81E
100
AcDbEntity
  8
DAMAN
100
AcDbLine
 10
0.0428349999999966
 20
-4.933012999999998
 30
0.0
 11
0.0
 21
-4.858820999999998
 31
0.0
  0
ARC
  5
855
330
81E
100
AcDbEntity
  8
DAMAN
100
AcDbCircle
 10
0.125
 20
-4.824760000000007
 30
0.0
 40
0.125
100
AcDbArc
 50
119.9999999999999
 51
239.9999999999999
  0
LINE
  5
856
330
81E
100
AcDbEntity
  8
DAMAN
100
AcDbLine
 10
0.0428349999999966
 20
-4.066987000000008
 30
0.0
 11
0.0
 21
-4.141179000000001
 31
0.0
  0
ARC
  5
857
330
81E
100
AcDbEntity
  8
DAMAN
100
AcDbCircle
 10
0.125
 20
-4.175239999999997
 30
0.0
 40
0.125
100
AcDbArc
 50
119.9999999999999
 51
239.9999999999999
  0
ARC
  5
858
330
81E
100
AcDbEntity
  8
DAMAN
100
AcDbCircle
 10
0.125
 20
-1.011760000000009
 30
0.0
 40
0.125
100
AcDbArc
 50
119.9999999999999
 51
239.9999999999999
  0
LINE
  5
859
330
81E
100
AcDbEntity
  8
DAMAN
100
AcDbLine
 10
0.0428349999999966
 20
-1.120012999999999
 30
0.0
 11
0.0
 21
-1.045821000000009
 31
0.0
  0
ARC
  5
85A
330
81E
100
AcDbEntity
  8
DAMAN
100
AcDbCircle
 10
0.125
 20
-0.3622400000000034
 30
0.0
 40
0.125
100
AcDbArc
 50
119.9999999999999
 51
239.9999999999999
  0
LINE
  5
85B
330
81E
100
AcDbEntity
  8
DAMAN
100
AcDbLine
 10
0.0428349999999966
 20
-0.2539870000000093
 30
0.0
 11
0.0
 21
-0.3281789999999987
 31
0.0
  0
LINE
  5
85C
330
81E
100
AcDbEntity
  8
DAMAN
100
AcDbLine
 10
0.3125
 20
-0.1557500000000083
 30
0.0
 11
0.3125
 21
-1.21825
 31
0.0
  0
LINE
  5
85D
330
81E
100
AcDbEntity
  8
DAMAN
100
AcDbLine
 10
1.3125
 20
-0.4682500000000084
 30
0.0
 11
1.3125
 21
-0.9057500000000011
 31
0.0
  0
LINE
  5
85E
330
81E
100
AcDbEntity
  8
DAMAN
100
AcDbLine
 10
0.3125
 20
-3.968750000000009
 30
0.0
 11
0.3125
 21
-5.03125
 31
0.0
  0
LINE
  5
85F
330
81E
100
AcDbEntity
  8
DAMAN
100
AcDbLine
 10
0.5625
 20
-4.71875
 30
0.0
 11
1.3125
 21
-4.71875
 31
0.0
  0
LINE
  5
860
330
81E
100
AcDbEntity
  8
DAMAN
100
AcDbLine
 10
1.28125
 20
-4.750000000000009
 30
0.0
 11
0.5625
 21
-4.750000000000009
 31
0.0
  0
LINE
  5
861
330
81E
100
AcDbEntity
  8
DAMAN
100
AcDbLine
 10
0.5625
 20
-4.281250000000009
 30
0.0
 11
1.3125
 21
-4.281250000000009
 31
0.0
  0
LINE
  5
862
330
81E
100
AcDbEntity
  8
DAMAN
100
AcDbLine
 10
0.5625
 20
-4.25
 30
0.0
 11
1.28125
 21
-4.25
 31
0.0
  0
LINE
  5
863
330
81E
100
AcDbEntity
  8
DAMAN
100
AcDbLine
 10
0.3125
 20
-5.03125
 30
0.0
 11
0.375
 21
-5.03125
 31
0.0
  0
LINE
  5
864
330
81E
100
AcDbEntity
  8
DAMAN
100
AcDbLine
 10
1.3125
 20
-4.281250000000009
 30
0.0
 11
1.3125
 21
-4.71875
 31
0.0
  0
LINE
  5
865
330
81E
100
AcDbEntity
  8
DAMAN
100
AcDbLine
 10
1.3125
 20
-4.71875
 30
0.0
 11
1.28125
 21
-4.750000000000009
 31
0.0
  0
LINE
  5
866
330
81E
100
AcDbEntity
  8
DAMAN
100
AcDbLine
 10
1.28125
 20
-4.25
 30
0.0
 11
1.3125
 21
-4.281250000000009
 31
0.0
  0
LINE
  5
867
330
81E
100
AcDbEntity
  8
DAMAN
100
AcDbLine
 10
0.375
 20
-3.968750000000009
 30
0.0
 11
0.3125
 21
-3.968750000000009
 31
0.0
  0
LINE
  5
868
330
81E
100
AcDbEntity
  8
DAMAN
100
AcDbLine
 10
1.28125
 20
-0.937000000000008
 30
0.0
 11
0.5625
 21
-0.937000000000008
 31
0.0
  0
LINE
  5
869
330
81E
100
AcDbEntity
  8
DAMAN
100
AcDbLine
 10
0.5625
 20
-0.9057500000000011
 30
0.0
 11
1.3125
 21
-0.9057500000000011
 31
0.0
  0
LINE
  5
86A
330
81E
100
AcDbEntity
  8
DAMAN
100
AcDbLine
 10
0.3125
 20
-1.21825
 30
0.0
 11
0.375
 21
-1.21825
 31
0.0
  0
LINE
  5
86B
330
81E
100
AcDbEntity
  8
DAMAN
100
AcDbLine
 10
1.3125
 20
-0.9057500000000011
 30
0.0
 11
1.28125
 21
-0.937000000000008
 31
0.0
  0
LINE
  5
86C
330
81E
100
AcDbEntity
  8
DAMAN
100
AcDbLine
 10
0.5625
 20
-0.4369999999999977
 30
0.0
 11
1.28125
 21
-0.4369999999999977
 31
0.0
  0
LINE
  5
86D
330
81E
100
AcDbEntity
  8
DAMAN
100
AcDbLine
 10
0.5625
 20
-0.4682500000000084
 30
0.0
 11
1.3125
 21
-0.4682500000000084
 31
0.0
  0
LINE
  5
86E
330
81E
100
AcDbEntity
  8
DAMAN
100
AcDbLine
 10
0.375
 20
-0.1557500000000083
 30
0.0
 11
0.3125
 21
-0.1557500000000083
 31
0.0
  0
LINE
  5
86F
330
81E
100
AcDbEntity
  8
DAMAN
100
AcDbLine
 10
1.28125
 20
-0.4369999999999977
 30
0.0
 11
1.3125
 21
-0.4682500000000084
 31
0.0
  0
ENDBLK
  5
871
330
81E
100
AcDbEntity
  8
0
100
AcDbBlockEnd
  0
ENDSEC
  0
SECTION
  2
ENTITIES
  0
LINE
  5
36
330
1E
100
AcDbEntity
  8
0
  6
CONTINUOUS
 62
     5
100
AcDbLine
 10
60.68749999999999
 20
26.875
 30
0.0
 11
53.6875
 21
26.875
 31
0.0
  0
LINE
  5
38
330
1E
100
AcDbEntity
  8
0
  6
CONTINUOUS
 62
     5
100
AcDbLine
 10
58.7185
 20
25.419
 30
0.0
 11
58.7185
 21
26.019
 31
0.0
  0
LINE
  5
3E
330
1E
100
AcDbEntity
  8
0
  6
CONTINUOUS
 62
     5
100
AcDbLine
 10
58.7185
 20
23.73099999999999
 30
0.0
 11
58.7185
 21
24.331
 31
0.0
  0
LINE
  5
53
330
1E
100
AcDbEntity
  8
0
  6
CONTINUOUS
 62
     5
100
AcDbLine
 10
55.98749999999999
 20
24.875
 30
0.0
 11
58.3875
 21
24.875
 31
0.0
  0
CIRCLE
  5
56
330
1E
100
AcDbEntity
  8
0
  6
CONTINUOUS
 62
     5
100
AcDbCircle
 10
57.1875
 20
24.875
 30
0.0
 40
1.0
  0
LINE
  5
57
330
1E
100
AcDbEntity
  8
0
  6
CONTINUOUS
 62
     5
100
AcDbLine
 10
55.6565
 20
25.419
 30
0.0
 11
55.6565
 21
26.019
 31
0.0
  0
TEXT
  5
60
330
1E
100
AcDbEntity
  8
0
 62
     5
100
AcDbText
 10
54.75208300000002
 20
25.10302049999999
 30
0.0
 40
0.2125
  1
T
 50
90.0
 41
0.825
 72
     4
 11
54.64583300000001
 21
25.161458
 31
0.0
100
AcDbText
  0
LINE
  5
61
330
1E
100
AcDbEntity
  8
0
  6
CONTINUOUS
 62
     5
100
AcDbLine
 10
55.6565
 20
23.73099999999999
 30
0.0
 11
55.6565
 21
24.331
 31
0.0
  0
LINE
  5
62
330
1E
100
AcDbEntity
  8
0
  6
CONTINUOUS
 62
     5
100
AcDbLine
 10
55.35649999999999
 20
25.719
 30
0.0
 11
55.9565
 21
25.719
 31
0.0
  0
ARC
  5
63
330
1E
100
AcDbEntity
  8
0
  6
CONTINUOUS
 62
     5
100
AcDbCircle
 10
55.6565
 20
25.719
 30
0.0
 40
0.247
100
AcDbArc
 50
85.00000099999999
 51
5.0
  0
CIRCLE
  5
64
330
1E
100
AcDbEntity
  8
0
  6
CONTINUOUS
 62
     5
100
AcDbCircle
 10
55.6565
 20
25.719
 30
0.0
 40
0.211
  0
CIRCLE
  5
65
330
1E
100
AcDbEntity
  8
0
  6
CONTINUOUS
 62
     5
100
AcDbCircle
 10
55.6565
 20
25.719
 30
0.0
 40
0.25
  0
LINE
  5
66
330
1E
100
AcDbEntity
  8
0
  6
CONTINUOUS
 62
     5
100
AcDbLine
 10
55.35649999999999
 20
24.031
 30
0.0
 11
55.9565
 21
24.031
 31
0.0
  0
ARC
  5
67
330
1E
100
AcDbEntity
  8
0
  6
CONTINUOUS
 62
     5
100
AcDbCircle
 10
55.6565
 20
24.031
 30
0.0
 40
0.247
100
AcDbArc
 50
85.00000099999999
 51
5.0
  0
CIRCLE
  5
68
330
1E
100
AcDbEntity
  8
0
  6
CONTINUOUS
 62
     5
100
AcDbCircle
 10
55.6565
 20
24.031
 30
0.0
 40
0.211
  0
CIRCLE
  5
69
330
1E
100
AcDbEntity
  8
0
  6
CONTINUOUS
 62
     5
100
AcDbCircle
 10
55.6565
 20
24.031
 30
0.0
 40
0.25
  0
LINE
  5
6A
330
1E
100
AcDbEntity
  8
0
  6
CONTINUOUS
 62
     5
100
AcDbLine
 10
55.5125
 20
21.82799999999998
 30
0.0
 11
56.11249999999999
 21
21.82799999999998
 31
0.0
  0
LINE
  5
6B
330
1E
100
AcDbEntity
  8
0
  6
CONTINUOUS
 62
     5
100
AcDbLine
 10
58.5625
 20
20.12199999999999
 30
0.0
 11
58.5625
 21
20.722
 31
0.0
  0
LINE
  5
6C
330
1E
100
AcDbEntity
  8
0
  6
CONTINUOUS
 62
     5
100
AcDbLine
 10
56.2875
 20
21.125
 30
0.0
 11
58.08749999999999
 21
21.125
 31
0.0
  0
LINE
  5
6D
330
1E
100
AcDbEntity
  8
0
  6
CONTINUOUS
 62
     5
100
AcDbLine
 10
55.8125
 20
20.12199999999999
 30
0.0
 11
55.8125
 21
20.722
 31
0.0
  0
TEXT
  5
6E
330
1E
100
AcDbEntity
  8
0
 62
     5
100
AcDbText
 10
54.73645799999999
 20
21.0645595
 30
0.0
 40
0.2125
  1
P
 50
90.0
 41
0.825
 72
     4
 11
54.63020799999999
 21
21.122997
 31
0.0
100
AcDbText
  0
LINE
  5
79
330
1E
100
AcDbEntity
  8
0
  6
CONTINUOUS
 62
     5
100
AcDbLine
 10
55.5125
 20
20.422
 30
0.0
 11
56.11249999999999
 21
20.422
 31
0.0
  0
ARC
  5
7A
330
1E
100
AcDbEntity
  8
0
  6
CONTINUOUS
 62
     5
100
AcDbCircle
 10
55.8125
 20
20.422
 30
0.0
 40
0.247
100
AcDbArc
 50
85.00000099999999
 51
5.0
  0
CIRCLE
  5
7B
330
1E
100
AcDbEntity
  8
0
  6
CONTINUOUS
 62
     5
100
AcDbCircle
 10
55.8125
 20
20.422
 30
0.0
 40
0.211
  0
CIRCLE
  5
7C
330
1E
100
AcDbEntity
  8
0
  6
CONTINUOUS
 62
     5
100
AcDbCircle
 10
55.8125
 20
20.422
 30
0.0
 40
0.25
  0
LINE
  5
7D
330
1E
100
AcDbEntity
  8
0
  6
CONTINUOUS
 62
     5
100
AcDbLine
 10
58.5625
 20
21.528
 30
0.0
 11
58.5625
 21
22.128
 31
0.0
  0
LINE
  5
7E
330
1E
100
AcDbEntity
  8
0
  6
CONTINUOUS
 62
     5
100
AcDbLine
 10
57.1875
 20
20.225
 30
0.0
 11
57.1875
 21
22.025
 31
0.0
  0
ARC
  5
7F
330
1E
100
AcDbEntity
  8
0
  6
CONTINUOUS
 62
     5
100
AcDbCircle
 10
55.8125
 20
21.82799999999998
 30
0.0
 40
0.247
100
AcDbArc
 50
85.00000099999999
 51
5.0
  0
CIRCLE
  5
80
330
1E
100
AcDbEntity
  8
0
  6
CONTINUOUS
 62
     5
100
AcDbCircle
 10
55.8125
 20
21.82799999999998
 30
0.0
 40
0.211
  0
CIRCLE
  5
81
330
1E
100
AcDbEntity
  8
0
  6
CONTINUOUS
 62
     5
100
AcDbCircle
 10
55.8125
 20
21.82799999999998
 30
0.0
 40
0.25
  0
LINE
  5
82
330
1E
100
AcDbEntity
  8
0
  6
CONTINUOUS
 62
     5
100
AcDbLine
 10
55.8125
 20
21.528
 30
0.0
 11
55.8125
 21
22.128
 31
0.0
  0
CIRCLE
  5
84
330
1E
100
AcDbEntity
  8
0
  6
CONTINUOUS
 62
     5
100
AcDbCircle
 10
57.1875
 20
21.125
 30
0.0
 40
0.75
  0
LINE
  5
85
330
1E
100
AcDbEntity
  8
0
  6
CONTINUOUS
 62
     5
100
AcDbLine
 10
58.4185
 20
25.719
 30
0.0
 11
59.0185
 21
25.719
 31
0.0
  0
ARC
  5
86
330
1E
100
AcDbEntity
  8
0
  6
CONTINUOUS
 62
     5
100
AcDbCircle
 10
58.7185
 20
25.719
 30
0.0
 40
0.247
100
AcDbArc
 50
85.00000099999999
 51
5.0
  0
CIRCLE
  5
87
330
1E
100
AcDbEntity
  8
0
  6
CONTINUOUS
 62
     5
100
AcDbCircle
 10
58.7185
 20
25.719
 30
0.0
 40
0.211
  0
CIRCLE
  5
88
330
1E
100
AcDbEntity
  8
0
  6
CONTINUOUS
 62
     5
100
AcDbCircle
 10
58.7185
 20
25.719
 30
0.0
 40
0.25
  0
LINE
  5
89
330
1E
100
AcDbEntity
  8
0
  6
CONTINUOUS
 62
     5
100
AcDbLine
 10
58.4185
 20
24.031
 30
0.0
 11
59.0185
 21
24.031
 31
0.0
  0
ARC
  5
8A
330
1E
100
AcDbEntity
  8
0
  6
CONTINUOUS
 62
     5
100
AcDbCircle
 10
58.7185
 20
24.031
 30
0.0
 40
0.247
100
AcDbArc
 50
85.00000099999999
 51
5.0
  0
CIRCLE
  5
8B
330
1E
100
AcDbEntity
  8
0
  6
CONTINUOUS
 62
     5
100
AcDbCircle
 10
58.7185
 20
24.031
 30
0.0
 40
0.211
  0
CIRCLE
  5
8C
330
1E
100
AcDbEntity
  8
0
  6
CONTINUOUS
 62
     5
100
AcDbCircle
 10
58.7185
 20
24.031
 30
0.0
 40
0.25
  0
LINE
  5
8D
330
1E
100
AcDbEntity
  8
0
  6
CONTINUOUS
 62
     5
100
AcDbLine
 10
58.2625
 20
21.82799999999998
 30
0.0
 11
58.86249999999999
 21
21.82799999999998
 31
0.0
  0
CIRCLE
  5
8E
330
1E
100
AcDbEntity
  8
0
  6
CONTINUOUS
 62
     5
100
AcDbCircle
 10
58.5625
 20
20.422
 30
0.0
 40
0.211
  0
ARC
  5
8F
330
1E
100
AcDbEntity
  8
0
  6
CONTINUOUS
 62
     5
100
AcDbCircle
 10
58.5625
 20
20.422
 30
0.0
 40
0.247
100
AcDbArc
 50
85.00000099999999
 51
5.0
  0
CIRCLE
  5
90
330
1E
100
AcDbEntity
  8
0
  6
CONTINUOUS
 62
     5
100
AcDbCircle
 10
58.5625
 20
20.422
 30
0.0
 40
0.25
  0
LINE
  5
91
330
1E
100
AcDbEntity
  8
0
  6
CONTINUOUS
 62
     5
100
AcDbLine
 10
58.2625
 20
20.422
 30
0.0
 11
58.86249999999999
 21
20.422
 31
0.0
  0
CIRCLE
  5
92
330
1E
100
AcDbEntity
  8
0
  6
CONTINUOUS
 62
     5
100
AcDbCircle
 10
58.5625
 20
21.82799999999998
 30
0.0
 40
0.211
  0
ARC
  5
93
330
1E
100
AcDbEntity
  8
0
  6
CONTINUOUS
 62
     5
100
AcDbCircle
 10
58.5625
 20
21.82799999999998
 30
0.0
 40
0.247
100
AcDbArc
 50
85.00000099999999
 51
5.0
  0
CIRCLE
  5
94
330
1E
100
AcDbEntity
  8
0
  6
CONTINUOUS
 62
     5
100
AcDbCircle
 10
58.5625
 20
21.82799999999998
 30
0.0
 40
0.25
  0
LINE
  5
98
330
1E
100
AcDbEntity
  8
0
  6
CONTINUOUS
 62
     5
100
AcDbLine
 10
53.6875
 20
17.875
 30
0.0
 11
60.68749999999999
 21
17.875
 31
0.0
  0
LINE
  5
A9
330
1E
100
AcDbEntity
  8
0
  6
CONTINUOUS
 62
     5
100
AcDbLine
 10
57.1875
 20
23.675
 30
0.0
 11
57.1875
 21
26.07499999999999
 31
0.0
  0
LINE
  5
AC
330
1E
100
AcDbEntity
  8
0
  6
CONTINUOUS
 62
     5
100
AcDbLine
 10
53.6875
 20
26.875
 30
0.0
 11
53.6875
 21
17.875
 31
0.0
  0
LINE
  5
AD
330
1E
100
AcDbEntity
  8
0
  6
CONTINUOUS
 62
     5
100
AcDbLine
 10
30.6125
 20
26.125
 30
0.0
 11
31.5125
 21
26.125
 31
0.0
  0
LINE
  5
AE
330
1E
100
AcDbEntity
  8
0
  6
CONTINUOUS
 62
     5
100
AcDbLine
 10
24.3625
 20
26.125
 30
0.0
 11
25.2625
 21
26.125
 31
0.0
  0
LINE
  5
E8
330
1E
100
AcDbEntity
  8
0
  6
CONTINUOUS
 62
     5
100
AcDbLine
 10
30.6125
 20
23.125
 30
0.0
 11
31.5125
 21
23.125
 31
0.0
  0
LINE
  5
E9
330
1E
100
AcDbEntity
  8
0
  6
CONTINUOUS
 62
     5
100
AcDbLine
 10
31.0625
 20
22.675
 30
0.0
 11
31.0625
 21
23.57499999999999
 31
0.0
  0
ARC
  5
EA
330
1E
100
AcDbEntity
  8
0
  6
CONTINUOUS
 62
     5
100
AcDbCircle
 10
31.0625
 20
23.125
 30
0.0
 40
0.384
100
AcDbArc
 50
85.00000099999999
 51
5.0
  0
CIRCLE
  5
EB
330
1E
100
AcDbEntity
  8
0
  6
CONTINUOUS
 62
     5
100
AcDbCircle
 10
31.0625
 20
23.125
 30
0.0
 40
0.3279999999999999
  0
CIRCLE
  5
EC
330
1E
100
AcDbEntity
  8
0
  6
CONTINUOUS
 62
     5
100
AcDbCircle
 10
31.0625
 20
23.125
 30
0.0
 40
0.375
  0
LINE
  5
ED
330
1E
100
AcDbEntity
  8
0
  6
CONTINUOUS
 62
     5
100
AcDbLine
 10
29.6875
 20
23.75
 30
0.0
 11
29.6875
 21
25.25
 31
0.0
  0
LINE
  5
EF
330
1E
100
AcDbEntity
  8
0
  6
CONTINUOUS
 62
     5
100
AcDbLine
 10
31.0625
 20
20.498
 30
0.0
 11
31.0625
 21
20.836
 31
0.0
  0
LINE
  5
F0
330
1E
100
AcDbEntity
  8
0
  6
CONTINUOUS
 62
     5
100
AcDbLine
 10
31.0625
 20
20.14399999999997
 30
0.0
 11
31.0625
 21
20.482
 31
0.0
  0
LINE
  5
F1
330
1E
100
AcDbEntity
  8
0
  6
CONTINUOUS
 62
     5
100
AcDbLine
 10
30.8935
 20
20.66699999999998
 30
0.0
 11
31.2315
 21
20.66699999999998
 31
0.0
  0
LINE
  5
F2
330
1E
100
AcDbEntity
  8
0
  6
CONTINUOUS
 62
     5
100
AcDbLine
 10
30.8935
 20
20.31299999999998
 30
0.0
 11
31.2315
 21
20.31299999999998
 31
0.0
  0
CIRCLE
  5
F3
330
1E
100
AcDbEntity
  8
0
  6
CONTINUOUS
 62
     5
100
AcDbCircle
 10
31.0625
 20
20.66699999999998
 30
0.0
 40
0.14
  0
CIRCLE
  5
F4
330
1E
100
AcDbEntity
  8
0
  6
CONTINUOUS
 62
     5
100
AcDbCircle
 10
31.0625
 20
20.31299999999998
 30
0.0
 40
0.14
  0
LINE
  5
F5
330
1E
100
AcDbEntity
  8
0
  6
CONTINUOUS
 62
     5
100
AcDbLine
 10
30.6125
 20
18.625
 30
0.0
 11
31.5125
 21
18.625
 31
0.0
  0
LINE
  5
F6
330
1E
100
AcDbEntity
  8
0
  6
CONTINUOUS
 62
     5
100
AcDbLine
 10
31.0625
 20
18.175
 30
0.0
 11
31.0625
 21
19.07499999999998
 31
0.0
  0
CIRCLE
  5
F7
330
1E
100
AcDbEntity
  8
0
  6
CONTINUOUS
 62
     5
100
AcDbCircle
 10
31.0625
 20
18.625
 30
0.0
 40
0.3279999999999999
  0
ARC
  5
F8
330
1E
100
AcDbEntity
  8
0
  6
CONTINUOUS
 62
     5
100
AcDbCircle
 10
31.0625
 20
18.625
 30
0.0
 40
0.384
100
AcDbArc
 50
85.00000099999999
 51
5.0
  0
CIRCLE
  5
F9
330
1E
100
AcDbEntity
  8
0
  6
CONTINUOUS
 62
     5
100
AcDbCircle
 10
31.0625
 20
18.625
 30
0.0
 40
0.375
  0
CIRCLE
  5
FA
330
1E
100
AcDbEntity
  8
0
  6
CONTINUOUS
 62
     5
100
AcDbCircle
 10
29.3125
 20
19.5
 30
0.0
 40
0.2189999999999999
  0
LINE
  5
FB
330
1E
100
AcDbEntity
  8
0
  6
CONTINUOUS
 62
     5
100
AcDbLine
 10
29.3125
 20
19.24699999999998
 30
0.0
 11
29.3125
 21
19.753
 31
0.0
  0
LINE
  5
FC
330
1E
100
AcDbEntity
  8
0
  6
CONTINUOUS
 62
     5
100
AcDbLine
 10
29.6875
 20
20.87499999999999
 30
0.0
 11
29.6875
 21
22.375
 31
0.0
  0
LINE
  5
FF
330
1E
100
AcDbEntity
  8
0
  6
CONTINUOUS
 62
     5
100
AcDbLine
 10
26.1875
 20
22.12499999999999
 30
0.0
 11
26.1875
 21
23.625
 31
0.0
  0
LINE
  5
100
330
1E
100
AcDbEntity
  8
0
  6
CONTINUOUS
 62
     5
100
AcDbLine
 10
24.6435
 20
24.5
 30
0.0
 11
24.9815
 21
24.5
 31
0.0
  0
LINE
  5
101
330
1E
100
AcDbEntity
  8
0
  6
CONTINUOUS
 62
     5
100
AcDbLine
 10
24.8125
 20
24.331
 30
0.0
 11
24.8125
 21
24.669
 31
0.0
  0
CIRCLE
  5
102
330
1E
100
AcDbEntity
  8
0
  6
CONTINUOUS
 62
     5
100
AcDbCircle
 10
24.8125
 20
24.5
 30
0.0
 40
0.14
  0
LINE
  5
103
330
1E
100
AcDbEntity
  8
0
  6
CONTINUOUS
 62
     5
100
AcDbLine
 10
25.4375
 20
22.875
 30
0.0
 11
26.9375
 21
22.875
 31
0.0
  0
CIRCLE
  5
104
330
1E
100
AcDbEntity
  8
0
  6
CONTINUOUS
 62
     5
100
AcDbCircle
 10
26.1875
 20
22.875
 30
0.0
 40
0.625
  0
LINE
  5
106
330
1E
100
AcDbEntity
  8
0
  6
CONTINUOUS
 62
     5
100
AcDbLine
 10
26.1875
 20
19.56299999999998
 30
0.0
 11
26.1875
 21
21.063
 31
0.0
  0
LINE
  5
107
330
1E
100
AcDbEntity
  8
0
  6
CONTINUOUS
 62
     5
100
AcDbLine
 10
24.3625
 20
21.625
 30
0.0
 11
25.2625
 21
21.625
 31
0.0
  0
LINE
  5
108
330
1E
100
AcDbEntity
  8
0
  6
CONTINUOUS
 62
     5
100
AcDbLine
 10
24.3625
 20
18.625
 30
0.0
 11
25.2625
 21
18.625
 31
0.0
  0
LINE
  5
109
330
1E
100
AcDbEntity
  8
0
  6
CONTINUOUS
 62
     5
100
AcDbLine
 10
24.8125
 20
18.175
 30
0.0
 11
24.8125
 21
19.07499999999998
 31
0.0
  0
CIRCLE
  5
10A
330
1E
100
AcDbEntity
  8
0
  6
CONTINUOUS
 62
     5
100
AcDbCircle
 10
24.8125
 20
18.625
 30
0.0
 40
0.3279999999999999
  0
ARC
  5
10B
330
1E
100
AcDbEntity
  8
0
  6
CONTINUOUS
 62
     5
100
AcDbCircle
 10
24.8125
 20
18.625
 30
0.0
 40
0.384
100
AcDbArc
 50
85.00000099999999
 51
5.0
  0
CIRCLE
  5
10C
330
1E
100
AcDbEntity
  8
0
  6
CONTINUOUS
 62
     5
100
AcDbCircle
 10
24.8125
 20
18.625
 30
0.0
 40
0.375
  0
LINE
  5
10D
330
1E
100
AcDbEntity
  8
0
  6
CONTINUOUS
 62
     5
100
AcDbLine
 10
25.4375
 20
20.31299999999998
 30
0.0
 11
26.9375
 21
20.31299999999998
 31
0.0
  0
CIRCLE
  5
10E
330
1E
100
AcDbEntity
  8
0
  6
CONTINUOUS
 62
     5
100
AcDbCircle
 10
26.1875
 20
20.31299999999998
 30
0.0
 40
0.625
  0
LINE
  5
10F
330
1E
100
AcDbEntity
  8
0
  6
CONTINUOUS
 62
     5
100
AcDbLine
 10
24.8125
 20
21.175
 30
0.0
 11
24.8125
 21
22.075
 31
0.0
  0
ARC
  5
110
330
1E
100
AcDbEntity
  8
0
  6
CONTINUOUS
 62
     5
100
AcDbCircle
 10
24.8125
 20
21.625
 30
0.0
 40
0.384
100
AcDbArc
 50
85.00000099999999
 51
5.0
  0
CIRCLE
  5
111
330
1E
100
AcDbEntity
  8
0
  6
CONTINUOUS
 62
     5
100
AcDbCircle
 10
24.8125
 20
21.625
 30
0.0
 40
0.3279999999999999
  0
CIRCLE
  5
112
330
1E
100
AcDbEntity
  8
0
  6
CONTINUOUS
 62
     5
100
AcDbCircle
 10
24.8125
 20
21.625
 30
0.0
 40
0.375
  0
LINE
  5
113
330
1E
100
AcDbEntity
  8
0
  6
CONTINUOUS
 62
     5
100
AcDbLine
 10
29.0595
 20
19.5
 30
0.0
 11
29.5655
 21
19.5
 31
0.0
  0
LINE
  5
114
330
1E
100
AcDbEntity
  8
0
  6
CONTINUOUS
 62
     5
100
AcDbLine
 10
28.9375
 20
24.5
 30
0.0
 11
30.4375
 21
24.5
 31
0.0
  0
CIRCLE
  5
115
330
1E
100
AcDbEntity
  8
0
  6
CONTINUOUS
 62
     5
100
AcDbCircle
 10
29.6875
 20
24.5
 30
0.0
 40
0.625
  0
LINE
  5
116
330
1E
100
AcDbEntity
  8
0
  6
CONTINUOUS
 62
     5
100
AcDbLine
 10
28.9375
 20
21.625
 30
0.0
 11
30.4375
 21
21.625
 31
0.0
  0
CIRCLE
  5
117
330
1E
100
AcDbEntity
  8
0
  6
CONTINUOUS
 62
     5
100
AcDbCircle
 10
29.6875
 20
21.625
 30
0.0
 40
0.625
  0
LINE
  5
124
330
1E
100
AcDbEntity
  8
0
  6
CONTINUOUS
 62
     5
100
AcDbLine
 10
31.0625
 20
25.675
 30
0.0
 11
31.0625
 21
26.575
 31
0.0
  0
CIRCLE
  5
125
330
1E
100
AcDbEntity
  8
0
  6
CONTINUOUS
 62
     5
100
AcDbCircle
 10
31.0625
 20
26.125
 30
0.0
 40
0.3279999999999999
  0
ARC
  5
126
330
1E
100
AcDbEntity
  8
0
  6
CONTINUOUS
 62
     5
100
AcDbCircle
 10
31.0625
 20
26.125
 30
0.0
 40
0.384
100
AcDbArc
 50
85.00000099999999
 51
5.0
  0
CIRCLE
  5
127
330
1E
100
AcDbEntity
  8
0
  6
CONTINUOUS
 62
     5
100
AcDbCircle
 10
31.0625
 20
26.125
 30
0.0
 40
0.375
  0
CIRCLE
  5
128
330
1E
100
AcDbEntity
  8
0
  6
CONTINUOUS
 62
     5
100
AcDbCircle
 10
24.8125
 20
26.125
 30
0.0
 40
0.3279999999999999
  0
ARC
  5
129
330
1E
100
AcDbEntity
  8
0
  6
CONTINUOUS
 62
     5
100
AcDbCircle
 10
24.8125
 20
26.125
 30
0.0
 40
0.384
100
AcDbArc
 50
85.00000099999999
 51
5.0
  0
CIRCLE
  5
12A
330
1E
100
AcDbEntity
  8
0
  6
CONTINUOUS
 62
     5
100
AcDbCircle
 10
24.8125
 20
26.125
 30
0.0
 40
0.375
  0
LINE
  5
12B
330
1E
100
AcDbEntity
  8
0
  6
CONTINUOUS
 62
     5
100
AcDbLine
 10
24.8125
 20
25.675
 30
0.0
 11
24.8125
 21
26.575
 31
0.0
  0
TEXT
  5
1D5
330
1E
100
AcDbEntity
  8
0
 62
     5
100
AcDbText
 10
50.15684050000001
 20
12.01875
 30
0.0
 40
0.2125
  1
Y
 41
0.825
 72
     4
 11
50.21527800000001
 21
12.125
 31
0.0
100
AcDbText
  0
TEXT
  5
1E9
330
1E
100
AcDbEntity
  8
0
 62
     5
100
AcDbText
 10
29.07784749999999
 20
10.260069
 30
0.0
 40
0.2125
  1
A
 41
0.825
 72
     4
 11
29.13628499999999
 21
10.366319
 31
0.0
100
AcDbText
  0
LINE
  5
1EA
330
1E
100
AcDbEntity
  8
0
  6
CONTINUOUS
 62
     5
100
AcDbLine
 10
49.6875
 20
10.66599999999999
 30
0.0
 11
49.6875
 21
12.084
 31
0.0
  0
CIRCLE
  5
1EB
330
1E
100
AcDbEntity
  8
0
  6
CONTINUOUS
 62
     5
100
AcDbCircle
 10
49.6875
 20
11.37499999999999
 30
0.0
 40
0.313
  0
CIRCLE
  5
1EC
330
1E
100
AcDbEntity
  8
0
  6
CONTINUOUS
 62
     5
100
AcDbCircle
 10
49.6875
 20
11.37499999999999
 30
0.0
 40
0.345
  0
ARC
  5
1ED
330
1E
100
AcDbEntity
  8
0
  6
CONTINUOUS
 62
     5
100
AcDbCircle
 10
49.6875
 20
11.37499999999999
 30
0.0
 40
0.366
100
AcDbArc
 50
85.00000099999999
 51
5.0
  0
CIRCLE
  5
1EE
330
1E
100
AcDbEntity
  8
0
  6
CONTINUOUS
 62
     5
100
AcDbCircle
 10
49.6875
 20
11.37499999999999
 30
0.0
 40
0.375
  0
CIRCLE
  5
1EF
330
1E
100
AcDbEntity
  8
0
  6
CONTINUOUS
 62
     5
100
AcDbCircle
 10
49.6875
 20
11.37499999999999
 30
0.0
 40
0.4050000000000001
  0
LINE
  5
1F0
330
1E
100
AcDbEntity
  8
0
  6
CONTINUOUS
 62
     5
100
AcDbLine
 10
48.9785
 20
11.37499999999999
 30
0.0
 11
50.3965
 21
11.37499999999999
 31
0.0
  0
CIRCLE
  5
1F1
330
1E
100
AcDbEntity
  8
0
  6
CONTINUOUS
 62
     5
100
AcDbCircle
 10
49.6875
 20
11.37499999999999
 30
0.0
 40
0.59
  0
LINE
  5
1F2
330
1E
100
AcDbEntity
  8
0
  6
CONTINUOUS
 62
     5
100
AcDbLine
 10
28.3125
 20
13.528
 30
0.0
 11
28.3125
 21
14.128
 31
0.0
  0
LINE
  5
1F3
330
1E
100
AcDbEntity
  8
0
  6
CONTINUOUS
 62
     5
100
AcDbLine
 10
28.01249999999999
 20
13.828
 30
0.0
 11
28.6125
 21
13.828
 31
0.0
  0
ARC
  5
1F4
330
1E
100
AcDbEntity
  8
0
  6
CONTINUOUS
 62
     5
100
AcDbCircle
 10
28.3125
 20
13.828
 30
0.0
 40
0.247
100
AcDbArc
 50
85.00000099999999
 51
5.0
  0
CIRCLE
  5
1F5
330
1E
100
AcDbEntity
  8
0
  6
CONTINUOUS
 62
     5
100
AcDbCircle
 10
28.3125
 20
13.828
 30
0.0
 40
0.211
  0
CIRCLE
  5
1F6
330
1E
100
AcDbEntity
  8
0
  6
CONTINUOUS
 62
     5
100
AcDbCircle
 10
28.3125
 20
13.828
 30
0.0
 40
0.25
  0
LINE
  5
1F7
330
1E
100
AcDbEntity
  8
0
  6
CONTINUOUS
 62
     5
100
AcDbLine
 10
25.2625
 20
13.828
 30
0.0
 11
25.8625
 21
13.828
 31
0.0
  0
LINE
  5
1F8
330
1E
100
AcDbEntity
  8
0
  6
CONTINUOUS
 62
     5
100
AcDbLine
 10
25.5625
 20
13.528
 30
0.0
 11
25.5625
 21
14.128
 31
0.0
  0
CIRCLE
  5
1F9
330
1E
100
AcDbEntity
  8
0
  6
CONTINUOUS
 62
     5
100
AcDbCircle
 10
25.5625
 20
13.828
 30
0.0
 40
0.211
  0
ARC
  5
1FA
330
1E
100
AcDbEntity
  8
0
  6
CONTINUOUS
 62
     5
100
AcDbCircle
 10
25.5625
 20
13.828
 30
0.0
 40
0.247
100
AcDbArc
 50
85.00000099999999
 51
5.0
  0
CIRCLE
  5
1FB
330
1E
100
AcDbEntity
  8
0
  6
CONTINUOUS
 62
     5
100
AcDbCircle
 10
25.5625
 20
13.828
 30
0.0
 40
0.25
  0
LINE
  5
1FC
330
1E
100
AcDbEntity
  8
0
  6
CONTINUOUS
 62
     5
100
AcDbLine
 10
26.0375
 20
13.125
 30
0.0
 11
27.83749999999999
 21
13.125
 31
0.0
  0
LINE
  5
1FE
330
1E
100
AcDbEntity
  8
0
  6
CONTINUOUS
 62
     5
100
AcDbLine
 10
28.3125
 20
12.122
 30
0.0
 11
28.3125
 21
12.72199999999999
 31
0.0
  0
LINE
  5
1FF
330
1E
100
AcDbEntity
  8
0
  6
CONTINUOUS
 62
     5
100
AcDbLine
 10
28.01249999999999
 20
12.422
 30
0.0
 11
28.6125
 21
12.422
 31
0.0
  0
CIRCLE
  5
200
330
1E
100
AcDbEntity
  8
0
  6
CONTINUOUS
 62
     5
100
AcDbCircle
 10
28.3125
 20
12.422
 30
0.0
 40
0.211
  0
ARC
  5
201
330
1E
100
AcDbEntity
  8
0
  6
CONTINUOUS
 62
     5
100
AcDbCircle
 10
28.3125
 20
12.422
 30
0.0
 40
0.247
100
AcDbArc
 50
85.00000099999999
 51
5.0
  0
CIRCLE
  5
202
330
1E
100
AcDbEntity
  8
0
  6
CONTINUOUS
 62
     5
100
AcDbCircle
 10
28.3125
 20
12.422
 30
0.0
 40
0.25
  0
LINE
  5
203
330
1E
100
AcDbEntity
  8
0
  6
CONTINUOUS
 62
     5
100
AcDbLine
 10
28.3125
 20
10.02799999999999
 30
0.0
 11
28.3125
 21
10.62799999999999
 31
0.0
  0
LINE
  5
204
330
1E
100
AcDbEntity
  8
0
  6
CONTINUOUS
 62
     5
100
AcDbLine
 10
28.01249999999999
 20
10.32799999999999
 30
0.0
 11
28.6125
 21
10.32799999999999
 31
0.0
  0
ARC
  5
205
330
1E
100
AcDbEntity
  8
0
  6
CONTINUOUS
 62
     5
100
AcDbCircle
 10
28.3125
 20
10.32799999999999
 30
0.0
 40
0.247
100
AcDbArc
 50
85.00000099999999
 51
5.0
  0
CIRCLE
  5
206
330
1E
100
AcDbEntity
  8
0
  6
CONTINUOUS
 62
     5
100
AcDbCircle
 10
28.3125
 20
10.32799999999999
 30
0.0
 40
0.211
  0
CIRCLE
  5
207
330
1E
100
AcDbEntity
  8
0
  6
CONTINUOUS
 62
     5
100
AcDbCircle
 10
28.3125
 20
10.32799999999999
 30
0.0
 40
0.25
  0
LINE
  5
208
330
1E
100
AcDbEntity
  8
0
  6
CONTINUOUS
 62
     5
100
AcDbLine
 10
28.01249999999999
 20
8.922
 30
0.0
 11
28.6125
 21
8.922
 31
0.0
  0
CIRCLE
  5
209
330
1E
100
AcDbEntity
  8
0
  6
CONTINUOUS
 62
     5
100
AcDbCircle
 10
28.3125
 20
8.922
 30
0.0
 40
0.211
  0
CIRCLE
  5
20A
330
1E
100
AcDbEntity
  8
0
  6
CONTINUOUS
 62
     5
100
AcDbCircle
 10
26.9375
 20
9.625
 30
0.0
 40
0.75
  0
LINE
  5
20B
330
1E
100
AcDbEntity
  8
0
  6
CONTINUOUS
 62
     5
100
AcDbLine
 10
26.9375
 20
8.724999999999999
 30
0.0
 11
26.9375
 21
10.52499999999999
 31
0.0
  0
LINE
  5
20C
330
1E
100
AcDbEntity
  8
0
  6
CONTINUOUS
 62
     5
100
AcDbLine
 10
25.5625
 20
12.122
 30
0.0
 11
25.5625
 21
12.72199999999999
 31
0.0
  0
LINE
  5
20D
330
1E
100
AcDbEntity
  8
0
  6
CONTINUOUS
 62
     5
100
AcDbLine
 10
25.2625
 20
12.422
 30
0.0
 11
25.8625
 21
12.422
 31
0.0
  0
CIRCLE
  5
20E
330
1E
100
AcDbEntity
  8
0
  6
CONTINUOUS
 62
     5
100
AcDbCircle
 10
25.5625
 20
12.422
 30
0.0
 40
0.211
  0
ARC
  5
20F
330
1E
100
AcDbEntity
  8
0
  6
CONTINUOUS
 62
     5
100
AcDbCircle
 10
25.5625
 20
12.422
 30
0.0
 40
0.247
100
AcDbArc
 50
85.00000099999999
 51
5.0
  0
CIRCLE
  5
210
330
1E
100
AcDbEntity
  8
0
  6
CONTINUOUS
 62
     5
100
AcDbCircle
 10
25.5625
 20
12.422
 30
0.0
 40
0.25
  0
LINE
  5
211
330
1E
100
AcDbEntity
  8
0
  6
CONTINUOUS
 62
     5
100
AcDbLine
 10
25.5625
 20
10.02799999999999
 30
0.0
 11
25.5625
 21
10.62799999999999
 31
0.0
  0
LINE
  5
212
330
1E
100
AcDbEntity
  8
0
  6
CONTINUOUS
 62
     5
100
AcDbLine
 10
25.2625
 20
10.32799999999999
 30
0.0
 11
25.8625
 21
10.32799999999999
 31
0.0
  0
CIRCLE
  5
213
330
1E
100
AcDbEntity
  8
0
  6
CONTINUOUS
 62
     5
100
AcDbCircle
 10
25.5625
 20
10.32799999999999
 30
0.0
 40
0.211
  0
ARC
  5
214
330
1E
100
AcDbEntity
  8
0
  6
CONTINUOUS
 62
     5
100
AcDbCircle
 10
25.5625
 20
10.32799999999999
 30
0.0
 40
0.247
100
AcDbArc
 50
85.00000099999999
 51
5.0
  0
CIRCLE
  5
215
330
1E
100
AcDbEntity
  8
0
  6
CONTINUOUS
 62
     5
100
AcDbCircle
 10
25.5625
 20
10.32799999999999
 30
0.0
 40
0.25
  0
LINE
  5
216
330
1E
100
AcDbEntity
  8
0
  6
CONTINUOUS
 62
     5
100
AcDbLine
 10
25.2625
 20
8.922
 30
0.0
 11
25.8625
 21
8.922
 31
0.0
  0
CIRCLE
  5
217
330
1E
100
AcDbEntity
  8
0
  6
CONTINUOUS
 62
     5
100
AcDbCircle
 10
25.5625
 20
8.922
 30
0.0
 40
0.211
  0
LINE
  5
21A
330
1E
100
AcDbEntity
  8
0
  6
CONTINUOUS
 62
     5
100
AcDbLine
 10
26.0375
 20
9.625
 30
0.0
 11
27.83749999999999
 21
9.625
 31
0.0
  0
CIRCLE
  5
21E
330
1E
100
AcDbEntity
  8
0
  6
CONTINUOUS
 62
     5
100
AcDbCircle
 10
26.9375
 20
13.125
 30
0.0
 40
0.75
  0
LINE
  5
21F
330
1E
100
AcDbEntity
  8
0
  6
CONTINUOUS
 62
     5
100
AcDbLine
 10
26.9375
 20
12.225
 30
0.0
 11
26.9375
 21
14.025
 31
0.0
  0
TEXT
  5
221
330
1E
100
AcDbEntity
  8
0
 62
     5
100
AcDbText
 10
29.07003449999999
 20
14.38201799999999
 30
0.0
 40
0.2125
  1
B
 41
0.825
 72
     4
 11
29.12847199999999
 21
14.48826799999999
 31
0.0
100
AcDbText
  0
LINE
  5
236
330
1E
100
AcDbEntity
  8
0
  6
CONTINUOUS
 62
     5
100
AcDbLine
 10
50.6875
 20
14.875
 30
0.0
 11
50.6875
 21
7.875
 31
0.0
  0
LINE
  5
237
330
1E
100
AcDbEntity
  8
0
  6
CONTINUOUS
 62
     5
100
AcDbLine
 10
28.3125
 20
8.621999999999998
 30
0.0
 11
28.3125
 21
9.221999999999999
 31
0.0
  0
LINE
  5
238
330
1E
100
AcDbEntity
  8
0
  6
CONTINUOUS
 62
     5
100
AcDbLine
 10
25.5625
 20
8.621999999999998
 30
0.0
 11
25.5625
 21
9.221999999999999
 31
0.0
  0
ARC
  5
239
330
1E
100
AcDbEntity
  8
0
  6
CONTINUOUS
 62
     5
100
AcDbCircle
 10
25.5625
 20
8.922
 30
0.0
 40
0.247
100
AcDbArc
 50
85.00000099999999
 51
5.0
  0
CIRCLE
  5
23A
330
1E
100
AcDbEntity
  8
0
  6
CONTINUOUS
 62
     5
100
AcDbCircle
 10
25.5625
 20
8.922
 30
0.0
 40
0.25
  0
ARC
  5
23B
330
1E
100
AcDbEntity
  8
0
  6
CONTINUOUS
 62
     5
100
AcDbCircle
 10
28.3125
 20
8.922
 30
0.0
 40
0.247
100
AcDbArc
 50
85.00000099999999
 51
5.0
  0
CIRCLE
  5
23C
330
1E
100
AcDbEntity
  8
0
  6
CONTINUOUS
 62
     5
100
AcDbCircle
 10
28.3125
 20
8.922
 30
0.0
 40
0.25
  0
LINE
  5
257
330
1E
100
AcDbEntity
  8
0
  6
CONTINUOUS
 62
     5
100
AcDbLine
 10
21.6125
 20
26.125
 30
0.0
 11
22.5125
 21
26.125
 31
0.0
  0
LINE
  5
258
330
1E
100
AcDbEntity
  8
0
  6
CONTINUOUS
 62
     5
100
AcDbLine
 10
15.3625
 20
26.125
 30
0.0
 11
16.26249999999999
 21
26.125
 31
0.0
  0
LINE
  5
269
330
1E
100
AcDbEntity
  8
0
  6
CONTINUOUS
 62
     5
100
AcDbLine
 10
21.6125
 20
23.125
 30
0.0
 11
22.5125
 21
23.125
 31
0.0
  0
LINE
  5
26A
330
1E
100
AcDbEntity
  8
0
  6
CONTINUOUS
 62
     5
100
AcDbLine
 10
22.0625
 20
22.675
 30
0.0
 11
22.0625
 21
23.57499999999999
 31
0.0
  0
ARC
  5
26B
330
1E
100
AcDbEntity
  8
0
  6
CONTINUOUS
 62
     5
100
AcDbCircle
 10
22.0625
 20
23.125
 30
0.0
 40
0.384
100
AcDbArc
 50
85.00000099999999
 51
5.0
  0
CIRCLE
  5
26C
330
1E
100
AcDbEntity
  8
0
  6
CONTINUOUS
 62
     5
100
AcDbCircle
 10
22.0625
 20
23.125
 30
0.0
 40
0.3279999999999999
  0
CIRCLE
  5
26D
330
1E
100
AcDbEntity
  8
0
  6
CONTINUOUS
 62
     5
100
AcDbCircle
 10
22.0625
 20
23.125
 30
0.0
 40
0.375
  0
LINE
  5
26E
330
1E
100
AcDbEntity
  8
0
  6
CONTINUOUS
 62
     5
100
AcDbLine
 10
20.6875
 20
23.75
 30
0.0
 11
20.6875
 21
25.25
 31
0.0
  0
LINE
  5
271
330
1E
100
AcDbEntity
  8
0
  6
CONTINUOUS
 62
     5
100
AcDbLine
 10
19.9375
 20
24.5
 30
0.0
 11
21.4375
 21
24.5
 31
0.0
  0
CIRCLE
  5
272
330
1E
100
AcDbEntity
  8
0
  6
CONTINUOUS
 62
     5
100
AcDbCircle
 10
20.6875
 20
24.5
 30
0.0
 40
0.625
  0
LINE
  5
274
330
1E
100
AcDbEntity
  8
0
  6
CONTINUOUS
 62
     5
100
AcDbLine
 10
22.0625
 20
20.498
 30
0.0
 11
22.0625
 21
20.836
 31
0.0
  0
LINE
  5
275
330
1E
100
AcDbEntity
  8
0
  6
CONTINUOUS
 62
     5
100
AcDbLine
 10
21.8935
 20
20.66699999999998
 30
0.0
 11
22.23149999999999
 21
20.66699999999998
 31
0.0
  0
LINE
  5
276
330
1E
100
AcDbEntity
  8
0
  6
CONTINUOUS
 62
     5
100
AcDbLine
 10
21.8935
 20
20.31299999999998
 30
0.0
 11
22.23149999999999
 21
20.31299999999998
 31
0.0
  0
CIRCLE
  5
277
330
1E
100
AcDbEntity
  8
0
  6
CONTINUOUS
 62
     5
100
AcDbCircle
 10
22.0625
 20
20.66699999999998
 30
0.0
 40
0.14
  0
LINE
  5
278
330
1E
100
AcDbEntity
  8
0
  6
CONTINUOUS
 62
     5
100
AcDbLine
 10
22.0625
 20
20.14399999999997
 30
0.0
 11
22.0625
 21
20.482
 31
0.0
  0
CIRCLE
  5
279
330
1E
100
AcDbEntity
  8
0
  6
CONTINUOUS
 62
     5
100
AcDbCircle
 10
22.0625
 20
20.31299999999998
 30
0.0
 40
0.14
  0
LINE
  5
27A
330
1E
100
AcDbEntity
  8
0
  6
CONTINUOUS
 62
     5
100
AcDbLine
 10
21.6125
 20
18.625
 30
0.0
 11
22.5125
 21
18.625
 31
0.0
  0
CIRCLE
  5
27B
330
1E
100
AcDbEntity
  8
0
  6
CONTINUOUS
 62
     5
100
AcDbCircle
 10
22.0625
 20
18.625
 30
0.0
 40
0.3279999999999999
  0
ARC
  5
27C
330
1E
100
AcDbEntity
  8
0
  6
CONTINUOUS
 62
     5
100
AcDbCircle
 10
22.0625
 20
18.625
 30
0.0
 40
0.384
100
AcDbArc
 50
85.00000099999999
 51
5.0
  0
CIRCLE
  5
27D
330
1E
100
AcDbEntity
  8
0
  6
CONTINUOUS
 62
     5
100
AcDbCircle
 10
22.0625
 20
18.625
 30
0.0
 40
0.375
  0
LINE
  5
27E
330
1E
100
AcDbEntity
  8
0
  6
CONTINUOUS
 62
     5
100
AcDbLine
 10
22.0625
 20
18.175
 30
0.0
 11
22.0625
 21
19.07499999999998
 31
0.0
  0
LINE
  5
280
330
1E
100
AcDbEntity
  8
0
  6
CONTINUOUS
 62
     5
100
AcDbLine
 10
20.3125
 20
19.24699999999998
 30
0.0
 11
20.3125
 21
19.753
 31
0.0
  0
CIRCLE
  5
281
330
1E
100
AcDbEntity
  8
0
  6
CONTINUOUS
 62
     5
100
AcDbCircle
 10
20.3125
 20
19.5
 30
0.0
 40
0.2189999999999999
  0
LINE
  5
282
330
1E
100
AcDbEntity
  8
0
  6
CONTINUOUS
 62
     5
100
AcDbLine
 10
20.05949999999999
 20
19.5
 30
0.0
 11
20.5655
 21
19.5
 31
0.0
  0
LINE
  5
283
330
1E
100
AcDbEntity
  8
0
  6
CONTINUOUS
 62
     5
100
AcDbLine
 10
19.9375
 20
21.625
 30
0.0
 11
21.4375
 21
21.625
 31
0.0
  0
LINE
  5
284
330
1E
100
AcDbEntity
  8
0
  6
CONTINUOUS
 62
     5
100
AcDbLine
 10
20.6875
 20
20.87499999999999
 30
0.0
 11
20.6875
 21
22.375
 31
0.0
  0
CIRCLE
  5
285
330
1E
100
AcDbEntity
  8
0
  6
CONTINUOUS
 62
     5
100
AcDbCircle
 10
20.6875
 20
21.625
 30
0.0
 40
0.625
  0
LINE
  5
286
330
1E
100
AcDbEntity
  8
0
  6
CONTINUOUS
 62
     5
100
AcDbLine
 10
15.8125
 20
24.331
 30
0.0
 11
15.8125
 21
24.669
 31
0.0
  0
LINE
  5
287
330
1E
100
AcDbEntity
  8
0
  6
CONTINUOUS
 62
     5
100
AcDbLine
 10
15.6435
 20
24.5
 30
0.0
 11
15.9815
 21
24.5
 31
0.0
  0
CIRCLE
  5
288
330
1E
100
AcDbEntity
  8
0
  6
CONTINUOUS
 62
     5
100
AcDbCircle
 10
15.8125
 20
24.5
 30
0.0
 40
0.14
  0
LINE
  5
289
330
1E
100
AcDbEntity
  8
0
  6
CONTINUOUS
 62
     5
100
AcDbLine
 10
17.1875
 20
22.12499999999999
 30
0.0
 11
17.1875
 21
23.625
 31
0.0
  0
LINE
  5
2C1
330
1E
100
AcDbEntity
  8
0
  6
CONTINUOUS
 62
     5
100
AcDbLine
 10
17.1875
 20
19.56299999999998
 30
0.0
 11
17.1875
 21
21.063
 31
0.0
  0
LINE
  5
2C2
330
1E
100
AcDbEntity
  8
0
  6
CONTINUOUS
 62
     5
100
AcDbLine
 10
15.3625
 20
21.625
 30
0.0
 11
16.26249999999999
 21
21.625
 31
0.0
  0
LINE
  5
2C3
330
1E
100
AcDbEntity
  8
0
  6
CONTINUOUS
 62
     5
100
AcDbLine
 10
15.3625
 20
18.625
 30
0.0
 11
16.26249999999999
 21
18.625
 31
0.0
  0
CIRCLE
  5
2C4
330
1E
100
AcDbEntity
  8
0
  6
CONTINUOUS
 62
     5
100
AcDbCircle
 10
15.8125
 20
18.625
 30
0.0
 40
0.3279999999999999
  0
LINE
  5
2C5
330
1E
100
AcDbEntity
  8
0
  6
CONTINUOUS
 62
     5
100
AcDbLine
 10
15.8125
 20
18.175
 30
0.0
 11
15.8125
 21
19.07499999999998
 31
0.0
  0
ARC
  5
2C6
330
1E
100
AcDbEntity
  8
0
  6
CONTINUOUS
 62
     5
100
AcDbCircle
 10
15.8125
 20
18.625
 30
0.0
 40
0.384
100
AcDbArc
 50
85.00000099999999
 51
5.0
  0
CIRCLE
  5
2C7
330
1E
100
AcDbEntity
  8
0
  6
CONTINUOUS
 62
     5
100
AcDbCircle
 10
15.8125
 20
18.625
 30
0.0
 40
0.375
  0
LINE
  5
2C9
330
1E
100
AcDbEntity
  8
0
  6
CONTINUOUS
 62
     5
100
AcDbLine
 10
15.8125
 20
21.175
 30
0.0
 11
15.8125
 21
22.075
 31
0.0
  0
ARC
  5
2CA
330
1E
100
AcDbEntity
  8
0
  6
CONTINUOUS
 62
     5
100
AcDbCircle
 10
15.8125
 20
21.625
 30
0.0
 40
0.384
100
AcDbArc
 50
85.00000099999999
 51
5.0
  0
CIRCLE
  5
2CB
330
1E
100
AcDbEntity
  8
0
  6
CONTINUOUS
 62
     5
100
AcDbCircle
 10
15.8125
 20
21.625
 30
0.0
 40
0.3279999999999999
  0
CIRCLE
  5
2CC
330
1E
100
AcDbEntity
  8
0
  6
CONTINUOUS
 62
     5
100
AcDbCircle
 10
15.8125
 20
21.625
 30
0.0
 40
0.375
  0
CIRCLE
  5
2CD
330
1E
100
AcDbEntity
  8
0
  6
CONTINUOUS
 62
     5
100
AcDbCircle
 10
17.1875
 20
22.875
 30
0.0
 40
0.625
  0
LINE
  5
2CE
330
1E
100
AcDbEntity
  8
0
  6
CONTINUOUS
 62
     5
100
AcDbLine
 10
16.4375
 20
22.875
 30
0.0
 11
17.9375
 21
22.875
 31
0.0
  0
LINE
  5
2CF
330
1E
100
AcDbEntity
  8
0
  6
CONTINUOUS
 62
     5
100
AcDbLine
 10
16.4375
 20
20.31299999999998
 30
0.0
 11
17.9375
 21
20.31299999999998
 31
0.0
  0
CIRCLE
  5
2D0
330
1E
100
AcDbEntity
  8
0
  6
CONTINUOUS
 62
     5
100
AcDbCircle
 10
17.1875
 20
20.31299999999998
 30
0.0
 40
0.625
  0
LINE
  5
2D1
330
1E
100
AcDbEntity
  8
0
  6
CONTINUOUS
 62
     5
100
AcDbLine
 10
22.0625
 20
25.675
 30
0.0
 11
22.0625
 21
26.575
 31
0.0
  0
ARC
  5
2D2
330
1E
100
AcDbEntity
  8
0
  6
CONTINUOUS
 62
     5
100
AcDbCircle
 10
22.0625
 20
26.125
 30
0.0
 40
0.384
100
AcDbArc
 50
85.00000099999999
 51
5.0
  0
CIRCLE
  5
2D3
330
1E
100
AcDbEntity
  8
0
  6
CONTINUOUS
 62
     5
100
AcDbCircle
 10
22.0625
 20
26.125
 30
0.0
 40
0.3279999999999999
  0
CIRCLE
  5
2D4
330
1E
100
AcDbEntity
  8
0
  6
CONTINUOUS
 62
     5
100
AcDbCircle
 10
22.0625
 20
26.125
 30
0.0
 40
0.375
  0
LINE
  5
2D5
330
1E
100
AcDbEntity
  8
0
  6
CONTINUOUS
 62
     5
100
AcDbLine
 10
15.8125
 20
25.675
 30
0.0
 11
15.8125
 21
26.575
 31
0.0
  0
CIRCLE
  5
2D6
330
1E
100
AcDbEntity
  8
0
  6
CONTINUOUS
 62
     5
100
AcDbCircle
 10
15.8125
 20
26.125
 30
0.0
 40
0.3279999999999999
  0
ARC
  5
2D7
330
1E
100
AcDbEntity
  8
0
  6
CONTINUOUS
 62
     5
100
AcDbCircle
 10
15.8125
 20
26.125
 30
0.0
 40
0.384
100
AcDbArc
 50
85.00000099999999
 51
5.0
  0
CIRCLE
  5
2D8
330
1E
100
AcDbEntity
  8
0
  6
CONTINUOUS
 62
     5
100
AcDbCircle
 10
15.8125
 20
26.125
 30
0.0
 40
0.375
  0
LINE
  5
2E1
330
1E
100
AcDbEntity
  8
0
  6
CONTINUOUS
 62
     5
100
AcDbLine
 10
3.6875
 20
26.875
 30
0.0
 11
10.6875
 21
26.875
 31
0.0
  0
TEXT
  5
2E2
330
1E
100
AcDbEntity
  8
0
 62
     5
100
AcDbText
 10
9.622917000000001
 20
25.2198955
 30
0.0
 40
0.2125
  1
T
 50
270.0
 41
0.825
 72
     4
 11
9.729167
 21
25.161458
 31
0.0
100
AcDbText
  0
LINE
  5
2EB
330
1E
100
AcDbEntity
  8
0
  6
CONTINUOUS
 62
     5
100
AcDbLine
 10
8.7185
 20
25.419
 30
0.0
 11
8.7185
 21
26.019
 31
0.0
  0
LINE
  5
323
330
1E
100
AcDbEntity
  8
0
  6
CONTINUOUS
 62
     5
100
AcDbLine
 10
8.7185
 20
23.73099999999999
 30
0.0
 11
8.7185
 21
24.331
 31
0.0
  0
LINE
  5
324
330
1E
100
AcDbEntity
  8
0
  6
CONTINUOUS
 62
     5
100
AcDbLine
 10
5.987499999999998
 20
24.875
 30
0.0
 11
8.387499999999999
 21
24.875
 31
0.0
  0
CIRCLE
  5
327
330
1E
100
AcDbEntity
  8
0
  6
CONTINUOUS
 62
     5
100
AcDbCircle
 10
7.1875
 20
24.875
 30
0.0
 40
1.0
  0
LINE
  5
328
330
1E
100
AcDbEntity
  8
0
  6
CONTINUOUS
 62
     5
100
AcDbLine
 10
8.418499999999998
 20
25.719
 30
0.0
 11
9.018499999999999
 21
25.719
 31
0.0
  0
CIRCLE
  5
329
330
1E
100
AcDbEntity
  8
0
  6
CONTINUOUS
 62
     5
100
AcDbCircle
 10
8.7185
 20
25.719
 30
0.0
 40
0.25
  0
ARC
  5
32A
330
1E
100
AcDbEntity
  8
0
  6
CONTINUOUS
 62
     5
100
AcDbCircle
 10
8.7185
 20
25.719
 30
0.0
 40
0.247
100
AcDbArc
 50
85.00000099999999
 51
5.0
  0
CIRCLE
  5
32B
330
1E
100
AcDbEntity
  8
0
  6
CONTINUOUS
 62
     5
100
AcDbCircle
 10
8.7185
 20
25.719
 30
0.0
 40
0.211
  0
LINE
  5
32C
330
1E
100
AcDbEntity
  8
0
  6
CONTINUOUS
 62
     5
100
AcDbLine
 10
8.418499999999998
 20
24.031
 30
0.0
 11
9.018499999999999
 21
24.031
 31
0.0
  0
ARC
  5
32D
330
1E
100
AcDbEntity
  8
0
  6
CONTINUOUS
 62
     5
100
AcDbCircle
 10
8.7185
 20
24.031
 30
0.0
 40
0.247
100
AcDbArc
 50
85.00000099999999
 51
5.0
  0
CIRCLE
  5
32E
330
1E
100
AcDbEntity
  8
0
  6
CONTINUOUS
 62
     5
100
AcDbCircle
 10
8.7185
 20
24.031
 30
0.0
 40
0.211
  0
CIRCLE
  5
32F
330
1E
100
AcDbEntity
  8
0
  6
CONTINUOUS
 62
     5
100
AcDbCircle
 10
8.7185
 20
24.031
 30
0.0
 40
0.25
  0
LINE
  5
330
330
1E
100
AcDbEntity
  8
0
  6
CONTINUOUS
 62
     5
100
AcDbLine
 10
8.262499999999999
 20
21.82799999999998
 30
0.0
 11
8.8625
 21
21.82799999999998
 31
0.0
  0
TEXT
  5
331
330
1E
100
AcDbEntity
  8
0
 62
     5
100
AcDbText
 10
9.638229
 20
21.1834375
 30
0.0
 40
0.2125
  1
P
 50
270.0
 41
0.825
 72
     4
 11
9.744479
 21
21.125
 31
0.0
100
AcDbText
  0
LINE
  5
372
330
1E
100
AcDbEntity
  8
0
  6
CONTINUOUS
 62
     5
100
AcDbLine
 10
8.5625
 20
20.12199999999999
 30
0.0
 11
8.5625
 21
20.722
 31
0.0
  0
LINE
  5
373
330
1E
100
AcDbEntity
  8
0
  6
CONTINUOUS
 62
     5
100
AcDbLine
 10
5.8125
 20
20.12199999999999
 30
0.0
 11
5.8125
 21
20.722
 31
0.0
  0
LINE
  5
374
330
1E
100
AcDbEntity
  8
0
  6
CONTINUOUS
 62
     5
100
AcDbLine
 10
6.287499999999997
 20
21.125
 30
0.0
 11
8.0875
 21
21.125
 31
0.0
  0
CIRCLE
  5
375
330
1E
100
AcDbEntity
  8
0
  6
CONTINUOUS
 62
     5
100
AcDbCircle
 10
8.5625
 20
20.422
 30
0.0
 40
0.211
  0
LINE
  5
376
330
1E
100
AcDbEntity
  8
0
  6
CONTINUOUS
 62
     5
100
AcDbLine
 10
8.262499999999999
 20
20.422
 30
0.0
 11
8.8625
 21
20.422
 31
0.0
  0
ARC
  5
377
330
1E
100
AcDbEntity
  8
0
  6
CONTINUOUS
 62
     5
100
AcDbCircle
 10
8.5625
 20
20.422
 30
0.0
 40
0.247
100
AcDbArc
 50
85.00000099999999
 51
5.0
  0
CIRCLE
  5
378
330
1E
100
AcDbEntity
  8
0
  6
CONTINUOUS
 62
     5
100
AcDbCircle
 10
8.5625
 20
20.422
 30
0.0
 40
0.25
  0
LINE
  5
379
330
1E
100
AcDbEntity
  8
0
  6
CONTINUOUS
 62
     5
100
AcDbLine
 10
8.5625
 20
21.528
 30
0.0
 11
8.5625
 21
22.128
 31
0.0
  0
CIRCLE
  5
37B
330
1E
100
AcDbEntity
  8
0
  6
CONTINUOUS
 62
     5
100
AcDbCircle
 10
7.1875
 20
21.125
 30
0.0
 40
0.75
  0
LINE
  5
37C
330
1E
100
AcDbEntity
  8
0
  6
CONTINUOUS
 62
     5
100
AcDbLine
 10
7.1875
 20
20.225
 30
0.0
 11
7.1875
 21
22.025
 31
0.0
  0
LINE
  5
37D
330
1E
100
AcDbEntity
  8
0
  6
CONTINUOUS
 62
     5
100
AcDbLine
 10
5.8125
 20
21.528
 30
0.0
 11
5.8125
 21
22.128
 31
0.0
  0
CIRCLE
  5
37E
330
1E
100
AcDbEntity
  8
0
  6
CONTINUOUS
 62
     5
100
AcDbCircle
 10
8.5625
 20
21.82799999999998
 30
0.0
 40
0.211
  0
ARC
  5
37F
330
1E
100
AcDbEntity
  8
0
  6
CONTINUOUS
 62
     5
100
AcDbCircle
 10
8.5625
 20
21.82799999999998
 30
0.0
 40
0.247
100
AcDbArc
 50
85.00000099999999
 51
5.0
  0
CIRCLE
  5
380
330
1E
100
AcDbEntity
  8
0
  6
CONTINUOUS
 62
     5
100
AcDbCircle
 10
8.5625
 20
21.82799999999998
 30
0.0
 40
0.25
  0
LINE
  5
381
330
1E
100
AcDbEntity
  8
0
  6
CONTINUOUS
 62
     5
100
AcDbLine
 10
5.6565
 20
25.419
 30
0.0
 11
5.6565
 21
26.019
 31
0.0
  0
LINE
  5
387
330
1E
100
AcDbEntity
  8
0
  6
CONTINUOUS
 62
     5
100
AcDbLine
 10
5.6565
 20
23.73099999999999
 30
0.0
 11
5.6565
 21
24.331
 31
0.0
  0
ARC
  5
38E
330
1E
100
AcDbEntity
  8
0
  6
CONTINUOUS
 62
     5
100
AcDbCircle
 10
5.6565
 20
25.719
 30
0.0
 40
0.247
100
AcDbArc
 50
85.00000099999999
 51
5.0
  0
CIRCLE
  5
38F
330
1E
100
AcDbEntity
  8
0
  6
CONTINUOUS
 62
     5
100
AcDbCircle
 10
5.6565
 20
25.719
 30
0.0
 40
0.211
  0
CIRCLE
  5
390
330
1E
100
AcDbEntity
  8
0
  6
CONTINUOUS
 62
     5
100
AcDbCircle
 10
5.6565
 20
25.719
 30
0.0
 40
0.25
  0
LINE
  5
391
330
1E
100
AcDbEntity
  8
0
  6
CONTINUOUS
 62
     5
100
AcDbLine
 10
5.356499999999997
 20
25.719
 30
0.0
 11
5.9565
 21
25.719
 31
0.0
  0
LINE
  5
392
330
1E
100
AcDbEntity
  8
0
  6
CONTINUOUS
 62
     5
100
AcDbLine
 10
5.356499999999997
 20
24.031
 30
0.0
 11
5.9565
 21
24.031
 31
0.0
  0
ARC
  5
393
330
1E
100
AcDbEntity
  8
0
  6
CONTINUOUS
 62
     5
100
AcDbCircle
 10
5.6565
 20
24.031
 30
0.0
 40
0.247
100
AcDbArc
 50
85.00000099999999
 51
5.0
  0
CIRCLE
  5
394
330
1E
100
AcDbEntity
  8
0
  6
CONTINUOUS
 62
     5
100
AcDbCircle
 10
5.6565
 20
24.031
 30
0.0
 40
0.211
  0
CIRCLE
  5
395
330
1E
100
AcDbEntity
  8
0
  6
CONTINUOUS
 62
     5
100
AcDbCircle
 10
5.6565
 20
24.031
 30
0.0
 40
0.25
  0
LINE
  5
398
330
1E
100
AcDbEntity
  8
0
  6
CONTINUOUS
 62
     5
100
AcDbLine
 10
5.5125
 20
21.82799999999998
 30
0.0
 11
6.112499999999998
 21
21.82799999999998
 31
0.0
  0
LINE
  5
399
330
1E
100
AcDbEntity
  8
0
  6
CONTINUOUS
 62
     5
100
AcDbLine
 10
5.5125
 20
20.422
 30
0.0
 11
6.112499999999998
 21
20.422
 31
0.0
  0
ARC
  5
39A
330
1E
100
AcDbEntity
  8
0
  6
CONTINUOUS
 62
     5
100
AcDbCircle
 10
5.8125
 20
20.422
 30
0.0
 40
0.247
100
AcDbArc
 50
85.00000099999999
 51
5.0
  0
CIRCLE
  5
39B
330
1E
100
AcDbEntity
  8
0
  6
CONTINUOUS
 62
     5
100
AcDbCircle
 10
5.8125
 20
20.422
 30
0.0
 40
0.211
  0
CIRCLE
  5
39C
330
1E
100
AcDbEntity
  8
0
  6
CONTINUOUS
 62
     5
100
AcDbCircle
 10
5.8125
 20
20.422
 30
0.0
 40
0.25
  0
ARC
  5
39E
330
1E
100
AcDbEntity
  8
0
  6
CONTINUOUS
 62
     5
100
AcDbCircle
 10
5.8125
 20
21.82799999999998
 30
0.0
 40
0.247
100
AcDbArc
 50
85.00000099999999
 51
5.0
  0
CIRCLE
  5
39F
330
1E
100
AcDbEntity
  8
0
  6
CONTINUOUS
 62
     5
100
AcDbCircle
 10
5.8125
 20
21.82799999999998
 30
0.0
 40
0.211
  0
CIRCLE
  5
3A0
330
1E
100
AcDbEntity
  8
0
  6
CONTINUOUS
 62
     5
100
AcDbCircle
 10
5.8125
 20
21.82799999999998
 30
0.0
 40
0.25
  0
LINE
  5
3A1
330
1E
100
AcDbEntity
  8
0
  6
CONTINUOUS
 62
     5
100
AcDbLine
 10
10.6875
 20
17.875
 30
0.0
 11
3.6875
 21
17.875
 31
0.0
  0
LINE
  5
3B1
330
1E
100
AcDbEntity
  8
0
  6
CONTINUOUS
 62
     5
100
AcDbLine
 10
7.1875
 20
23.675
 30
0.0
 11
7.1875
 21
26.07499999999999
 31
0.0
  0
LINE
  5
3B4
330
1E
100
AcDbEntity
  8
0
  6
CONTINUOUS
 62
     5
100
AcDbLine
 10
10.6875
 20
26.875
 30
0.0
 11
10.6875
 21
17.875
 31
0.0
  0
TEXT
  5
3B6
330
1E
100
AcDbEntity
  8
0
 62
     5
100
AcDbText
 10
20.07003449999998
 20
14.38201799999999
 30
0.0
 40
0.2125
  1
B
 41
0.825
 72
     4
 11
20.12847199999999
 21
14.48826799999999
 31
0.0
100
AcDbText
  0
LINE
  5
3B7
330
1E
100
AcDbEntity
  8
0
  6
CONTINUOUS
 62
     5
100
AcDbLine
 10
19.0125
 20
13.828
 30
0.0
 11
19.6125
 21
13.828
 31
0.0
  0
LINE
  5
3B8
330
1E
100
AcDbEntity
  8
0
  6
CONTINUOUS
 62
     5
100
AcDbLine
 10
19.3125
 20
13.528
 30
0.0
 11
19.3125
 21
14.128
 31
0.0
  0
CIRCLE
  5
3B9
330
1E
100
AcDbEntity
  8
0
  6
CONTINUOUS
 62
     5
100
AcDbCircle
 10
19.3125
 20
13.828
 30
0.0
 40
0.211
  0
ARC
  5
3BA
330
1E
100
AcDbEntity
  8
0
  6
CONTINUOUS
 62
     5
100
AcDbCircle
 10
19.3125
 20
13.828
 30
0.0
 40
0.247
100
AcDbArc
 50
85.00000099999999
 51
5.0
  0
CIRCLE
  5
3BB
330
1E
100
AcDbEntity
  8
0
  6
CONTINUOUS
 62
     5
100
AcDbCircle
 10
19.3125
 20
13.828
 30
0.0
 40
0.25
  0
TEXT
  5
3C4
330
1E
100
AcDbEntity
  8
0
 62
     5
100
AcDbText
 10
22.49365425
 20
10.978819
 30
0.0
 40
0.2125
  1
GA
 41
0.825
 72
     4
 11
22.639748
 21
11.085069
 31
0.0
100
AcDbText
  0
TEXT
  5
3C5
330
1E
100
AcDbEntity
  8
0
 62
     5
100
AcDbText
 10
21.53422491399698
 20
9.033153691488253
 30
0.0
 40
0.1872
  1
DAMAN ****
 41
0.825
 72
     4
 11
22.28068491399698
 21
9.126753691488254
 31
0.0
100
AcDbText
  0
LINE
  5
3C6
330
1E
100
AcDbEntity
  8
0
  6
CONTINUOUS
 62
     5
100
AcDbLine
 10
21.34749999999999
 20
10.615
 30
0.0
 11
22.5275
 21
10.615
 31
0.0
  0
CIRCLE
  5
3D0
330
1E
100
AcDbEntity
  8
0
  6
CONTINUOUS
 62
     5
100
AcDbCircle
 10
21.9375
 20
10.615
 30
0.0
 40
0.4920000000000001
  0
CIRCLE
  5
3D1
330
1E
100
AcDbEntity
  8
0
  6
CONTINUOUS
 62
     5
100
AcDbCircle
 10
21.9375
 20
10.615
 30
0.0
 40
0.307
  0
CIRCLE
  5
3D2
330
1E
100
AcDbEntity
  8
0
  6
CONTINUOUS
 62
     5
100
AcDbCircle
 10
21.9375
 20
10.615
 30
0.0
 40
0.281
  0
ARC
  5
3D3
330
1E
100
AcDbEntity
  8
0
  6
CONTINUOUS
 62
     5
100
AcDbCircle
 10
21.9375
 20
10.615
 30
0.0
 40
0.283
100
AcDbArc
 50
85.00000099999999
 51
5.0
  0
CIRCLE
  5
3D4
330
1E
100
AcDbEntity
  8
0
  6
CONTINUOUS
 62
     5
100
AcDbCircle
 10
21.9375
 20
10.615
 30
0.0
 40
0.254
  0
CIRCLE
  5
3D5
330
1E
100
AcDbEntity
  8
0
  6
CONTINUOUS
 62
     5
100
AcDbCircle
 10
21.9375
 20
10.615
 30
0.0
 40
0.242
  0
LINE
  5
3D6
330
1E
100
AcDbEntity
  8
0
  6
CONTINUOUS
 62
     5
100
AcDbLine
 10
21.9375
 20
10.025
 30
0.0
 11
21.9375
 21
11.205
 31
0.0
  0
LINE
  5
3D7
330
1E
100
AcDbEntity
  8
0
  6
CONTINUOUS
 62
     5
100
AcDbLine
 10
19.0125
 20
12.422
 30
0.0
 11
19.6125
 21
12.422
 31
0.0
  0
LINE
  5
3D8
330
1E
100
AcDbEntity
  8
0
  6
CONTINUOUS
 62
     5
100
AcDbLine
 10
19.3125
 20
12.122
 30
0.0
 11
19.3125
 21
12.72199999999999
 31
0.0
  0
CIRCLE
  5
3D9
330
1E
100
AcDbEntity
  8
0
  6
CONTINUOUS
 62
     5
100
AcDbCircle
 10
19.3125
 20
12.422
 30
0.0
 40
0.211
  0
ARC
  5
3DA
330
1E
100
AcDbEntity
  8
0
  6
CONTINUOUS
 62
     5
100
AcDbCircle
 10
19.3125
 20
12.422
 30
0.0
 40
0.247
100
AcDbArc
 50
85.00000099999999
 51
5.0
  0
CIRCLE
  5
3DB
330
1E
100
AcDbEntity
  8
0
  6
CONTINUOUS
 62
     5
100
AcDbCircle
 10
19.3125
 20
12.422
 30
0.0
 40
0.25
  0
TEXT
  5
3DC
330
1E
100
AcDbEntity
  8
0
 62
     5
100
AcDbText
 10
20.0778475
 20
10.260069
 30
0.0
 40
0.2125
  1
A
 41
0.825
 72
     4
 11
20.136285
 21
10.366319
 31
0.0
100
AcDbText
  0
LINE
  5
3DD
330
1E
100
AcDbEntity
  8
0
  6
CONTINUOUS
 62
     5
100
AcDbLine
 10
19.3125
 20
10.02799999999999
 30
0.0
 11
19.3125
 21
10.62799999999999
 31
0.0
  0
LINE
  5
3DE
330
1E
100
AcDbEntity
  8
0
  6
CONTINUOUS
 62
     5
100
AcDbLine
 10
19.0125
 20
10.32799999999999
 30
0.0
 11
19.6125
 21
10.32799999999999
 31
0.0
  0
CIRCLE
  5
3DF
330
1E
100
AcDbEntity
  8
0
  6
CONTINUOUS
 62
     5
100
AcDbCircle
 10
19.3125
 20
10.32799999999999
 30
0.0
 40
0.211
  0
ARC
  5
3E0
330
1E
100
AcDbEntity
  8
0
  6
CONTINUOUS
 62
     5
100
AcDbCircle
 10
19.3125
 20
10.32799999999999
 30
0.0
 40
0.247
100
AcDbArc
 50
85.00000099999999
 51
5.0
  0
CIRCLE
  5
3E1
330
1E
100
AcDbEntity
  8
0
  6
CONTINUOUS
 62
     5
100
AcDbCircle
 10
19.3125
 20
10.32799999999999
 30
0.0
 40
0.25
  0
LINE
  5
3E2
330
1E
100
AcDbEntity
  8
0
  6
CONTINUOUS
 62
     5
100
AcDbLine
 10
19.0125
 20
8.922
 30
0.0
 11
19.6125
 21
8.922
 31
0.0
  0
CIRCLE
  5
3E3
330
1E
100
AcDbEntity
  8
0
  6
CONTINUOUS
 62
     5
100
AcDbCircle
 10
19.3125
 20
8.922
 30
0.0
 40
0.211
  0
LINE
  5
3E4
330
1E
100
AcDbEntity
  8
0
  6
CONTINUOUS
 62
     5
100
AcDbLine
 10
17.9375
 20
8.724999999999999
 30
0.0
 11
17.9375
 21
10.52499999999999
 31
0.0
  0
LINE
  5
3EE
330
1E
100
AcDbEntity
  8
0
  6
CONTINUOUS
 62
     5
100
AcDbLine
 10
17.9375
 20
12.225
 30
0.0
 11
17.9375
 21
14.025
 31
0.0
  0
LINE
  5
3EF
330
1E
100
AcDbEntity
  8
0
  6
CONTINUOUS
 62
     5
100
AcDbLine
 10
16.26249999999999
 20
13.828
 30
0.0
 11
16.8625
 21
13.828
 31
0.0
  0
ARC
  5
3F0
330
1E
100
AcDbEntity
  8
0
  6
CONTINUOUS
 62
     5
100
AcDbCircle
 10
16.5625
 20
13.828
 30
0.0
 40
0.247
100
AcDbArc
 50
85.00000099999999
 51
5.0
  0
CIRCLE
  5
3F1
330
1E
100
AcDbEntity
  8
0
  6
CONTINUOUS
 62
     5
100
AcDbCircle
 10
16.5625
 20
13.828
 30
0.0
 40
0.211
  0
CIRCLE
  5
3F2
330
1E
100
AcDbEntity
  8
0
  6
CONTINUOUS
 62
     5
100
AcDbCircle
 10
16.5625
 20
13.828
 30
0.0
 40
0.25
  0
LINE
  5
3F3
330
1E
100
AcDbEntity
  8
0
  6
CONTINUOUS
 62
     5
100
AcDbLine
 10
16.5625
 20
13.528
 30
0.0
 11
16.5625
 21
14.128
 31
0.0
  0
LINE
  5
400
330
1E
100
AcDbEntity
  8
0
  6
CONTINUOUS
 62
     5
100
AcDbLine
 10
16.26249999999999
 20
12.422
 30
0.0
 11
16.8625
 21
12.422
 31
0.0
  0
CIRCLE
  5
401
330
1E
100
AcDbEntity
  8
0
  6
CONTINUOUS
 62
     5
100
AcDbCircle
 10
16.5625
 20
12.422
 30
0.0
 40
0.211
  0
ARC
  5
402
330
1E
100
AcDbEntity
  8
0
  6
CONTINUOUS
 62
     5
100
AcDbCircle
 10
16.5625
 20
12.422
 30
0.0
 40
0.247
100
AcDbArc
 50
85.00000099999999
 51
5.0
  0
CIRCLE
  5
403
330
1E
100
AcDbEntity
  8
0
  6
CONTINUOUS
 62
     5
100
AcDbCircle
 10
16.5625
 20
12.422
 30
0.0
 40
0.25
  0
LINE
  5
404
330
1E
100
AcDbEntity
  8
0
  6
CONTINUOUS
 62
     5
100
AcDbLine
 10
16.5625
 20
12.122
 30
0.0
 11
16.5625
 21
12.72199999999999
 31
0.0
  0
LINE
  5
405
330
1E
100
AcDbEntity
  8
0
  6
CONTINUOUS
 62
     5
100
AcDbLine
 10
16.26249999999999
 20
10.32799999999999
 30
0.0
 11
16.8625
 21
10.32799999999999
 31
0.0
  0
LINE
  5
406
330
1E
100
AcDbEntity
  8
0
  6
CONTINUOUS
 62
     5
100
AcDbLine
 10
16.5625
 20
10.02799999999999
 30
0.0
 11
16.5625
 21
10.62799999999999
 31
0.0
  0
ARC
  5
407
330
1E
100
AcDbEntity
  8
0
  6
CONTINUOUS
 62
     5
100
AcDbCircle
 10
16.5625
 20
10.32799999999999
 30
0.0
 40
0.247
100
AcDbArc
 50
85.00000099999999
 51
5.0
  0
CIRCLE
  5
408
330
1E
100
AcDbEntity
  8
0
  6
CONTINUOUS
 62
     5
100
AcDbCircle
 10
16.5625
 20
10.32799999999999
 30
0.0
 40
0.211
  0
CIRCLE
  5
409
330
1E
100
AcDbEntity
  8
0
  6
CONTINUOUS
 62
     5
100
AcDbCircle
 10
16.5625
 20
10.32799999999999
 30
0.0
 40
0.25
  0
LINE
  5
40A
330
1E
100
AcDbEntity
  8
0
  6
CONTINUOUS
 62
     5
100
AcDbLine
 10
16.26249999999999
 20
8.922
 30
0.0
 11
16.8625
 21
8.922
 31
0.0
  0
CIRCLE
  5
40B
330
1E
100
AcDbEntity
  8
0
  6
CONTINUOUS
 62
     5
100
AcDbCircle
 10
16.5625
 20
8.922
 30
0.0
 40
0.211
  0
LINE
  5
40C
330
1E
100
AcDbEntity
  8
0
  6
CONTINUOUS
 62
     5
100
AcDbLine
 10
14.6875
 20
10.66599999999999
 30
0.0
 11
14.6875
 21
12.084
 31
0.0
  0
TEXT
  5
418
330
1E
100
AcDbEntity
  8
0
 62
     5
100
AcDbText
 10
14.1012845
 20
12.01875
 30
0.0
 40
0.2125
  1
Y
 41
0.825
 72
     4
 11
14.159722
 21
12.125
 31
0.0
100
AcDbText
  0
ARC
  5
421
330
1E
100
AcDbEntity
  8
0
  6
CONTINUOUS
 62
     5
100
AcDbCircle
 10
14.6875
 20
11.37499999999999
 30
0.0
 40
0.366
100
AcDbArc
 50
85.00000099999999
 51
5.0
  0
CIRCLE
  5
422
330
1E
100
AcDbEntity
  8
0
  6
CONTINUOUS
 62
     5
100
AcDbCircle
 10
14.6875
 20
11.37499999999999
 30
0.0
 40
0.313
  0
CIRCLE
  5
423
330
1E
100
AcDbEntity
  8
0
  6
CONTINUOUS
 62
     5
100
AcDbCircle
 10
14.6875
 20
11.37499999999999
 30
0.0
 40
0.345
  0
CIRCLE
  5
424
330
1E
100
AcDbEntity
  8
0
  6
CONTINUOUS
 62
     5
100
AcDbCircle
 10
14.6875
 20
11.37499999999999
 30
0.0
 40
0.375
  0
CIRCLE
  5
425
330
1E
100
AcDbEntity
  8
0
  6
CONTINUOUS
 62
     5
100
AcDbCircle
 10
14.6875
 20
11.37499999999999
 30
0.0
 40
0.4050000000000001
  0
CIRCLE
  5
426
330
1E
100
AcDbEntity
  8
0
  6
CONTINUOUS
 62
     5
100
AcDbCircle
 10
14.6875
 20
11.37499999999999
 30
0.0
 40
0.59
  0
LINE
  5
427
330
1E
100
AcDbEntity
  8
0
  6
CONTINUOUS
 62
     5
100
AcDbLine
 10
13.9785
 20
11.37499999999999
 30
0.0
 11
15.39649999999999
 21
11.37499999999999
 31
0.0
  0
CIRCLE
  5
42E
330
1E
100
AcDbEntity
  8
0
  6
CONTINUOUS
 62
     5
100
AcDbCircle
 10
17.9375
 20
13.125
 30
0.0
 40
0.75
  0
LINE
  5
42F
330
1E
100
AcDbEntity
  8
0
  6
CONTINUOUS
 62
     5
100
AcDbLine
 10
17.0375
 20
13.125
 30
0.0
 11
18.8375
 21
13.125
 31
0.0
  0
LINE
  5
431
330
1E
100
AcDbEntity
  8
0
  6
CONTINUOUS
 62
     5
100
AcDbLine
 10
17.0375
 20
9.625
 30
0.0
 11
18.8375
 21
9.625
 31
0.0
  0
CIRCLE
  5
434
330
1E
100
AcDbEntity
  8
0
  6
CONTINUOUS
 62
     5
100
AcDbCircle
 10
17.9375
 20
9.625
 30
0.0
 40
0.75
  0
ARC
  5
438
330
1E
100
AcDbEntity
  8
0
  6
CONTINUOUS
 62
     5
100
AcDbCircle
 10
19.3125
 20
8.922
 30
0.0
 40
0.247
100
AcDbArc
 50
85.00000099999999
 51
5.0
  0
CIRCLE
  5
439
330
1E
100
AcDbEntity
  8
0
  6
CONTINUOUS
 62
     5
100
AcDbCircle
 10
19.3125
 20
8.922
 30
0.0
 40
0.25
  0
LINE
  5
43A
330
1E
100
AcDbEntity
  8
0
  6
CONTINUOUS
 62
     5
100
AcDbLine
 10
19.3125
 20
8.621999999999998
 30
0.0
 11
19.3125
 21
9.221999999999999
 31
0.0
  0
ARC
  5
43B
330
1E
100
AcDbEntity
  8
0
  6
CONTINUOUS
 62
     5
100
AcDbCircle
 10
16.5625
 20
8.922
 30
0.0
 40
0.247
100
AcDbArc
 50
85.00000099999999
 51
5.0
  0
CIRCLE
  5
43C
330
1E
100
AcDbEntity
  8
0
  6
CONTINUOUS
 62
     5
100
AcDbCircle
 10
16.5625
 20
8.922
 30
0.0
 40
0.25
  0
LINE
  5
43D
330
1E
100
AcDbEntity
  8
0
  6
CONTINUOUS
 62
     5
100
AcDbLine
 10
16.5625
 20
8.621999999999998
 30
0.0
 11
16.5625
 21
9.221999999999999
 31
0.0
  0
LINE
  5
440
330
1E
100
AcDbEntity
  8
0
  6
CONTINUOUS
 62
     5
100
AcDbLine
 10
13.6875
 20
7.875
 30
0.0
 11
13.6875
 21
14.875
 31
0.0
  0
LINE
  5
46D
330
1E
100
AcDbEntity
  8
0
  6
CONTINUOUS
 62
     5
100
AcDbLine
 10
50.6875
 20
26.875
 30
0.0
 11
13.6875
 21
26.875
 31
0.0
  0
LINE
  5
46E
330
1E
100
AcDbEntity
  8
0
  6
CONTINUOUS
 62
     5
100
AcDbLine
 10
13.6875
 20
14.875
 30
0.0
 11
50.6875
 21
14.875
 31
0.0
  0
LINE
  5
46F
330
1E
100
AcDbEntity
  8
0
  6
CONTINUOUS
 62
     5
100
AcDbLine
 10
50.6875
 20
7.875
 30
0.0
 11
13.6875
 21
7.875
 31
0.0
  0
LINE
  5
470
330
1E
100
AcDbEntity
  8
0
  6
CONTINUOUS
 62
     5
100
AcDbLine
 10
13.6875
 20
17.875
 30
0.0
 11
50.6875
 21
17.875
 31
0.0
  0
LINE
  5
53F
330
1E
100
AcDbEntity
  8
0
  6
CONTINUOUS
 62
     5
100
AcDbLine
 10
35.9375
 20
12.225
 30
0.0
 11
35.9375
 21
14.025
 31
0.0
  0
CIRCLE
  5
540
330
1E
100
AcDbEntity
  8
0
  6
CONTINUOUS
 62
     5
100
AcDbCircle
 10
35.9375
 20
13.125
 30
0.0
 40
0.75
  0
LINE
  5
541
330
1E
100
AcDbEntity
  8
0
  6
CONTINUOUS
 62
     5
100
AcDbLine
 10
37.01249999999999
 20
8.922
 30
0.0
 11
37.61249999999999
 21
8.922
 31
0.0
  0
LINE
  5
542
330
1E
100
AcDbEntity
  8
0
  6
CONTINUOUS
 62
     5
100
AcDbLine
 10
37.01249999999999
 20
10.32799999999999
 30
0.0
 11
37.61249999999999
 21
10.32799999999999
 31
0.0
  0
LINE
  5
543
330
1E
100
AcDbEntity
  8
0
  6
CONTINUOUS
 62
     5
100
AcDbLine
 10
37.01249999999999
 20
12.422
 30
0.0
 11
37.61249999999999
 21
12.422
 31
0.0
  0
LINE
  5
544
330
1E
100
AcDbEntity
  8
0
  6
CONTINUOUS
 62
     5
100
AcDbLine
 10
35.9375
 20
8.724999999999999
 30
0.0
 11
35.9375
 21
10.52499999999999
 31
0.0
  0
CIRCLE
  5
545
330
1E
100
AcDbEntity
  8
0
  6
CONTINUOUS
 62
     5
100
AcDbCircle
 10
35.9375
 20
9.625
 30
0.0
 40
0.75
  0
CIRCLE
  5
546
330
1E
100
AcDbEntity
  8
0
  6
CONTINUOUS
 62
     5
100
AcDbCircle
 10
34.5625
 20
8.922
 30
0.0
 40
0.25
  0
ARC
  5
547
330
1E
100
AcDbEntity
  8
0
  6
CONTINUOUS
 62
     5
100
AcDbCircle
 10
34.5625
 20
8.922
 30
0.0
 40
0.247
100
AcDbArc
 50
85.00000099999999
 51
5.0
  0
CIRCLE
  5
548
330
1E
100
AcDbEntity
  8
0
  6
CONTINUOUS
 62
     5
100
AcDbCircle
 10
34.5625
 20
8.922
 30
0.0
 40
0.211
  0
LINE
  5
549
330
1E
100
AcDbEntity
  8
0
  6
CONTINUOUS
 62
     5
100
AcDbLine
 10
34.2625
 20
8.922
 30
0.0
 11
34.8625
 21
8.922
 31
0.0
  0
LINE
  5
54A
330
1E
100
AcDbEntity
  8
0
  6
CONTINUOUS
 62
     5
100
AcDbLine
 10
34.5625
 20
8.621999999999998
 30
0.0
 11
34.5625
 21
9.221999999999999
 31
0.0
  0
LINE
  5
54B
330
1E
100
AcDbEntity
  8
0
  6
CONTINUOUS
 62
     5
100
AcDbLine
 10
35.0375
 20
9.625
 30
0.0
 11
36.83749999999999
 21
9.625
 31
0.0
  0
CIRCLE
  5
54C
330
1E
100
AcDbEntity
  8
0
  6
CONTINUOUS
 62
     5
100
AcDbCircle
 10
34.5625
 20
10.32799999999999
 30
0.0
 40
0.25
  0
ARC
  5
54D
330
1E
100
AcDbEntity
  8
0
  6
CONTINUOUS
 62
     5
100
AcDbCircle
 10
34.5625
 20
10.32799999999999
 30
0.0
 40
0.247
100
AcDbArc
 50
85.00000099999999
 51
5.0
  0
CIRCLE
  5
54E
330
1E
100
AcDbEntity
  8
0
  6
CONTINUOUS
 62
     5
100
AcDbCircle
 10
34.5625
 20
10.32799999999999
 30
0.0
 40
0.211
  0
LINE
  5
54F
330
1E
100
AcDbEntity
  8
0
  6
CONTINUOUS
 62
     5
100
AcDbLine
 10
34.5625
 20
10.02799999999999
 30
0.0
 11
34.5625
 21
10.62799999999999
 31
0.0
  0
LINE
  5
550
330
1E
100
AcDbEntity
  8
0
  6
CONTINUOUS
 62
     5
100
AcDbLine
 10
34.2625
 20
10.32799999999999
 30
0.0
 11
34.8625
 21
10.32799999999999
 31
0.0
  0
LINE
  5
551
330
1E
100
AcDbEntity
  8
0
  6
CONTINUOUS
 62
     5
100
AcDbLine
 10
35.0375
 20
13.125
 30
0.0
 11
36.83749999999999
 21
13.125
 31
0.0
  0
CIRCLE
  5
552
330
1E
100
AcDbEntity
  8
0
  6
CONTINUOUS
 62
     5
100
AcDbCircle
 10
34.5625
 20
12.422
 30
0.0
 40
0.25
  0
ARC
  5
553
330
1E
100
AcDbEntity
  8
0
  6
CONTINUOUS
 62
     5
100
AcDbCircle
 10
34.5625
 20
12.422
 30
0.0
 40
0.247
100
AcDbArc
 50
85.00000099999999
 51
5.0
  0
CIRCLE
  5
554
330
1E
100
AcDbEntity
  8
0
  6
CONTINUOUS
 62
     5
100
AcDbCircle
 10
34.5625
 20
12.422
 30
0.0
 40
0.211
  0
LINE
  5
555
330
1E
100
AcDbEntity
  8
0
  6
CONTINUOUS
 62
     5
100
AcDbLine
 10
34.5625
 20
12.122
 30
0.0
 11
34.5625
 21
12.72199999999999
 31
0.0
  0
LINE
  5
556
330
1E
100
AcDbEntity
  8
0
  6
CONTINUOUS
 62
     5
100
AcDbLine
 10
34.2625
 20
12.422
 30
0.0
 11
34.8625
 21
12.422
 31
0.0
  0
CIRCLE
  5
557
330
1E
100
AcDbEntity
  8
0
  6
CONTINUOUS
 62
     5
100
AcDbCircle
 10
37.3125
 20
8.922
 30
0.0
 40
0.25
  0
ARC
  5
558
330
1E
100
AcDbEntity
  8
0
  6
CONTINUOUS
 62
     5
100
AcDbCircle
 10
37.3125
 20
8.922
 30
0.0
 40
0.247
100
AcDbArc
 50
85.00000099999999
 51
5.0
  0
LINE
  5
559
330
1E
100
AcDbEntity
  8
0
  6
CONTINUOUS
 62
     5
100
AcDbLine
 10
37.3125
 20
8.621999999999998
 30
0.0
 11
37.3125
 21
9.221999999999999
 31
0.0
  0
CIRCLE
  5
55A
330
1E
100
AcDbEntity
  8
0
  6
CONTINUOUS
 62
     5
100
AcDbCircle
 10
37.3125
 20
8.922
 30
0.0
 40
0.211
  0
CIRCLE
  5
55B
330
1E
100
AcDbEntity
  8
0
  6
CONTINUOUS
 62
     5
100
AcDbCircle
 10
37.3125
 20
10.32799999999999
 30
0.0
 40
0.25
  0
CIRCLE
  5
55C
330
1E
100
AcDbEntity
  8
0
  6
CONTINUOUS
 62
     5
100
AcDbCircle
 10
37.3125
 20
10.32799999999999
 30
0.0
 40
0.211
  0
ARC
  5
55D
330
1E
100
AcDbEntity
  8
0
  6
CONTINUOUS
 62
     5
100
AcDbCircle
 10
37.3125
 20
10.32799999999999
 30
0.0
 40
0.247
100
AcDbArc
 50
85.00000099999999
 51
5.0
  0
LINE
  5
55E
330
1E
100
AcDbEntity
  8
0
  6
CONTINUOUS
 62
     5
100
AcDbLine
 10
37.3125
 20
10.02799999999999
 30
0.0
 11
37.3125
 21
10.62799999999999
 31
0.0
  0
TEXT
  5
55F
330
1E
100
AcDbEntity
  8
0
 62
     5
100
AcDbText
 10
38.07784749999998
 20
10.260069
 30
0.0
 40
0.2125
  1
A
 41
0.825
 72
     4
 11
38.13628499999998
 21
10.366319
 31
0.0
100
AcDbText
  0
CIRCLE
  5
560
330
1E
100
AcDbEntity
  8
0
  6
CONTINUOUS
 62
     5
100
AcDbCircle
 10
37.3125
 20
12.422
 30
0.0
 40
0.25
  0
ARC
  5
561
330
1E
100
AcDbEntity
  8
0
  6
CONTINUOUS
 62
     5
100
AcDbCircle
 10
37.3125
 20
12.422
 30
0.0
 40
0.247
100
AcDbArc
 50
85.00000099999999
 51
5.0
  0
CIRCLE
  5
562
330
1E
100
AcDbEntity
  8
0
  6
CONTINUOUS
 62
     5
100
AcDbCircle
 10
37.3125
 20
12.422
 30
0.0
 40
0.211
  0
LINE
  5
563
330
1E
100
AcDbEntity
  8
0
  6
CONTINUOUS
 62
     5
100
AcDbLine
 10
37.3125
 20
12.122
 30
0.0
 11
37.3125
 21
12.72199999999999
 31
0.0
  0
CIRCLE
  5
564
330
1E
100
AcDbEntity
  8
0
  6
CONTINUOUS
 62
     5
100
AcDbCircle
 10
38.6875
 20
21.625
 30
0.0
 40
0.625
  0
CIRCLE
  5
565
330
1E
100
AcDbEntity
  8
0
  6
CONTINUOUS
 62
     5
100
AcDbCircle
 10
33.8125
 20
21.625
 30
0.0
 40
0.375
  0
CIRCLE
  5
566
330
1E
100
AcDbEntity
  8
0
  6
CONTINUOUS
 62
     5
100
AcDbCircle
 10
33.8125
 20
21.625
 30
0.0
 40
0.3279999999999999
  0
ARC
  5
567
330
1E
100
AcDbEntity
  8
0
  6
CONTINUOUS
 62
     5
100
AcDbCircle
 10
33.8125
 20
21.625
 30
0.0
 40
0.384
100
AcDbArc
 50
85.00000099999999
 51
5.0
  0
LINE
  5
568
330
1E
100
AcDbEntity
  8
0
  6
CONTINUOUS
 62
     5
100
AcDbLine
 10
33.8125
 20
21.175
 30
0.0
 11
33.8125
 21
22.075
 31
0.0
  0
LINE
  5
569
330
1E
100
AcDbEntity
  8
0
  6
CONTINUOUS
 62
     5
100
AcDbLine
 10
38.6875
 20
20.87499999999999
 30
0.0
 11
38.6875
 21
22.375
 31
0.0
  0
LINE
  5
56A
330
1E
100
AcDbEntity
  8
0
  6
CONTINUOUS
 62
     5
100
AcDbLine
 10
37.01249999999999
 20
13.828
 30
0.0
 11
37.61249999999999
 21
13.828
 31
0.0
  0
CIRCLE
  5
56B
330
1E
100
AcDbEntity
  8
0
  6
CONTINUOUS
 62
     5
100
AcDbCircle
 10
34.5625
 20
13.828
 30
0.0
 40
0.25
  0
ARC
  5
56C
330
1E
100
AcDbEntity
  8
0
  6
CONTINUOUS
 62
     5
100
AcDbCircle
 10
34.5625
 20
13.828
 30
0.0
 40
0.247
100
AcDbArc
 50
85.00000099999999
 51
5.0
  0
CIRCLE
  5
56D
330
1E
100
AcDbEntity
  8
0
  6
CONTINUOUS
 62
     5
100
AcDbCircle
 10
34.5625
 20
13.828
 30
0.0
 40
0.211
  0
LINE
  5
56E
330
1E
100
AcDbEntity
  8
0
  6
CONTINUOUS
 62
     5
100
AcDbLine
 10
34.2625
 20
13.828
 30
0.0
 11
34.8625
 21
13.828
 31
0.0
  0
LINE
  5
56F
330
1E
100
AcDbEntity
  8
0
  6
CONTINUOUS
 62
     5
100
AcDbLine
 10
34.5625
 20
13.528
 30
0.0
 11
34.5625
 21
14.128
 31
0.0
  0
CIRCLE
  5
570
330
1E
100
AcDbEntity
  8
0
  6
CONTINUOUS
 62
     5
100
AcDbCircle
 10
33.8125
 20
18.625
 30
0.0
 40
0.375
  0
ARC
  5
571
330
1E
100
AcDbEntity
  8
0
  6
CONTINUOUS
 62
     5
100
AcDbCircle
 10
33.8125
 20
18.625
 30
0.0
 40
0.384
100
AcDbArc
 50
85.00000099999999
 51
5.0
  0
CIRCLE
  5
572
330
1E
100
AcDbEntity
  8
0
  6
CONTINUOUS
 62
     5
100
AcDbCircle
 10
33.8125
 20
18.625
 30
0.0
 40
0.3279999999999999
  0
LINE
  5
573
330
1E
100
AcDbEntity
  8
0
  6
CONTINUOUS
 62
     5
100
AcDbLine
 10
33.36249999999999
 20
18.625
 30
0.0
 11
34.2625
 21
18.625
 31
0.0
  0
LINE
  5
574
330
1E
100
AcDbEntity
  8
0
  6
CONTINUOUS
 62
     5
100
AcDbLine
 10
33.36249999999999
 20
21.625
 30
0.0
 11
34.2625
 21
21.625
 31
0.0
  0
CIRCLE
  5
575
330
1E
100
AcDbEntity
  8
0
  6
CONTINUOUS
 62
     5
100
AcDbCircle
 10
35.1875
 20
20.31299999999998
 30
0.0
 40
0.625
  0
LINE
  5
576
330
1E
100
AcDbEntity
  8
0
  6
CONTINUOUS
 62
     5
100
AcDbLine
 10
35.1875
 20
19.56299999999998
 30
0.0
 11
35.1875
 21
21.063
 31
0.0
  0
LINE
  5
577
330
1E
100
AcDbEntity
  8
0
  6
CONTINUOUS
 62
     5
100
AcDbLine
 10
33.8125
 20
18.175
 30
0.0
 11
33.8125
 21
19.07499999999998
 31
0.0
  0
LINE
  5
578
330
1E
100
AcDbEntity
  8
0
  6
CONTINUOUS
 62
     5
100
AcDbLine
 10
34.4375
 20
20.31299999999998
 30
0.0
 11
35.9375
 21
20.31299999999998
 31
0.0
  0
TEXT
  5
579
330
1E
100
AcDbEntity
  8
0
 62
     5
100
AcDbText
 10
38.07003449999998
 20
14.38201799999999
 30
0.0
 40
0.2125
  1
B
 41
0.825
 72
     4
 11
38.12847199999997
 21
14.48826799999999
 31
0.0
100
AcDbText
  0
CIRCLE
  5
57A
330
1E
100
AcDbEntity
  8
0
  6
CONTINUOUS
 62
     5
100
AcDbCircle
 10
37.3125
 20
13.828
 30
0.0
 40
0.25
  0
CIRCLE
  5
57B
330
1E
100
AcDbEntity
  8
0
  6
CONTINUOUS
 62
     5
100
AcDbCircle
 10
37.3125
 20
13.828
 30
0.0
 40
0.211
  0
ARC
  5
57C
330
1E
100
AcDbEntity
  8
0
  6
CONTINUOUS
 62
     5
100
AcDbCircle
 10
37.3125
 20
13.828
 30
0.0
 40
0.247
100
AcDbArc
 50
85.00000099999999
 51
5.0
  0
LINE
  5
57D
330
1E
100
AcDbEntity
  8
0
  6
CONTINUOUS
 62
     5
100
AcDbLine
 10
37.3125
 20
13.528
 30
0.0
 11
37.3125
 21
14.128
 31
0.0
  0
CIRCLE
  5
57E
330
1E
100
AcDbEntity
  8
0
  6
CONTINUOUS
 62
     5
100
AcDbCircle
 10
40.0625
 20
18.625
 30
0.0
 40
0.375
  0
ARC
  5
57F
330
1E
100
AcDbEntity
  8
0
  6
CONTINUOUS
 62
     5
100
AcDbCircle
 10
40.0625
 20
18.625
 30
0.0
 40
0.384
100
AcDbArc
 50
85.00000099999999
 51
5.0
  0
CIRCLE
  5
580
330
1E
100
AcDbEntity
  8
0
  6
CONTINUOUS
 62
     5
100
AcDbCircle
 10
40.0625
 20
18.625
 30
0.0
 40
0.3279999999999999
  0
LINE
  5
581
330
1E
100
AcDbEntity
  8
0
  6
CONTINUOUS
 62
     5
100
AcDbLine
 10
39.61249999999999
 20
18.625
 30
0.0
 11
40.5125
 21
18.625
 31
0.0
  0
LINE
  5
582
330
1E
100
AcDbEntity
  8
0
  6
CONTINUOUS
 62
     5
100
AcDbLine
 10
38.3125
 20
19.24699999999998
 30
0.0
 11
38.3125
 21
19.753
 31
0.0
  0
LINE
  5
583
330
1E
100
AcDbEntity
  8
0
  6
CONTINUOUS
 62
     5
100
AcDbLine
 10
38.0595
 20
19.5
 30
0.0
 11
38.5655
 21
19.5
 31
0.0
  0
CIRCLE
  5
584
330
1E
100
AcDbEntity
  8
0
  6
CONTINUOUS
 62
     5
100
AcDbCircle
 10
38.3125
 20
19.5
 30
0.0
 40
0.2189999999999999
  0
LINE
  5
585
330
1E
100
AcDbEntity
  8
0
  6
CONTINUOUS
 62
     5
100
AcDbLine
 10
40.0625
 20
18.175
 30
0.0
 11
40.0625
 21
19.07499999999998
 31
0.0
  0
LINE
  5
586
330
1E
100
AcDbEntity
  8
0
  6
CONTINUOUS
 62
     5
100
AcDbLine
 10
37.9375
 20
21.625
 30
0.0
 11
39.4375
 21
21.625
 31
0.0
  0
CIRCLE
  5
587
330
1E
100
AcDbEntity
  8
0
  6
CONTINUOUS
 62
     5
100
AcDbCircle
 10
40.0625
 20
20.66699999999998
 30
0.0
 40
0.14
  0
LINE
  5
588
330
1E
100
AcDbEntity
  8
0
  6
CONTINUOUS
 62
     5
100
AcDbLine
 10
40.0625
 20
20.498
 30
0.0
 11
40.0625
 21
20.836
 31
0.0
  0
CIRCLE
  5
589
330
1E
100
AcDbEntity
  8
0
  6
CONTINUOUS
 62
     5
100
AcDbCircle
 10
40.0625
 20
20.31299999999998
 30
0.0
 40
0.14
  0
LINE
  5
58A
330
1E
100
AcDbEntity
  8
0
  6
CONTINUOUS
 62
     5
100
AcDbLine
 10
40.0625
 20
20.14399999999997
 30
0.0
 11
40.0625
 21
20.482
 31
0.0
  0
LINE
  5
58B
330
1E
100
AcDbEntity
  8
0
  6
CONTINUOUS
 62
     5
100
AcDbLine
 10
39.8935
 20
20.31299999999998
 30
0.0
 11
40.2315
 21
20.31299999999998
 31
0.0
  0
LINE
  5
58C
330
1E
100
AcDbEntity
  8
0
  6
CONTINUOUS
 62
     5
100
AcDbLine
 10
39.8935
 20
20.66699999999998
 30
0.0
 11
40.2315
 21
20.66699999999998
 31
0.0
  0
LINE
  5
58D
330
1E
100
AcDbEntity
  8
0
  6
CONTINUOUS
 62
     5
100
AcDbLine
 10
33.8125
 20
25.675
 30
0.0
 11
33.8125
 21
26.575
 31
0.0
  0
CIRCLE
  5
58E
330
1E
100
AcDbEntity
  8
0
  6
CONTINUOUS
 62
     5
100
AcDbCircle
 10
33.8125
 20
26.125
 30
0.0
 40
0.375
  0
ARC
  5
58F
330
1E
100
AcDbEntity
  8
0
  6
CONTINUOUS
 62
     5
100
AcDbCircle
 10
33.8125
 20
26.125
 30
0.0
 40
0.384
100
AcDbArc
 50
85.00000099999999
 51
5.0
  0
CIRCLE
  5
590
330
1E
100
AcDbEntity
  8
0
  6
CONTINUOUS
 62
     5
100
AcDbCircle
 10
33.8125
 20
26.125
 30
0.0
 40
0.3279999999999999
  0
CIRCLE
  5
591
330
1E
100
AcDbEntity
  8
0
  6
CONTINUOUS
 62
     5
100
AcDbCircle
 10
33.8125
 20
24.5
 30
0.0
 40
0.14
  0
LINE
  5
592
330
1E
100
AcDbEntity
  8
0
  6
CONTINUOUS
 62
     5
100
AcDbLine
 10
33.6435
 20
24.5
 30
0.0
 11
33.98149999999999
 21
24.5
 31
0.0
  0
CIRCLE
  5
593
330
1E
100
AcDbEntity
  8
0
  6
CONTINUOUS
 62
     5
100
AcDbCircle
 10
35.1875
 20
22.875
 30
0.0
 40
0.625
  0
LINE
  5
594
330
1E
100
AcDbEntity
  8
0
  6
CONTINUOUS
 62
     5
100
AcDbLine
 10
34.4375
 20
22.875
 30
0.0
 11
35.9375
 21
22.875
 31
0.0
  0
LINE
  5
595
330
1E
100
AcDbEntity
  8
0
  6
CONTINUOUS
 62
     5
100
AcDbLine
 10
35.1875
 20
22.12499999999999
 30
0.0
 11
35.1875
 21
23.625
 31
0.0
  0
LINE
  5
596
330
1E
100
AcDbEntity
  8
0
  6
CONTINUOUS
 62
     5
100
AcDbLine
 10
33.8125
 20
24.331
 30
0.0
 11
33.8125
 21
24.669
 31
0.0
  0
LINE
  5
597
330
1E
100
AcDbEntity
  8
0
  6
CONTINUOUS
 62
     5
100
AcDbLine
 10
33.36249999999999
 20
26.125
 30
0.0
 11
34.2625
 21
26.125
 31
0.0
  0
CIRCLE
  5
598
330
1E
100
AcDbEntity
  8
0
  6
CONTINUOUS
 62
     5
100
AcDbCircle
 10
40.0625
 20
26.125
 30
0.0
 40
0.375
  0
ARC
  5
599
330
1E
100
AcDbEntity
  8
0
  6
CONTINUOUS
 62
     5
100
AcDbCircle
 10
40.0625
 20
26.125
 30
0.0
 40
0.384
100
AcDbArc
 50
85.00000099999999
 51
5.0
  0
CIRCLE
  5
59A
330
1E
100
AcDbEntity
  8
0
  6
CONTINUOUS
 62
     5
100
AcDbCircle
 10
40.0625
 20
26.125
 30
0.0
 40
0.3279999999999999
  0
LINE
  5
59B
330
1E
100
AcDbEntity
  8
0
  6
CONTINUOUS
 62
     5
100
AcDbLine
 10
40.0625
 20
25.675
 30
0.0
 11
40.0625
 21
26.575
 31
0.0
  0
CIRCLE
  5
59C
330
1E
100
AcDbEntity
  8
0
  6
CONTINUOUS
 62
     5
100
AcDbCircle
 10
40.0625
 20
23.125
 30
0.0
 40
0.375
  0
CIRCLE
  5
59D
330
1E
100
AcDbEntity
  8
0
  6
CONTINUOUS
 62
     5
100
AcDbCircle
 10
40.0625
 20
23.125
 30
0.0
 40
0.3279999999999999
  0
ARC
  5
59E
330
1E
100
AcDbEntity
  8
0
  6
CONTINUOUS
 62
     5
100
AcDbCircle
 10
40.0625
 20
23.125
 30
0.0
 40
0.384
100
AcDbArc
 50
85.00000099999999
 51
5.0
  0
LINE
  5
59F
330
1E
100
AcDbEntity
  8
0
  6
CONTINUOUS
 62
     5
100
AcDbLine
 10
39.61249999999999
 20
23.125
 30
0.0
 11
40.5125
 21
23.125
 31
0.0
  0
CIRCLE
  5
5A0
330
1E
100
AcDbEntity
  8
0
  6
CONTINUOUS
 62
     5
100
AcDbCircle
 10
38.6875
 20
24.5
 30
0.0
 40
0.625
  0
LINE
  5
5A1
330
1E
100
AcDbEntity
  8
0
  6
CONTINUOUS
 62
     5
100
AcDbLine
 10
38.6875
 20
23.75
 30
0.0
 11
38.6875
 21
25.25
 31
0.0
  0
LINE
  5
5A2
330
1E
100
AcDbEntity
  8
0
  6
CONTINUOUS
 62
     5
100
AcDbLine
 10
40.0625
 20
22.675
 30
0.0
 11
40.0625
 21
23.57499999999999
 31
0.0
  0
LINE
  5
5A3
330
1E
100
AcDbEntity
  8
0
  6
CONTINUOUS
 62
     5
100
AcDbLine
 10
37.9375
 20
24.5
 30
0.0
 11
39.4375
 21
24.5
 31
0.0
  0
LINE
  5
5A4
330
1E
100
AcDbEntity
  8
0
  6
CONTINUOUS
 62
     5
100
AcDbLine
 10
39.61249999999999
 20
26.125
 30
0.0
 11
40.5125
 21
26.125
 31
0.0
  0
LINE
  5
5C8
330
1E
100
AcDbEntity
  8
0
  6
CONTINUOUS
 62
     5
100
AcDbLine
 10
44.9375
 20
12.225
 30
0.0
 11
44.9375
 21
14.025
 31
0.0
  0
CIRCLE
  5
5C9
330
1E
100
AcDbEntity
  8
0
  6
CONTINUOUS
 62
     5
100
AcDbCircle
 10
44.9375
 20
13.125
 30
0.0
 40
0.75
  0
LINE
  5
5CA
330
1E
100
AcDbEntity
  8
0
  6
CONTINUOUS
 62
     5
100
AcDbLine
 10
43.2625
 20
12.422
 30
0.0
 11
43.86249999999999
 21
12.422
 31
0.0
  0
CIRCLE
  5
5CB
330
1E
100
AcDbEntity
  8
0
  6
CONTINUOUS
 62
     5
100
AcDbCircle
 10
43.5625
 20
12.422
 30
0.0
 40
0.211
  0
ARC
  5
5CC
330
1E
100
AcDbEntity
  8
0
  6
CONTINUOUS
 62
     5
100
AcDbCircle
 10
43.5625
 20
12.422
 30
0.0
 40
0.247
100
AcDbArc
 50
85.00000099999999
 51
5.0
  0
CIRCLE
  5
5CD
330
1E
100
AcDbEntity
  8
0
  6
CONTINUOUS
 62
     5
100
AcDbCircle
 10
43.5625
 20
12.422
 30
0.0
 40
0.25
  0
LINE
  5
5CE
330
1E
100
AcDbEntity
  8
0
  6
CONTINUOUS
 62
     5
100
AcDbLine
 10
43.2625
 20
10.32799999999999
 30
0.0
 11
43.86249999999999
 21
10.32799999999999
 31
0.0
  0
CIRCLE
  5
5CF
330
1E
100
AcDbEntity
  8
0
  6
CONTINUOUS
 62
     5
100
AcDbCircle
 10
43.5625
 20
10.32799999999999
 30
0.0
 40
0.211
  0
ARC
  5
5D0
330
1E
100
AcDbEntity
  8
0
  6
CONTINUOUS
 62
     5
100
AcDbCircle
 10
43.5625
 20
10.32799999999999
 30
0.0
 40
0.247
100
AcDbArc
 50
85.00000099999999
 51
5.0
  0
CIRCLE
  5
5D1
330
1E
100
AcDbEntity
  8
0
  6
CONTINUOUS
 62
     5
100
AcDbCircle
 10
43.5625
 20
10.32799999999999
 30
0.0
 40
0.25
  0
LINE
  5
5D2
330
1E
100
AcDbEntity
  8
0
  6
CONTINUOUS
 62
     5
100
AcDbLine
 10
43.2625
 20
8.922
 30
0.0
 11
43.86249999999999
 21
8.922
 31
0.0
  0
CIRCLE
  5
5D3
330
1E
100
AcDbEntity
  8
0
  6
CONTINUOUS
 62
     5
100
AcDbCircle
 10
43.5625
 20
8.922
 30
0.0
 40
0.211
  0
ARC
  5
5D4
330
1E
100
AcDbEntity
  8
0
  6
CONTINUOUS
 62
     5
100
AcDbCircle
 10
43.5625
 20
8.922
 30
0.0
 40
0.247
100
AcDbArc
 50
85.00000099999999
 51
5.0
  0
CIRCLE
  5
5D5
330
1E
100
AcDbEntity
  8
0
  6
CONTINUOUS
 62
     5
100
AcDbCircle
 10
43.5625
 20
8.922
 30
0.0
 40
0.25
  0
LINE
  5
5D6
330
1E
100
AcDbEntity
  8
0
  6
CONTINUOUS
 62
     5
100
AcDbLine
 10
43.5625
 20
8.621999999999998
 30
0.0
 11
43.5625
 21
9.221999999999999
 31
0.0
  0
LINE
  5
5D7
330
1E
100
AcDbEntity
  8
0
  6
CONTINUOUS
 62
     5
100
AcDbLine
 10
43.5625
 20
10.02799999999999
 30
0.0
 11
43.5625
 21
10.62799999999999
 31
0.0
  0
LINE
  5
5D8
330
1E
100
AcDbEntity
  8
0
  6
CONTINUOUS
 62
     5
100
AcDbLine
 10
43.5625
 20
12.122
 30
0.0
 11
43.5625
 21
12.72199999999999
 31
0.0
  0
CIRCLE
  5
5D9
330
1E
100
AcDbEntity
  8
0
  6
CONTINUOUS
 62
     5
100
AcDbCircle
 10
44.9375
 20
9.625
 30
0.0
 40
0.75
  0
LINE
  5
5DA
330
1E
100
AcDbEntity
  8
0
  6
CONTINUOUS
 62
     5
100
AcDbLine
 10
44.9375
 20
8.724999999999999
 30
0.0
 11
44.9375
 21
10.52499999999999
 31
0.0
  0
CIRCLE
  5
5DB
330
1E
100
AcDbEntity
  8
0
  6
CONTINUOUS
 62
     5
100
AcDbCircle
 10
46.3125
 20
8.922
 30
0.0
 40
0.211
  0
ARC
  5
5DC
330
1E
100
AcDbEntity
  8
0
  6
CONTINUOUS
 62
     5
100
AcDbCircle
 10
46.3125
 20
8.922
 30
0.0
 40
0.247
100
AcDbArc
 50
85.00000099999999
 51
5.0
  0
CIRCLE
  5
5DD
330
1E
100
AcDbEntity
  8
0
  6
CONTINUOUS
 62
     5
100
AcDbCircle
 10
46.3125
 20
8.922
 30
0.0
 40
0.25
  0
LINE
  5
5DE
330
1E
100
AcDbEntity
  8
0
  6
CONTINUOUS
 62
     5
100
AcDbLine
 10
46.01249999999999
 20
8.922
 30
0.0
 11
46.61249999999999
 21
8.922
 31
0.0
  0
LINE
  5
5DF
330
1E
100
AcDbEntity
  8
0
  6
CONTINUOUS
 62
     5
100
AcDbLine
 10
46.3125
 20
8.621999999999998
 30
0.0
 11
46.3125
 21
9.221999999999999
 31
0.0
  0
LINE
  5
5E0
330
1E
100
AcDbEntity
  8
0
  6
CONTINUOUS
 62
     5
100
AcDbLine
 10
44.0375
 20
9.625
 30
0.0
 11
45.83749999999999
 21
9.625
 31
0.0
  0
LINE
  5
5E1
330
1E
100
AcDbEntity
  8
0
  6
CONTINUOUS
 62
     5
100
AcDbLine
 10
46.3125
 20
10.02799999999999
 30
0.0
 11
46.3125
 21
10.62799999999999
 31
0.0
  0
ARC
  5
5E2
330
1E
100
AcDbEntity
  8
0
  6
CONTINUOUS
 62
     5
100
AcDbCircle
 10
46.3125
 20
10.32799999999999
 30
0.0
 40
0.247
100
AcDbArc
 50
85.00000099999999
 51
5.0
  0
CIRCLE
  5
5E3
330
1E
100
AcDbEntity
  8
0
  6
CONTINUOUS
 62
     5
100
AcDbCircle
 10
46.3125
 20
10.32799999999999
 30
0.0
 40
0.211
  0
CIRCLE
  5
5E4
330
1E
100
AcDbEntity
  8
0
  6
CONTINUOUS
 62
     5
100
AcDbCircle
 10
46.3125
 20
10.32799999999999
 30
0.0
 40
0.25
  0
LINE
  5
5E5
330
1E
100
AcDbEntity
  8
0
  6
CONTINUOUS
 62
     5
100
AcDbLine
 10
46.01249999999999
 20
10.32799999999999
 30
0.0
 11
46.61249999999999
 21
10.32799999999999
 31
0.0
  0
LINE
  5
5E6
330
1E
100
AcDbEntity
  8
0
  6
CONTINUOUS
 62
     5
100
AcDbLine
 10
44.0375
 20
13.125
 30
0.0
 11
45.83749999999999
 21
13.125
 31
0.0
  0
LINE
  5
5E7
330
1E
100
AcDbEntity
  8
0
  6
CONTINUOUS
 62
     5
100
AcDbLine
 10
46.3125
 20
12.122
 30
0.0
 11
46.3125
 21
12.72199999999999
 31
0.0
  0
CIRCLE
  5
5E8
330
1E
100
AcDbEntity
  8
0
  6
CONTINUOUS
 62
     5
100
AcDbCircle
 10
46.3125
 20
12.422
 30
0.0
 40
0.211
  0
ARC
  5
5E9
330
1E
100
AcDbEntity
  8
0
  6
CONTINUOUS
 62
     5
100
AcDbCircle
 10
46.3125
 20
12.422
 30
0.0
 40
0.247
100
AcDbArc
 50
85.00000099999999
 51
5.0
  0
CIRCLE
  5
5EA
330
1E
100
AcDbEntity
  8
0
  6
CONTINUOUS
 62
     5
100
AcDbCircle
 10
46.3125
 20
12.422
 30
0.0
 40
0.25
  0
LINE
  5
5EB
330
1E
100
AcDbEntity
  8
0
  6
CONTINUOUS
 62
     5
100
AcDbLine
 10
46.01249999999999
 20
12.422
 30
0.0
 11
46.61249999999999
 21
12.422
 31
0.0
  0
TEXT
  5
5EC
330
1E
100
AcDbEntity
  8
0
 62
     5
100
AcDbText
 10
47.07784749999998
 20
10.260069
 30
0.0
 40
0.2125
  1
A
 41
0.825
 72
     4
 11
47.13628499999997
 21
10.366319
 31
0.0
100
AcDbText
  0
LINE
  5
5ED
330
1E
100
AcDbEntity
  8
0
  6
CONTINUOUS
 62
     5
100
AcDbLine
 10
43.4375
 20
22.875
 30
0.0
 11
44.9375
 21
22.875
 31
0.0
  0
CIRCLE
  5
5EE
330
1E
100
AcDbEntity
  8
0
  6
CONTINUOUS
 62
     5
100
AcDbCircle
 10
44.1875
 20
22.875
 30
0.0
 40
0.625
  0
LINE
  5
5EF
330
1E
100
AcDbEntity
  8
0
  6
CONTINUOUS
 62
     5
100
AcDbLine
 10
43.4375
 20
20.31299999999998
 30
0.0
 11
44.9375
 21
20.31299999999998
 31
0.0
  0
CIRCLE
  5
5F0
330
1E
100
AcDbEntity
  8
0
  6
CONTINUOUS
 62
     5
100
AcDbCircle
 10
44.1875
 20
20.31299999999998
 30
0.0
 40
0.625
  0
LINE
  5
5F1
330
1E
100
AcDbEntity
  8
0
  6
CONTINUOUS
 62
     5
100
AcDbLine
 10
43.2625
 20
13.828
 30
0.0
 11
43.86249999999999
 21
13.828
 31
0.0
  0
CIRCLE
  5
5F2
330
1E
100
AcDbEntity
  8
0
  6
CONTINUOUS
 62
     5
100
AcDbCircle
 10
43.5625
 20
13.828
 30
0.0
 40
0.211
  0
ARC
  5
5F3
330
1E
100
AcDbEntity
  8
0
  6
CONTINUOUS
 62
     5
100
AcDbCircle
 10
43.5625
 20
13.828
 30
0.0
 40
0.247
100
AcDbArc
 50
85.00000099999999
 51
5.0
  0
CIRCLE
  5
5F4
330
1E
100
AcDbEntity
  8
0
  6
CONTINUOUS
 62
     5
100
AcDbCircle
 10
43.5625
 20
13.828
 30
0.0
 40
0.25
  0
LINE
  5
5F5
330
1E
100
AcDbEntity
  8
0
  6
CONTINUOUS
 62
     5
100
AcDbLine
 10
42.8125
 20
21.175
 30
0.0
 11
42.8125
 21
22.075
 31
0.0
  0
ARC
  5
5F6
330
1E
100
AcDbEntity
  8
0
  6
CONTINUOUS
 62
     5
100
AcDbCircle
 10
42.8125
 20
21.625
 30
0.0
 40
0.384
100
AcDbArc
 50
85.00000099999999
 51
5.0
  0
CIRCLE
  5
5F7
330
1E
100
AcDbEntity
  8
0
  6
CONTINUOUS
 62
     5
100
AcDbCircle
 10
42.8125
 20
21.625
 30
0.0
 40
0.3279999999999999
  0
CIRCLE
  5
5F8
330
1E
100
AcDbEntity
  8
0
  6
CONTINUOUS
 62
     5
100
AcDbCircle
 10
42.8125
 20
21.625
 30
0.0
 40
0.375
  0
LINE
  5
5F9
330
1E
100
AcDbEntity
  8
0
  6
CONTINUOUS
 62
     5
100
AcDbLine
 10
43.5625
 20
13.528
 30
0.0
 11
43.5625
 21
14.128
 31
0.0
  0
LINE
  5
5FA
330
1E
100
AcDbEntity
  8
0
  6
CONTINUOUS
 62
     5
100
AcDbLine
 10
42.8125
 20
18.175
 30
0.0
 11
42.8125
 21
19.07499999999998
 31
0.0
  0
CIRCLE
  5
5FB
330
1E
100
AcDbEntity
  8
0
  6
CONTINUOUS
 62
     5
100
AcDbCircle
 10
42.8125
 20
18.625
 30
0.0
 40
0.3279999999999999
  0
ARC
  5
5FC
330
1E
100
AcDbEntity
  8
0
  6
CONTINUOUS
 62
     5
100
AcDbCircle
 10
42.8125
 20
18.625
 30
0.0
 40
0.384
100
AcDbArc
 50
85.00000099999999
 51
5.0
  0
CIRCLE
  5
5FD
330
1E
100
AcDbEntity
  8
0
  6
CONTINUOUS
 62
     5
100
AcDbCircle
 10
42.8125
 20
18.625
 30
0.0
 40
0.375
  0
LINE
  5
5FE
330
1E
100
AcDbEntity
  8
0
  6
CONTINUOUS
 62
     5
100
AcDbLine
 10
42.3625
 20
18.625
 30
0.0
 11
43.2625
 21
18.625
 31
0.0
  0
LINE
  5
5FF
330
1E
100
AcDbEntity
  8
0
  6
CONTINUOUS
 62
     5
100
AcDbLine
 10
42.3625
 20
21.625
 30
0.0
 11
43.2625
 21
21.625
 31
0.0
  0
CIRCLE
  5
600
330
1E
100
AcDbEntity
  8
0
  6
CONTINUOUS
 62
     5
100
AcDbCircle
 10
42.8125
 20
26.125
 30
0.0
 40
0.3279999999999999
  0
ARC
  5
601
330
1E
100
AcDbEntity
  8
0
  6
CONTINUOUS
 62
     5
100
AcDbCircle
 10
42.8125
 20
26.125
 30
0.0
 40
0.384
100
AcDbArc
 50
85.00000099999999
 51
5.0
  0
CIRCLE
  5
602
330
1E
100
AcDbEntity
  8
0
  6
CONTINUOUS
 62
     5
100
AcDbCircle
 10
42.8125
 20
26.125
 30
0.0
 40
0.375
  0
LINE
  5
603
330
1E
100
AcDbEntity
  8
0
  6
CONTINUOUS
 62
     5
100
AcDbLine
 10
42.8125
 20
25.675
 30
0.0
 11
42.8125
 21
26.575
 31
0.0
  0
LINE
  5
604
330
1E
100
AcDbEntity
  8
0
  6
CONTINUOUS
 62
     5
100
AcDbLine
 10
42.6435
 20
24.5
 30
0.0
 11
42.98149999999998
 21
24.5
 31
0.0
  0
CIRCLE
  5
605
330
1E
100
AcDbEntity
  8
0
  6
CONTINUOUS
 62
     5
100
AcDbCircle
 10
42.8125
 20
24.5
 30
0.0
 40
0.14
  0
LINE
  5
606
330
1E
100
AcDbEntity
  8
0
  6
CONTINUOUS
 62
     5
100
AcDbLine
 10
42.8125
 20
24.331
 30
0.0
 11
42.8125
 21
24.669
 31
0.0
  0
LINE
  5
607
330
1E
100
AcDbEntity
  8
0
  6
CONTINUOUS
 62
     5
100
AcDbLine
 10
42.3625
 20
26.125
 30
0.0
 11
43.2625
 21
26.125
 31
0.0
  0
LINE
  5
608
330
1E
100
AcDbEntity
  8
0
  6
CONTINUOUS
 62
     5
100
AcDbLine
 10
47.68749999999999
 20
20.87499999999999
 30
0.0
 11
47.68749999999999
 21
22.375
 31
0.0
  0
CIRCLE
  5
609
330
1E
100
AcDbEntity
  8
0
  6
CONTINUOUS
 62
     5
100
AcDbCircle
 10
47.68749999999999
 20
21.625
 30
0.0
 40
0.625
  0
ARC
  5
60A
330
1E
100
AcDbEntity
  8
0
  6
CONTINUOUS
 62
     5
100
AcDbCircle
 10
46.3125
 20
13.828
 30
0.0
 40
0.247
100
AcDbArc
 50
85.00000099999999
 51
5.0
  0
CIRCLE
  5
60B
330
1E
100
AcDbEntity
  8
0
  6
CONTINUOUS
 62
     5
100
AcDbCircle
 10
46.3125
 20
13.828
 30
0.0
 40
0.211
  0
CIRCLE
  5
60C
330
1E
100
AcDbEntity
  8
0
  6
CONTINUOUS
 62
     5
100
AcDbCircle
 10
46.3125
 20
13.828
 30
0.0
 40
0.25
  0
LINE
  5
60D
330
1E
100
AcDbEntity
  8
0
  6
CONTINUOUS
 62
     5
100
AcDbLine
 10
46.01249999999999
 20
13.828
 30
0.0
 11
46.61249999999999
 21
13.828
 31
0.0
  0
LINE
  5
60E
330
1E
100
AcDbEntity
  8
0
  6
CONTINUOUS
 62
     5
100
AcDbLine
 10
46.3125
 20
13.528
 30
0.0
 11
46.3125
 21
14.128
 31
0.0
  0
TEXT
  5
60F
330
1E
100
AcDbEntity
  8
0
 62
     5
100
AcDbText
 10
47.07003449999998
 20
14.38201799999999
 30
0.0
 40
0.2125
  1
B
 41
0.825
 72
     4
 11
47.12847199999997
 21
14.48826799999999
 31
0.0
100
AcDbText
  0
LINE
  5
610
330
1E
100
AcDbEntity
  8
0
  6
CONTINUOUS
 62
     5
100
AcDbLine
 10
46.9375
 20
21.625
 30
0.0
 11
48.4375
 21
21.625
 31
0.0
  0
LINE
  5
611
330
1E
100
AcDbEntity
  8
0
  6
CONTINUOUS
 62
     5
100
AcDbLine
 10
44.1875
 20
19.56299999999998
 30
0.0
 11
44.1875
 21
21.063
 31
0.0
  0
LINE
  5
612
330
1E
100
AcDbEntity
  8
0
  6
CONTINUOUS
 62
     5
100
AcDbLine
 10
47.3125
 20
19.24699999999998
 30
0.0
 11
47.3125
 21
19.753
 31
0.0
  0
LINE
  5
613
330
1E
100
AcDbEntity
  8
0
  6
CONTINUOUS
 62
     5
100
AcDbLine
 10
48.6125
 20
18.625
 30
0.0
 11
49.5125
 21
18.625
 31
0.0
  0
ARC
  5
614
330
1E
100
AcDbEntity
  8
0
  6
CONTINUOUS
 62
     5
100
AcDbCircle
 10
49.0625
 20
18.625
 30
0.0
 40
0.384
100
AcDbArc
 50
85.00000099999999
 51
5.0
  0
CIRCLE
  5
615
330
1E
100
AcDbEntity
  8
0
  6
CONTINUOUS
 62
     5
100
AcDbCircle
 10
49.0625
 20
18.625
 30
0.0
 40
0.375
  0
CIRCLE
  5
616
330
1E
100
AcDbEntity
  8
0
  6
CONTINUOUS
 62
     5
100
AcDbCircle
 10
47.3125
 20
19.5
 30
0.0
 40
0.2189999999999999
  0
LINE
  5
617
330
1E
100
AcDbEntity
  8
0
  6
CONTINUOUS
 62
     5
100
AcDbLine
 10
47.0595
 20
19.5
 30
0.0
 11
47.56549999999999
 21
19.5
 31
0.0
  0
LINE
  5
618
330
1E
100
AcDbEntity
  8
0
  6
CONTINUOUS
 62
     5
100
AcDbLine
 10
49.0625
 20
18.175
 30
0.0
 11
49.0625
 21
19.07499999999998
 31
0.0
  0
CIRCLE
  5
619
330
1E
100
AcDbEntity
  8
0
  6
CONTINUOUS
 62
     5
100
AcDbCircle
 10
49.0625
 20
18.625
 30
0.0
 40
0.3279999999999999
  0
LINE
  5
61A
330
1E
100
AcDbEntity
  8
0
  6
CONTINUOUS
 62
     5
100
AcDbLine
 10
49.0625
 20
20.498
 30
0.0
 11
49.0625
 21
20.836
 31
0.0
  0
CIRCLE
  5
61B
330
1E
100
AcDbEntity
  8
0
  6
CONTINUOUS
 62
     5
100
AcDbCircle
 10
49.0625
 20
20.66699999999998
 30
0.0
 40
0.14
  0
LINE
  5
61C
330
1E
100
AcDbEntity
  8
0
  6
CONTINUOUS
 62
     5
100
AcDbLine
 10
49.0625
 20
20.14399999999997
 30
0.0
 11
49.0625
 21
20.482
 31
0.0
  0
CIRCLE
  5
61D
330
1E
100
AcDbEntity
  8
0
  6
CONTINUOUS
 62
     5
100
AcDbCircle
 10
49.0625
 20
20.31299999999998
 30
0.0
 40
0.14
  0
LINE
  5
61E
330
1E
100
AcDbEntity
  8
0
  6
CONTINUOUS
 62
     5
100
AcDbLine
 10
48.8935
 20
20.66699999999998
 30
0.0
 11
49.23149999999999
 21
20.66699999999998
 31
0.0
  0
LINE
  5
61F
330
1E
100
AcDbEntity
  8
0
  6
CONTINUOUS
 62
     5
100
AcDbLine
 10
48.8935
 20
20.31299999999998
 30
0.0
 11
49.23149999999999
 21
20.31299999999998
 31
0.0
  0
LINE
  5
620
330
1E
100
AcDbEntity
  8
0
  6
CONTINUOUS
 62
     5
100
AcDbLine
 10
49.0625
 20
25.675
 30
0.0
 11
49.0625
 21
26.575
 31
0.0
  0
CIRCLE
  5
621
330
1E
100
AcDbEntity
  8
0
  6
CONTINUOUS
 62
     5
100
AcDbCircle
 10
49.0625
 20
26.125
 30
0.0
 40
0.3279999999999999
  0
ARC
  5
622
330
1E
100
AcDbEntity
  8
0
  6
CONTINUOUS
 62
     5
100
AcDbCircle
 10
49.0625
 20
26.125
 30
0.0
 40
0.384
100
AcDbArc
 50
85.00000099999999
 51
5.0
  0
CIRCLE
  5
623
330
1E
100
AcDbEntity
  8
0
  6
CONTINUOUS
 62
     5
100
AcDbCircle
 10
49.0625
 20
26.125
 30
0.0
 40
0.375
  0
LINE
  5
624
330
1E
100
AcDbEntity
  8
0
  6
CONTINUOUS
 62
     5
100
AcDbLine
 10
46.9375
 20
24.5
 30
0.0
 11
48.4375
 21
24.5
 31
0.0
  0
LINE
  5
625
330
1E
100
AcDbEntity
  8
0
  6
CONTINUOUS
 62
     5
100
AcDbLine
 10
44.1875
 20
22.12499999999999
 30
0.0
 11
44.1875
 21
23.625
 31
0.0
  0
LINE
  5
626
330
1E
100
AcDbEntity
  8
0
  6
CONTINUOUS
 62
     5
100
AcDbLine
 10
47.68749999999999
 20
23.75
 30
0.0
 11
47.68749999999999
 21
25.25
 31
0.0
  0
CIRCLE
  5
627
330
1E
100
AcDbEntity
  8
0
  6
CONTINUOUS
 62
     5
100
AcDbCircle
 10
47.68749999999999
 20
24.5
 30
0.0
 40
0.625
  0
LINE
  5
628
330
1E
100
AcDbEntity
  8
0
  6
CONTINUOUS
 62
     5
100
AcDbLine
 10
48.6125
 20
23.125
 30
0.0
 11
49.5125
 21
23.125
 31
0.0
  0
ARC
  5
629
330
1E
100
AcDbEntity
  8
0
  6
CONTINUOUS
 62
     5
100
AcDbCircle
 10
49.0625
 20
23.125
 30
0.0
 40
0.384
100
AcDbArc
 50
85.00000099999999
 51
5.0
  0
CIRCLE
  5
62A
330
1E
100
AcDbEntity
  8
0
  6
CONTINUOUS
 62
     5
100
AcDbCircle
 10
49.0625
 20
23.125
 30
0.0
 40
0.375
  0
LINE
  5
62B
330
1E
100
AcDbEntity
  8
0
  6
CONTINUOUS
 62
     5
100
AcDbLine
 10
49.0625
 20
22.675
 30
0.0
 11
49.0625
 21
23.57499999999999
 31
0.0
  0
CIRCLE
  5
62C
330
1E
100
AcDbEntity
  8
0
  6
CONTINUOUS
 62
     5
100
AcDbCircle
 10
49.0625
 20
23.125
 30
0.0
 40
0.3279999999999999
  0
LINE
  5
62D
330
1E
100
AcDbEntity
  8
0
  6
CONTINUOUS
 62
     5
100
AcDbLine
 10
48.6125
 20
26.125
 30
0.0
 11
49.5125
 21
26.125
 31
0.0
  0
INSERT
  5
737
330
1E
100
AcDbEntity
  8
0
  6
CONTINUOUS
100
AcDbBlockReference
  2
A$C4A9A30E6
 10
13.6875
 20
26.875
 30
0.0
  0
INSERT
  5
738
330
1E
100
AcDbEntity
  8
0
  6
CONTINUOUS
100
AcDbBlockReference
  2
A$C795C2FC0
 10
7.1875
 20
24.875
 30
0.0
  0
INSERT
  5
739
330
1E
100
AcDbEntity
  8
0
  6
CONTINUOUS
100
AcDbBlockReference
  2
A$C72542925
 10
13.6875
 20
7.875
 30
0.0
  0
INSERT
  5
879
330
1E
100
AcDbEntity
  8
0
  6
CONTINUOUS
100
AcDbBlockReference
  2
A$C46A623EC
 10
50.68750000000002
 20
26.875
 30
0.0
  0
INSERT
  5
87A
330
1E
100
AcDbEntity
  8
0
  6
CONTINUOUS
100
AcDbBlockReference
  2
A$C07121D74
 10
60.68750000000001
 20
26.875
 30
0.0
  0
INSERT
  5
87B
330
1E
100
AcDbEntity
  8
0
  6
HIDDEN
100
AcDbBlockReference
  2
A$C0A7625C0
 10
50.68750000000002
 20
7.875
 30
0.0
 41
-1.0
  0
ENDSEC
  0
SECTION
  2
OBJECTS
  0
DICTIONARY
  5
C
330
0
100
AcDbDictionary
  3
ACAD_GROUP
350
D
  3
ACAD_LAYOUT
350
19
  3
ACAD_MLINESTYLE
350
16
  3
ACAD_PLOTSETTINGS
350
18
  3
ACAD_PLOTSTYLENAME
350
E
  3
ACDBHEADERROUNDTRIPXREC
350
87D
  0
DICTIONARY
  5
537
330
1E
100
AcDbDictionary
280
     1
  3
ACAD_LAYOUTSELFREF
360
89E
  0
DICTIONARY
  5
535
330
1A
100
AcDbDictionary
280
     1
  3
ACAD_LAYOUTSELFREF
360
89D
  0
DICTIONARY
  5
D
102
{ACAD_REACTORS
330
C
102
}
330
C
100
AcDbDictionary
  0
DICTIONARY
  5
19
102
{ACAD_REACTORS
330
C
102
}
330
C
100
AcDbDictionary
  0
DICTIONARY
  5
16
102
{ACAD_REACTORS
330
C
102
}
330
C
100
AcDbDictionary
  3
STANDARD
350
17
  0
DICTIONARY
  5
18
102
{ACAD_REACTORS
330
C
102
}
330
C
100
AcDbDictionary
  0
ACDBDICTIONARYWDFLT
  5
E
102
{ACAD_REACTORS
330
C
102
}
330
C
100
AcDbDictionary
281
     1
  3
Normal
350
F
100
AcDbDictionaryWithDefault
340
F
  0
DICTIONARY
  5
87D
102
{ACAD_REACTORS
330
C
102
}
330
C
100
AcDbDictionary
  3
CEPSNTYPE
350
887
  3
FINGERPRINTGUID
350
888
  3
HYPERLINKBASE
350
880
  3
INSUNITS
350
886
  3
LAYOUTDICT
350
882
  3
LWETCUNION
350
885
  3
PLOTSETDICT
350
883
  3
PLOTSTYLNAMDICT
350
884
  3
PSVPSCALE
350
88A
  3
PUCSBASE
350
88D
  3
PUCSORGBACK
350
893
  3
PUCSORGBOTTOM
350
88F
  3
PUCSORGFRONT
350
892
  3
PUCSORGLEFT
350
890
  3
PUCSORGRIGHT
350
891
  3
PUCSORGTOP
350
88E
  3
PUCSORTHOREF
350
88B
  3
PUCSORTHOVIEW
350
88C
  3
STYLESHEET
350
881
  3
TSTACKALIGN
350
87E
  3
TSTACKSIZE
350
87F
  3
UCSBASE
350
896
  3
UCSORGBACK
350
89C
  3
UCSORGBOTTOM
350
898
  3
UCSORGFRONT
350
89B
  3
UCSORGLEFT
350
899
  3
UCSORGRIGHT
350
89A
  3
UCSORGTOP
350
897
  3
UCSORTHOREF
350
894
  3
UCSORTHOVIEW
350
895
  3
VERSIONGUID
350
889
  0
XRECORD
  5
89E
102
{ACAD_REACTORS
330
537
102
}
330
537
100
AcDbXrecord
340
1E
  0
XRECORD
  5
89D
102
{ACAD_REACTORS
330
535
102
}
330
535
100
AcDbXrecord
340
1A
  0
MLINESTYLE
  5
17
102
{ACAD_REACTORS
330
16
102
}
330
16
100
AcDbMlineStyle
  2
STANDARD
 70
     0
  3

 62
   256
 51
90.0
 52
90.0
 71
     2
 49
0.5
 62
   256
  6
BYLAYER
 49
-0.5
 62
   256
  6
BYLAYER
  0
ACDBPLACEHOLDER
  5
F
102
{ACAD_REACTORS
330
E
102
}
330
E
100
AcDbPlaceHolder
280
     0
  0
XRECORD
  5
887
102
{ACAD_REACTORS
330
87D
102
}
330
87D
100
AcDbXrecord
 90
        0
  0
XRECORD
  5
888
102
{ACAD_REACTORS
330
87D
102
}
330
87D
100
AcDbXrecord
  1
{E8EEB63A-56B0-4247-AFC0-AB39AB7884EF}
  0
XRECORD
  5
880
102
{ACAD_REACTORS
330
87D
102
}
330
87D
100
AcDbXrecord
  1

  0
XRECORD
  5
886
102
{ACAD_REACTORS
330
87D
102
}
330
87D
100
AcDbXrecord
 90
        0
  0
XRECORD
  5
882
102
{ACAD_REACTORS
330
87D
102
}
330
87D
100
AcDbXrecord
340
19
  0
XRECORD
  5
885
102
{ACAD_REACTORS
330
87D
102
}
330
87D
100
AcDbXrecord
 90
    10781
  0
XRECORD
  5
883
102
{ACAD_REACTORS
330
87D
102
}
330
87D
100
AcDbXrecord
340
18
  0
XRECORD
  5
884
102
{ACAD_REACTORS
330
87D
102
}
330
87D
100
AcDbXrecord
340
E
  0
XRECORD
  5
88A
102
{ACAD_REACTORS
330
87D
102
}
330
87D
100
AcDbXrecord
 40
0.0
  0
XRECORD
  5
88D
102
{ACAD_REACTORS
330
87D
102
}
330
87D
100
AcDbXrecord
340
0
  0
XRECORD
  5
893
102
{ACAD_REACTORS
330
87D
102
}
330
87D
100
AcDbXrecord
 10
0.0
 20
0.0
 30
0.0
  0
XRECORD
  5
88F
102
{ACAD_REACTORS
330
87D
102
}
330
87D
100
AcDbXrecord
 10
0.0
 20
0.0
 30
0.0
  0
XRECORD
  5
892
102
{ACAD_REACTORS
330
87D
102
}
330
87D
100
AcDbXrecord
 10
0.0
 20
0.0
 30
0.0
  0
XRECORD
  5
890
102
{ACAD_REACTORS
330
87D
102
}
330
87D
100
AcDbXrecord
 10
0.0
 20
0.0
 30
0.0
  0
XRECORD
  5
891
102
{ACAD_REACTORS
330
87D
102
}
330
87D
100
AcDbXrecord
 10
0.0
 20
0.0
 30
0.0
  0
XRECORD
  5
88E
102
{ACAD_REACTORS
330
87D
102
}
330
87D
100
AcDbXrecord
 10
0.0
 20
0.0
 30
0.0
  0
XRECORD
  5
88B
102
{ACAD_REACTORS
330
87D
102
}
330
87D
100
AcDbXrecord
340
0
  0
XRECORD
  5
88C
102
{ACAD_REACTORS
330
87D
102
}
330
87D
100
AcDbXrecord
 70
     0
  0
XRECORD
  5
881
102
{ACAD_REACTORS
330
87D
102
}
330
87D
100
AcDbXrecord
  1

  0
XRECORD
  5
87E
102
{ACAD_REACTORS
330
87D
102
}
330
87D
100
AcDbXrecord
 90
        1
  0
XRECORD
  5
87F
102
{ACAD_REACTORS
330
87D
102
}
330
87D
100
AcDbXrecord
 90
       70
  0
XRECORD
  5
896
102
{ACAD_REACTORS
330
87D
102
}
330
87D
100
AcDbXrecord
340
0
  0
XRECORD
  5
89C
102
{ACAD_REACTORS
330
87D
102
}
330
87D
100
AcDbXrecord
 10
0.0
 20
0.0
 30
0.0
  0
XRECORD
  5
898
102
{ACAD_REACTORS
330
87D
102
}
330
87D
100
AcDbXrecord
 10
0.0
 20
0.0
 30
0.0
  0
XRECORD
  5
89B
102
{ACAD_REACTORS
330
87D
102
}
330
87D
100
AcDbXrecord
 10
0.0
 20
0.0
 30
0.0
  0
XRECORD
  5
899
102
{ACAD_REACTORS
330
87D
102
}
330
87D
100
AcDbXrecord
 10
0.0
 20
0.0
 30
0.0
  0
XRECORD
  5
89A
102
{ACAD_REACTORS
330
87D
102
}
330
87D
100
AcDbXrecord
 10
0.0
 20
0.0
 30
0.0
  0
XRECORD
  5
897
102
{ACAD_REACTORS
330
87D
102
}
330
87D
100
AcDbXrecord
 10
0.0
 20
0.0
 30
0.0
  0
XRECORD
  5
894
102
{ACAD_REACTORS
330
87D
102
}
330
87D
100
AcDbXrecord
340
0
  0
XRECORD
  5
895
102
{ACAD_REACTORS
330
87D
102
}
330
87D
100
AcDbXrecord
 70
     0
  0
XRECORD
  5
889
102
{ACAD_REACTORS
330
87D
102
}
330
87D
100
AcDbXrecord
  1
{9961E691-5D29-4A0C-954F-5A1B1D2397BA}
  0
ENDSEC
  0
EOF
