  0
SECTION
  2
HEADER
  9
$ACADVER
  1
AC1009
  9
$INSBASE
 10
0.0
 20
0.0
 30
0.0
  9
$EXTMIN
 10
4.5625
 20
4.5
 30
0.0
  9
$EXTMAX
 10
14.3125
 20
15.5
 30
0.0
  9
$LIMMIN
 10
0.0
 20
0.0
  9
$LIMMAX
 10
12.0
 20
9.0
  9
$ORTHOMODE
 70
     1
  9
$REGENMODE
 70
     1
  9
$FILLMODE
 70
     1
  9
$QTEXTMODE
 70
     0
  9
$MIRRTEXT
 70
     1
  9
$DRAGMODE
 70
     2
  9
$LTSCALE
 40
1.0
  9
$OSMODE
 70
     0
  9
$ATTMODE
 70
     1
  9
$TEXTSIZE
 40
0.188
  9
$TRACEWID
 40
0.05
  9
$TEXTSTYLE
  7
STANDARD
  9
$CLAYER
  8
DAMAN
  9
$CELTYPE
  6
BYLAYER
  9
$CECOLOR
 62
   256
  9
$DIMSCALE
 40
1.0
  9
$DIMASZ
 40
0.18
  9
$DIMEXO
 40
0.0625
  9
$DIMDLI
 40
0.38
  9
$DIMRND
 40
0.0
  9
$DIMDLE
 40
0.0
  9
$DIMEXE
 40
0.18
  9
$DIMTP
 40
0.0
  9
$DIMTM
 40
0.0
  9
$DIMTXT
 40
0.18
  9
$DIMCEN
 40
0.09
  9
$DIMTSZ
 40
0.0
  9
$DIMTOL
 70
     0
  9
$DIMLIM
 70
     0
  9
$DIMTIH
 70
     1
  9
$DIMTOH
 70
     1
  9
$DIMSE1
 70
     0
  9
$DIMSE2
 70
     0
  9
$DIMTAD
 70
     0
  9
$DIMZIN
 70
     0
  9
$DIMBLK
  1

  9
$DIMASO
 70
     1
  9
$DIMSHO
 70
     1
  9
$DIMPOST
  1

  9
$DIMAPOST
  1

  9
$DIMALT
 70
     0
  9
$DIMALTD
 70
     2
  9
$DIMALTF
 40
25.4
  9
$DIMLFAC
 40
1.0
  9
$DIMTOFL
 70
     0
  9
$DIMTVP
 40
0.0
  9
$DIMTIX
 70
     0
  9
$DIMSOXD
 70
     0
  9
$DIMSAH
 70
     0
  9
$DIMBLK1
  1

  9
$DIMBLK2
  1

  9
$DIMSTYLE
  2
*UNNAMED
  9
$DIMCLRD
 70
     0
  9
$DIMCLRE
 70
     0
  9
$DIMCLRT
 70
     0
  9
$DIMTFAC
 40
1.0
  9
$DIMGAP
 40
0.09
  9
$LUNITS
 70
     2
  9
$LUPREC
 70
     4
  9
$SKETCHINC
 40
0.1
  9
$FILLETRAD
 40
0.0
  9
$AUNITS
 70
     0
  9
$AUPREC
 70
     0
  9
$MENU
  1
tom
  9
$ELEVATION
 40
0.0
  9
$PELEVATION
 40
0.0
  9
$THICKNESS
 40
0.0
  9
$LIMCHECK
 70
     0
  9
$BLIPMODE
 70
     1
  9
$CHAMFERA
 40
0.0
  9
$CHAMFERB
 40
0.0
  9
$SKPOLY
 70
     0
  9
$TDCREATE
 40
2449738.562678715
  9
$TDUPDATE
 40
2449836.642061169
  9
$TDINDWG
 40
0.0028781019
  9
$TDUSRTIMER
 40
0.0028781019
  9
$USRTIMER
 70
     1
  9
$ANGBASE
 50
0.0
  9
$ANGDIR
 70
     0
  9
$PDMODE
 70
     0
  9
$PDSIZE
 40
0.0
  9
$PLINEWID
 40
0.0
  9
$COORDS
 70
     1
  9
$SPLFRAME
 70
     0
  9
$SPLINETYPE
 70
     6
  9
$SPLINESEGS
 70
     8
  9
$ATTDIA
 70
     0
  9
$ATTREQ
 70
     1
  9
$HANDLING
 70
     0
  9
$HANDSEED
  5
0
  9
$SURFTAB1
 70
     6
  9
$SURFTAB2
 70
     6
  9
$SURFTYPE
 70
     6
  9
$SURFU
 70
     6
  9
$SURFV
 70
     6
  9
$UCSNAME
  2

  9
$UCSORG
 10
0.0
 20
0.0
 30
0.0
  9
$UCSXDIR
 10
1.0
 20
0.0
 30
0.0
  9
$UCSYDIR
 10
0.0
 20
1.0
 30
0.0
  9
$PUCSNAME
  2

  9
$PUCSORG
 10
0.0
 20
0.0
 30
0.0
  9
$PUCSXDIR
 10
1.0
 20
0.0
 30
0.0
  9
$PUCSYDIR
 10
0.0
 20
1.0
 30
0.0
  9
$USERI1
 70
     0
  9
$USERI2
 70
     0
  9
$USERI3
 70
     0
  9
$USERI4
 70
     0
  9
$USERI5
 70
     0
  9
$USERR1
 40
0.0
  9
$USERR2
 40
0.0
  9
$USERR3
 40
0.0
  9
$USERR4
 40
0.0
  9
$USERR5
 40
0.0
  9
$WORLDVIEW
 70
     1
  9
$SHADEDGE
 70
     3
  9
$SHADEDIF
 70
    70
  9
$TILEMODE
 70
     1
  9
$MAXACTVP
 70
    16
  9
$PINSBASE
 10
0.0
 20
0.0
 30
0.0
  9
$PLIMCHECK
 70
     0
  9
$PEXTMIN
 10
1.000000E+20
 20
1.000000E+20
 30
1.000000E+20
  9
$PEXTMAX
 10
-1.000000E+20
 20
-1.000000E+20
 30
-1.000000E+20
  9
$PLIMMIN
 10
0.0
 20
0.0
  9
$PLIMMAX
 10
12.0
 20
9.0
  9
$UNITMODE
 70
     0
  9
$VISRETAIN
 70
     0
  9
$PLINEGEN
 70
     0
  9
$PSLTSCALE
 70
     1
  9
$TREEDEPTH
 70
  3020
  9
$DWGCODEPAGE
  3
ascii
  0
ENDSEC
  0
SECTION
  2
TABLES
  0
TABLE
  2
VPORT
 70
     2
  0
VPORT
  2
*ACTIVE
 70
     0
 10
0.0
 20
0.0
 11
1.0
 21
1.0
 12
9.5625
 22
10.125
 13
0.0
 23
0.0
 14
0.03125
 24
0.03125
 15
0.0
 25
0.0
 16
0.0
 26
0.0
 36
1.0
 17
0.0
 27
0.0
 37
0.0
 40
15.5
 41
1.365662
 42
50.0
 43
0.0
 44
0.0
 50
0.0
 51
0.0
 71
     0
 72
   100
 73
     1
 74
     1
 75
     1
 76
     0
 77
     0
 78
     0
  0
ENDTAB
  0
TABLE
  2
LTYPE
 70
     4
  0
LTYPE
  2
CONTINUOUS
 70
    64
  3
Solid line
 72
    65
 73
     0
 40
0.0
  0
LTYPE
  2
HIDDEN
 70
    64
  3
_ _ _ _ _ _ _ _ _ _ _ _ _ _ _ _ _ _ _ _ _ _ _
 72
    65
 73
     2
 40
0.375
 49
0.25
 49
-0.125
  0
LTYPE
  2
CENTER
 70
    64
  3
____ _ ____ _ ____ _ ____ _ ____ _ ____ _ ____
 72
    65
 73
     4
 40
2.0
 49
1.25
 49
-0.25
 49
0.25
 49
-0.25
  0
LTYPE
  2
PHANTOM
 70
    64
  3
_____ _ _ _____ _ _ _____ _ _ _____ _ _ ____
 72
    65
 73
     6
 40
2.5
 49
1.25
 49
-0.25
 49
0.25
 49
-0.25
 49
0.25
 49
-0.25
  0
ENDTAB
  0
TABLE
  2
LAYER
 70
     9
  0
LAYER
  2
0
 70
    64
 62
     7
  6
CONTINUOUS
  0
LAYER
  2
DAMAN
 70
    64
 62
     5
  6
CONTINUOUS
  0
LAYER
  2
BORDER
 70
     0
 62
     7
  6
CONTINUOUS
  0
LAYER
  2
CSOLID
 70
    64
 62
     3
  6
CONTINUOUS
  0
LAYER
  2
CHIDDEN
 70
    64
 62
     3
  6
HIDDEN
  0
LAYER
  2
CDIM
 70
    64
 62
     2
  6
CONTINUOUS
  0
LAYER
  2
CENTER
 70
     0
 62
     4
  6
CENTER
  0
LAYER
  2
CCENTER
 70
    64
 62
     4
  6
CENTER
  0
LAYER
  2
PHANTOM
 70
     0
 62
     1
  6
PHANTOM
  0
ENDTAB
  0
TABLE
  2
STYLE
 70
     2
  0
STYLE
  2
STANDARD
 70
    64
 40
0.0
 41
1.0
 50
0.0
 71
     0
 42
0.188
  3
txt
  4

  0
STYLE
  2
STR
 70
    64
 40
0.0
 41
1.0
 50
0.0
 71
     0
 42
0.25
  3
SIMPLEX
  4

  0
ENDTAB
  0
TABLE
  2
VIEW
 70
     0
  0
ENDTAB
  0
TABLE
  2
UCS
 70
     0
  0
ENDTAB
  0
TABLE
  2
APPID
 70
     1
  0
APPID
  2
ACAD
 70
    64
  0
ENDTAB
  0
TABLE
  2
DIMSTYLE
 70
     0
  0
ENDTAB
  0
ENDSEC
  0
SECTION
  2
BLOCKS
  0
BLOCK
  8
0
  2
D06SFACE
 70
     0
 10
10.875
 20
6.0
 30
0.0
  3
D06SFACE
  0
INSERT
  8
CSOLID
  2
D06I
 10
10.875
 20
6.0
 30
0.0
 41
-1.0
 43
0.0
  0
ENDBLK
  8
0
  0
BLOCK
  8
0
  2
D06I
 70
    64
 10
5.9375
 20
11.0625
 30
0.0
  3
D06I
  0
CIRCLE
  8
CSOLID
 10
6.625
 20
8.96875
 30
0.0
 40
0.656
  0
CIRCLE
  8
CSOLID
 10
8.875
 20
9.90625
 30
0.0
 40
0.656
  0
CIRCLE
  8
CSOLID
 10
8.875
 20
8.03125
 30
0.0
 40
0.656
  0
CIRCLE
  8
CSOLID
 10
6.625
 20
7.09375
 30
0.0
 40
0.656
  0
CIRCLE
  8
CSOLID
 10
8.8125
 20
6.625
 30
0.0
 40
0.5
  0
CIRCLE
  8
CSOLID
 10
6.6875
 20
10.375
 30
0.0
 40
0.5
  0
CIRCLE
  8
CSOLID
 10
5.9375
 20
8.03125
 30
0.0
 40
0.2655
  0
CIRCLE
  8
CSOLID
 10
9.5625
 20
8.96875
 30
0.0
 40
0.2655
  0
CIRCLE
  8
CSOLID
 10
9.5625
 20
5.9375
 30
0.0
 40
0.2655
  0
CIRCLE
  8
CSOLID
 10
9.5625
 20
11.0625
 30
0.0
 40
0.2655
  0
CIRCLE
  8
CSOLID
 10
5.9375
 20
5.9375
 30
0.0
 40
0.2655
  0
CIRCLE
  8
CSOLID
 10
5.9375
 20
11.0625
 30
0.0
 40
0.2655
  0
CIRCLE
  8
CSOLID
 10
6.6255
 20
7.094
 30
0.0
 40
0.453
  0
CIRCLE
  8
CSOLID
 10
6.6255
 20
8.969
 30
0.0
 40
0.453
  0
CIRCLE
  8
CSOLID
 10
8.8755
 20
8.0315
 30
0.0
 40
0.453
  0
CIRCLE
  8
CSOLID
 10
8.8755
 20
9.9065
 30
0.0
 40
0.453
  0
CIRCLE
  8
CSOLID
 10
5.9375
 20
9.90625
 30
0.0
 40
0.1405
  0
CIRCLE
  8
CSOLID
 10
9.7495
 20
7.34425
 30
0.0
 40
0.1405
  0
CIRCLE
  8
CSOLID
 10
6.6875
 20
10.3745
 30
0.0
 40
0.219
  0
CIRCLE
  8
CSOLID
 10
8.8125
 20
6.6245
 30
0.0
 40
0.219
  0
INSERT
  8
CCENTER
  2
100CROSS
 10
6.6875
 20
10.375
 30
0.0
 41
0.875
 42
0.875
 43
0.0
  0
INSERT
  8
CCENTER
  2
100CROSS
 10
6.625
 20
8.96875
 30
0.0
 41
1.03
 42
1.03
 43
0.0
  0
INSERT
  8
CCENTER
  2
100CROSS
 10
8.875
 20
9.90625
 30
0.0
 41
1.03
 42
1.03
 43
0.0
  0
INSERT
  8
CCENTER
  2
100CROSS
 10
8.875
 20
8.03125
 30
0.0
 41
1.03
 42
1.03
 43
0.0
  0
INSERT
  8
CCENTER
  2
100CROSS
 10
8.8125
 20
6.625
 30
0.0
 41
0.875
 42
0.875
 43
0.0
  0
INSERT
  8
CCENTER
  2
100CROSS
 10
6.625
 20
7.09375
 30
0.0
 41
1.03
 42
1.03
 43
0.0
  0
INSERT
  8
CCENTER
  2
100CROSS
 10
9.7495
 20
7.34425
 30
0.0
 41
0.25
 42
0.25
 43
0.0
  0
INSERT
  8
CCENTER
  2
100CROSS
 10
5.9375
 20
9.90625
 30
0.0
 41
0.25
 42
0.25
 43
0.0
  0
INSERT
  8
CCENTER
  2
100CROSS
 10
5.9375
 20
11.0625
 30
0.0
 41
0.8
 42
0.8
 43
0.8
  0
INSERT
  8
CCENTER
  2
100CROSS
 10
5.9375
 20
5.9375
 30
0.0
 41
0.8
 42
0.8
 43
0.8
  0
INSERT
  8
CCENTER
  2
100CROSS
 10
9.5625
 20
11.0625
 30
0.0
 41
0.8
 42
0.8
 43
0.8
  0
INSERT
  8
CCENTER
  2
100CROSS
 10
5.9375
 20
8.03125
 30
0.0
 41
0.8
 42
0.8
 43
0.8
  0
INSERT
  8
CCENTER
  2
100CROSS
 10
9.5625
 20
8.96875
 30
0.0
 41
0.8
 42
0.8
 43
0.8
  0
INSERT
  8
CCENTER
  2
100CROSS
 10
9.5625
 20
5.9375
 30
0.0
 41
0.8
 42
0.8
 43
0.8
  0
ENDBLK
  8
0
  0
BLOCK
  8
0
  2
100CROSS
 70
    64
 10
5.625
 20
4.59375
 30
0.0
  3
100CROSS
  0
INSERT
  8
0
  2
050CROSS
 10
5.625
 20
4.59375
 30
0.0
 43
0.0
  0
ENDBLK
  8
0
  0
BLOCK
  8
0
  2
050CROSS
 70
    64
 10
5.0
 20
5.0
 30
0.0
  3
050CROSS
  0
LINE
  8
0
 10
5.0
 20
5.28125
 30
0.0
 11
5.0
 21
5.78125
 31
0.0
  0
LINE
  8
0
 10
5.0
 20
4.875
 30
0.0
 11
5.0
 21
5.125
 31
0.0
  0
LINE
  8
0
 10
5.0
 20
4.15625
 30
0.0
 11
5.0
 21
4.71875
 31
0.0
  0
LINE
  8
0
 10
5.25
 20
5.0
 30
0.0
 11
5.8125
 21
5.0
 31
0.0
  0
LINE
  8
0
 10
4.90625
 20
5.0
 30
0.0
 11
5.09375
 21
5.0
 31
0.0
  0
LINE
  8
0
 10
4.1875
 20
5.0
 30
0.0
 11
4.75
 21
5.0
 31
0.0
  0
ENDBLK
  8
0
  0
BLOCK
  8
0
  2
044SAET
 70
     0
 10
6.375
 20
2.1875
 30
0.0
  3
044SAET
  0
CIRCLE
  8
CHIDDEN
 10
6.375
 20
2.1875
 30
0.0
 40
0.21875
  0
INSERT
  8
CCENTER
  2
100CROSS
 10
6.375
 20
2.1875
 30
0.0
 41
0.8
 42
0.8
 43
0.0
  0
CIRCLE
  8
CSOLID
 10
6.375
 20
2.1875
 30
0.0
 40
0.1875
  0
CIRCLE
  8
CSOLID
 10
6.375
 20
2.1875
 30
0.0
 40
0.4375
  0
ENDBLK
  8
0
  0
BLOCK
  8
0
  2
025NPTFT
 70
    64
 10
0.0
 20
0.0
 30
0.0
  3
025NPTFT
  0
INSERT
  8
DAMAN
  2
250NPTFT
 10
0.0
 20
0.0
 30
0.0
  0
ENDBLK
  8
0
  0
BLOCK
  8
0
  2
250NPTFT
 70
    64
 10
0.0
 20
0.0
 30
0.0
  3
250NPTFT
  0
CIRCLE
  8
DAMAN
 10
0.0
 20
0.0
 30
0.0
 40
0.273
  0
CIRCLE
  8
DAMAN
 10
0.0
 20
0.0
 30
0.0
 40
0.211
  0
INSERT
  8
DAMAN
  2
100CROSS
 10
0.0
 20
0.0
 30
0.0
 41
0.422
 42
0.422
 43
0.0
  0
CIRCLE
  8
DAMAN
 10
0.0
 20
0.0
 30
0.0
 40
0.242251
  0
POINT
  8
CHIDDEN
 10
-0.087928
 20
0.191806
 30
0.0
  0
POINT
  8
CHIDDEN
 10
-0.137717
 20
-0.15986
 30
0.0
  0
POINT
  8
CHIDDEN
 10
0.202707
 20
-0.058572
 30
0.0
  0
ENDBLK
  8
0
  0
ENDSEC
  0
SECTION
  2
ENTITIES
  0
POLYLINE
  8
DAMAN
 66
     1
 10
0.0
 20
0.0
 30
0.0
 70
     1
  0
VERTEX
  8
DAMAN
 10
13.3125
 20
7.0
 30
0.0
  0
VERTEX
  8
DAMAN
 10
13.3125
 20
13.0
 30
0.0
  0
VERTEX
  8
DAMAN
 10
14.3125
 20
13.0
 30
0.0
  0
VERTEX
  8
DAMAN
 10
14.3125
 20
7.0
 30
0.0
  0
SEQEND
  8
DAMAN
  0
POLYLINE
  8
DAMAN
 66
     1
 10
0.0
 20
0.0
 30
0.0
 70
     1
  0
VERTEX
  8
DAMAN
 10
7.1875
 20
7.0
 30
0.0
  0
VERTEX
  8
DAMAN
 10
7.1875
 20
13.0
 30
0.0
  0
VERTEX
  8
DAMAN
 10
11.6875
 20
13.0
 30
0.0
  0
VERTEX
  8
DAMAN
 10
11.6875
 20
7.0
 30
0.0
  0
SEQEND
  8
DAMAN
  0
POLYLINE
  8
DAMAN
 66
     1
 10
0.0
 20
0.0
 30
0.0
 70
     1
  0
VERTEX
  8
DAMAN
 10
7.1875
 20
4.5
 30
0.0
  0
VERTEX
  8
DAMAN
 10
7.1875
 20
5.5
 30
0.0
  0
VERTEX
  8
DAMAN
 10
11.6875
 20
5.5
 30
0.0
  0
VERTEX
  8
DAMAN
 10
11.6875
 20
4.5
 30
0.0
  0
SEQEND
  8
DAMAN
  0
POLYLINE
  8
DAMAN
 66
     1
 10
0.0
 20
0.0
 30
0.0
 70
     1
  0
VERTEX
  8
DAMAN
 10
7.1875
 20
14.5
 30
0.0
  0
VERTEX
  8
DAMAN
 10
7.1875
 20
15.5
 30
0.0
  0
VERTEX
  8
DAMAN
 10
11.6875
 20
15.5
 30
0.0
  0
VERTEX
  8
DAMAN
 10
11.6875
 20
14.5
 30
0.0
  0
SEQEND
  8
DAMAN
  0
INSERT
  8
DAMAN
  2
100CROSS
 10
11.25
 20
7.4375
 30
0.0
 41
0.6
 42
0.6
 43
0.6
  0
INSERT
  8
DAMAN
  2
100CROSS
 10
11.25
 20
10.46875
 30
0.0
 41
0.6
 42
0.6
 43
0.6
  0
INSERT
  8
DAMAN
  2
100CROSS
 10
7.625
 20
9.53125
 30
0.0
 41
0.6
 42
0.6
 43
0.6
  0
INSERT
  8
DAMAN
  2
100CROSS
 10
11.25
 20
12.5625
 30
0.0
 41
0.6
 42
0.6
 43
0.6
  0
INSERT
  8
DAMAN
  2
100CROSS
 10
7.625
 20
7.4375
 30
0.0
 41
0.6
 42
0.6
 43
0.6
  0
INSERT
  8
DAMAN
  2
100CROSS
 10
7.625
 20
12.5625
 30
0.0
 41
0.6
 42
0.6
 43
0.6
  0
INSERT
  8
DAMAN
  2
100CROSS
 10
7.625
 20
11.40625
 30
0.0
 41
0.25
 42
0.25
 43
0.0
  0
INSERT
  8
DAMAN
  2
100CROSS
 10
11.437
 20
8.84425
 30
0.0
 41
0.25
 42
0.25
 43
0.0
  0
INSERT
  8
DAMAN
  2
100CROSS
 10
8.3125
 20
8.59375
 30
0.0
 41
0.824
 42
0.824
 43
0.0
  0
INSERT
  8
DAMAN
  2
100CROSS
 10
10.5
 20
8.125
 30
0.0
 41
0.525
 42
0.525
 43
0.0
  0
INSERT
  8
DAMAN
  2
100CROSS
 10
10.5625
 20
11.40625
 30
0.0
 41
0.824
 42
0.824
 43
0.0
  0
INSERT
  8
DAMAN
  2
100CROSS
 10
8.3125
 20
10.46875
 30
0.0
 41
0.824
 42
0.824
 43
0.0
  0
INSERT
  8
DAMAN
  2
100CROSS
 10
8.375
 20
11.875
 30
0.0
 41
0.525
 42
0.525
 43
0.0
  0
CIRCLE
  8
DAMAN
 10
10.5
 20
8.1245
 30
0.0
 40
0.219
  0
CIRCLE
  8
DAMAN
 10
8.375
 20
11.8745
 30
0.0
 40
0.219
  0
CIRCLE
  8
DAMAN
 10
11.437
 20
8.84425
 30
0.0
 40
0.1405
  0
CIRCLE
  8
DAMAN
 10
7.625
 20
11.40625
 30
0.0
 40
0.1405
  0
CIRCLE
  8
DAMAN
 10
10.563
 20
11.4065
 30
0.0
 40
0.453
  0
CIRCLE
  8
DAMAN
 10
10.563
 20
9.5315
 30
0.0
 40
0.453
  0
CIRCLE
  8
DAMAN
 10
8.313
 20
10.469
 30
0.0
 40
0.453
  0
CIRCLE
  8
DAMAN
 10
8.313
 20
8.594
 30
0.0
 40
0.453
  0
CIRCLE
  8
DAMAN
 10
7.625
 20
12.5625
 30
0.0
 40
0.2655
  0
CIRCLE
  8
DAMAN
 10
7.625
 20
7.4375
 30
0.0
 40
0.2655
  0
CIRCLE
  8
DAMAN
 10
11.25
 20
12.5625
 30
0.0
 40
0.2655
  0
CIRCLE
  8
DAMAN
 10
11.25
 20
7.4375
 30
0.0
 40
0.2655
  0
CIRCLE
  8
DAMAN
 10
11.25
 20
10.46875
 30
0.0
 40
0.2655
  0
CIRCLE
  8
DAMAN
 10
7.625
 20
9.53125
 30
0.0
 40
0.2655
  0
INSERT
  8
DAMAN
  2
100CROSS
 10
10.5625
 20
9.53125
 30
0.0
 41
0.824
 42
0.824
 43
0.0
  0
TEXT
  8
DAMAN
 10
8.875
 20
5.1875
 30
0.0
 40
0.25
  1
B
  7
STR
  0
INSERT
  8
DAMAN
  2
025NPTFT
 10
8.3125
 20
5.0
 30
0.0
  0
INSERT
  8
DAMAN
  2
025NPTFT
 10
9.4375
 20
15.0
 30
0.0
  0
POLYLINE
  8
DAMAN
 66
     1
 10
0.0
 20
0.0
 30
0.0
 70
     1
  0
VERTEX
  8
DAMAN
 10
5.5625
 20
7.0
 30
0.0
  0
VERTEX
  8
DAMAN
 10
5.5625
 20
13.0
 30
0.0
  0
VERTEX
  8
DAMAN
 10
4.5625
 20
13.0
 30
0.0
  0
VERTEX
  8
DAMAN
 10
4.5625
 20
7.0
 30
0.0
  0
SEQEND
  8
DAMAN
  0
TEXT
  8
DAMAN
 10
8.78125
 20
14.78125
 30
0.0
 40
0.188
  1
A
 50
180.0
  0
TEXT
  8
DAMAN
 10
13.59375
 20
8.46875
 30
0.0
 40
0.188
  1
DAMAN ****
 50
90.0
  0
ENDSEC
  0
EOF
