  0
SECTION
  2
HEADER
  9
$ACADVER
  1
AC1009
  9
$INSBASE
 10
0.0
 20
0.0
 30
0.0
  9
$EXTMIN
 10
-0.0909
 20
1.0
 30
0.0
  9
$EXTMAX
 10
21.4115
 20
14.99625
 30
0.0
  9
$LIMMIN
 10
0.0
 20
0.0
  9
$LIMMAX
 10
12.0
 20
9.0
  9
$ORTHOMODE
 70
     1
  9
$REGENMODE
 70
     1
  9
$FILLMODE
 70
     1
  9
$QTEXTMODE
 70
     0
  9
$MIRRTEXT
 70
     1
  9
$DRAGMODE
 70
     2
  9
$LTSCALE
 40
1.0
  9
$OSMODE
 70
     0
  9
$ATTMODE
 70
     1
  9
$TEXTSIZE
 40
0.188
  9
$TRACEWID
 40
0.05
  9
$TEXTSTYLE
  7
STANDARD
  9
$CLAYER
  8
DAMAN
  9
$CELTYPE
  6
BYLAYER
  9
$CECOLOR
 62
   256
  9
$DIMSCALE
 40
1.0
  9
$DIMASZ
 40
0.18
  9
$DIMEXO
 40
0.0625
  9
$DIMDLI
 40
0.38
  9
$DIMRND
 40
0.0
  9
$DIMDLE
 40
0.0
  9
$DIMEXE
 40
0.18
  9
$DIMTP
 40
0.0
  9
$DIMTM
 40
0.0
  9
$DIMTXT
 40
0.18
  9
$DIMCEN
 40
0.09
  9
$DIMTSZ
 40
0.0
  9
$DIMTOL
 70
     0
  9
$DIMLIM
 70
     0
  9
$DIMTIH
 70
     1
  9
$DIMTOH
 70
     1
  9
$DIMSE1
 70
     0
  9
$DIMSE2
 70
     0
  9
$DIMTAD
 70
     0
  9
$DIMZIN
 70
     0
  9
$DIMBLK
  1

  9
$DIMASO
 70
     1
  9
$DIMSHO
 70
     1
  9
$DIMPOST
  1

  9
$DIMAPOST
  1

  9
$DIMALT
 70
     0
  9
$DIMALTD
 70
     2
  9
$DIMALTF
 40
25.4
  9
$DIMLFAC
 40
1.0
  9
$DIMTOFL
 70
     0
  9
$DIMTVP
 40
0.0
  9
$DIMTIX
 70
     0
  9
$DIMSOXD
 70
     0
  9
$DIMSAH
 70
     0
  9
$DIMBLK1
  1

  9
$DIMBLK2
  1

  9
$DIMSTYLE
  2
*UNNAMED
  9
$DIMCLRD
 70
     0
  9
$DIMCLRE
 70
     0
  9
$DIMCLRT
 70
     0
  9
$DIMTFAC
 40
1.0
  9
$DIMGAP
 40
0.09
  9
$LUNITS
 70
     2
  9
$LUPREC
 70
     4
  9
$SKETCHINC
 40
0.1
  9
$FILLETRAD
 40
0.0
  9
$AUNITS
 70
     0
  9
$AUPREC
 70
     0
  9
$MENU
  1
tom
  9
$ELEVATION
 40
0.0
  9
$PELEVATION
 40
0.0
  9
$THICKNESS
 40
0.0
  9
$LIMCHECK
 70
     0
  9
$BLIPMODE
 70
     1
  9
$CHAMFERA
 40
0.0
  9
$CHAMFERB
 40
0.0
  9
$SKPOLY
 70
     0
  9
$TDCREATE
 40
2449746.372906030
  9
$TDUPDATE
 40
2449746.372906030
  9
$TDINDWG
 40
0.0000000000
  9
$TDUSRTIMER
 40
0.0000000000
  9
$USRTIMER
 70
     1
  9
$ANGBASE
 50
0.0
  9
$ANGDIR
 70
     0
  9
$PDMODE
 70
     0
  9
$PDSIZE
 40
0.0
  9
$PLINEWID
 40
0.0
  9
$COORDS
 70
     1
  9
$SPLFRAME
 70
     0
  9
$SPLINETYPE
 70
     6
  9
$SPLINESEGS
 70
     8
  9
$ATTDIA
 70
     0
  9
$ATTREQ
 70
     1
  9
$HANDLING
 70
     0
  9
$HANDSEED
  5
0
  9
$SURFTAB1
 70
     6
  9
$SURFTAB2
 70
     6
  9
$SURFTYPE
 70
     6
  9
$SURFU
 70
     6
  9
$SURFV
 70
     6
  9
$UCSNAME
  2

  9
$UCSORG
 10
0.0
 20
0.0
 30
0.0
  9
$UCSXDIR
 10
1.0
 20
0.0
 30
0.0
  9
$UCSYDIR
 10
0.0
 20
1.0
 30
0.0
  9
$PUCSNAME
  2

  9
$PUCSORG
 10
0.0
 20
0.0
 30
0.0
  9
$PUCSXDIR
 10
1.0
 20
0.0
 30
0.0
  9
$PUCSYDIR
 10
0.0
 20
1.0
 30
0.0
  9
$USERI1
 70
     0
  9
$USERI2
 70
     0
  9
$USERI3
 70
     0
  9
$USERI4
 70
     0
  9
$USERI5
 70
     0
  9
$USERR1
 40
0.0
  9
$USERR2
 40
0.0
  9
$USERR3
 40
0.0
  9
$USERR4
 40
0.0
  9
$USERR5
 40
0.0
  9
$WORLDVIEW
 70
     1
  9
$SHADEDGE
 70
     3
  9
$SHADEDIF
 70
    70
  9
$TILEMODE
 70
     1
  9
$MAXACTVP
 70
    16
  9
$PINSBASE
 10
0.0
 20
0.0
 30
0.0
  9
$PLIMCHECK
 70
     0
  9
$PEXTMIN
 10
1.000000E+20
 20
1.000000E+20
 30
1.000000E+20
  9
$PEXTMAX
 10
-1.000000E+20
 20
-1.000000E+20
 30
-1.000000E+20
  9
$PLIMMIN
 10
0.0
 20
0.0
  9
$PLIMMAX
 10
12.0
 20
9.0
  9
$UNITMODE
 70
     0
  9
$VISRETAIN
 70
     0
  9
$PLINEGEN
 70
     0
  9
$PSLTSCALE
 70
     1
  9
$TREEDEPTH
 70
  3020
  9
$DWGCODEPAGE
  3
ascii
  0
ENDSEC
  0
SECTION
  2
TABLES
  0
TABLE
  2
VPORT
 70
     2
  0
VPORT
  2
*ACTIVE
 70
     0
 10
0.0
 20
0.0
 11
1.0
 21
1.0
 12
10.6603
 22
7.87252
 13
0.0
 23
0.0
 14
0.03125
 24
0.03125
 15
0.0
 25
0.0
 16
0.0
 26
0.0
 36
1.0
 17
0.0
 27
0.0
 37
0.0
 40
15.74504
 41
1.365662
 42
50.0
 43
0.0
 44
0.0
 50
0.0
 51
0.0
 71
     0
 72
   100
 73
     1
 74
     1
 75
     1
 76
     0
 77
     0
 78
     0
  0
ENDTAB
  0
TABLE
  2
LTYPE
 70
     4
  0
LTYPE
  2
CONTINUOUS
 70
    64
  3
Solid line
 72
    65
 73
     0
 40
0.0
  0
LTYPE
  2
HIDDEN
 70
    64
  3
_ _ _ _ _ _ _ _ _ _ _ _ _ _ _ _ _ _ _ _ _ _ _
 72
    65
 73
     2
 40
0.375
 49
0.25
 49
-0.125
  0
LTYPE
  2
CENTER
 70
    64
  3
____ _ ____ _ ____ _ ____ _ ____ _ ____ _ ____
 72
    65
 73
     4
 40
2.0
 49
1.25
 49
-0.25
 49
0.25
 49
-0.25
  0
LTYPE
  2
PHANTOM
 70
    64
  3
_____ _ _ _____ _ _ _____ _ _ _____ _ _ ____
 72
    65
 73
     6
 40
2.5
 49
1.25
 49
-0.25
 49
0.25
 49
-0.25
 49
0.25
 49
-0.25
  0
ENDTAB
  0
TABLE
  2
LAYER
 70
    10
  0
LAYER
  2
0
 70
     0
 62
     7
  6
CONTINUOUS
  0
LAYER
  2
DAMAN
 70
     0
 62
     5
  6
CONTINUOUS
  0
LAYER
  2
BORDER
 70
    64
 62
     7
  6
CONTINUOUS
  0
LAYER
  2
CSOLID
 70
    64
 62
     3
  6
CONTINUOUS
  0
LAYER
  2
SOLID
 70
     0
 62
     4
  6
CONTINUOUS
  0
LAYER
  2
CHIDDEN
 70
    64
 62
     3
  6
HIDDEN
  0
LAYER
  2
CDIM
 70
    64
 62
     2
  6
CONTINUOUS
  0
LAYER
  2
DIM
 70
     0
 62
     5
  6
CONTINUOUS
  0
LAYER
  2
CCENTER
 70
    64
 62
     4
  6
CENTER
  0
LAYER
  2
PHANTOM
 70
     0
 62
     1
  6
PHANTOM
  0
ENDTAB
  0
TABLE
  2
STYLE
 70
     2
  0
STYLE
  2
STANDARD
 70
    64
 40
0.0
 41
1.0
 50
0.0
 71
     0
 42
0.188
  3
txt
  4

  0
STYLE
  2
STR
 70
    64
 40
0.0
 41
1.0
 50
0.0
 71
     0
 42
0.25
  3
SIMPLEX
  4

  0
ENDTAB
  0
TABLE
  2
VIEW
 70
     0
  0
ENDTAB
  0
TABLE
  2
UCS
 70
     0
  0
ENDTAB
  0
TABLE
  2
APPID
 70
     1
  0
APPID
  2
ACAD
 70
    64
  0
ENDTAB
  0
TABLE
  2
DIMSTYLE
 70
     0
  0
ENDTAB
  0
ENDSEC
  0
SECTION
  2
BLOCKS
  0
BLOCK
  8
0
  2
D08SPS
 70
    64
 10
0.0
 20
0.0
 30
0.0
  3
D08SPS
  0
POLYLINE
  8
BORDER
 66
     1
 10
0.0
 20
0.0
 30
0.0
 70
     1
  0
VERTEX
  8
BORDER
 10
1.875
 20
5.75
 30
0.0
  0
VERTEX
  8
BORDER
 10
1.875
 20
11.875
 30
0.0
  0
VERTEX
  8
BORDER
 10
3.875
 20
11.875
 30
0.0
  0
VERTEX
  8
BORDER
 10
3.875
 20
5.75
 30
0.0
  0
SEQEND
  8
BORDER
  0
POLYLINE
  8
BORDER
 66
     1
 10
0.0
 20
0.0
 30
0.0
 70
     1
  0
VERTEX
  8
BORDER
 10
15.125
 20
5.75
 30
0.0
  0
VERTEX
  8
BORDER
 10
15.125
 20
11.875
 30
0.0
  0
VERTEX
  8
BORDER
 10
17.125
 20
11.875
 30
0.0
  0
VERTEX
  8
BORDER
 10
17.125
 20
5.75
 30
0.0
  0
SEQEND
  8
BORDER
  0
POLYLINE
  8
BORDER
 66
     1
 10
0.0
 20
0.0
 30
0.0
 70
     1
  0
VERTEX
  8
BORDER
 10
7.25
 20
5.75
 30
0.0
  0
VERTEX
  8
BORDER
 10
7.25
 20
11.875
 30
0.0
  0
VERTEX
  8
BORDER
 10
11.75
 20
11.875
 30
0.0
  0
VERTEX
  8
BORDER
 10
11.75
 20
5.75
 30
0.0
  0
SEQEND
  8
BORDER
  0
INSERT
  8
CCENTER
  2
100CROSS
 10
10.5625
 20
6.937
 30
0.0
 41
0.438
 42
0.438
 43
0.0
  0
CIRCLE
  8
CSOLID
 10
10.5625
 20
6.937
 30
0.0
 40
0.219
  0
CIRCLE
  8
CSOLID
 10
8.4375
 20
10.687
 30
0.0
 40
0.219
  0
INSERT
  8
CCENTER
  2
100CROSS
 10
8.4375
 20
10.687
 30
0.0
 41
0.438
 42
0.438
 43
0.0
  0
INSERT
  8
CCENTER
  2
100CROSS
 10
11.4995
 20
7.65675
 30
0.0
 41
0.25
 42
0.25
 43
0.0
  0
CIRCLE
  8
CSOLID
 10
11.4995
 20
7.65675
 30
0.0
 40
0.1405
  0
CIRCLE
  8
CSOLID
 10
7.6875
 20
10.21875
 30
0.0
 40
0.1405
  0
INSERT
  8
CCENTER
  2
100CROSS
 10
7.6875
 20
10.21875
 30
0.0
 41
0.25
 42
0.25
 43
0.0
  0
CIRCLE
  8
CSOLID
 10
10.6255
 20
10.219
 30
0.0
 40
0.453
  0
INSERT
  8
CCENTER
  2
100CROSS
 10
10.6255
 20
10.219
 30
0.0
 41
0.844
 42
0.844
 43
0.0
  0
INSERT
  8
CCENTER
  2
100CROSS
 10
10.6255
 20
8.344
 30
0.0
 41
0.844
 42
0.844
 43
0.0
  0
CIRCLE
  8
CSOLID
 10
10.6255
 20
8.344
 30
0.0
 40
0.453
  0
INSERT
  8
CCENTER
  2
100CROSS
 10
8.3755
 20
9.2815
 30
0.0
 41
0.844
 42
0.844
 43
0.0
  0
CIRCLE
  8
CSOLID
 10
8.3755
 20
9.2815
 30
0.0
 40
0.453
  0
CIRCLE
  8
CSOLID
 10
8.3755
 20
7.4065
 30
0.0
 40
0.453
  0
INSERT
  8
CCENTER
  2
100CROSS
 10
8.3755
 20
7.4065
 30
0.0
 41
0.844
 42
0.844
 43
0.0
  0
CIRCLE
  8
CSOLID
 10
11.3125
 20
9.281
 30
0.0
 40
0.21875
  0
INSERT
  8
CCENTER
  2
100CROSS
 10
11.3125
 20
9.281
 30
0.0
 41
0.5
 42
0.5
 43
0.0
  0
INSERT
  8
CCENTER
  2
100CROSS
 10
7.6875
 20
8.344
 30
0.0
 41
0.5
 42
0.5
 43
0.0
  0
CIRCLE
  8
CSOLID
 10
7.6875
 20
8.344
 30
0.0
 40
0.21875
  0
INSERT
  8
CCENTER
  2
100CROSS
 10
11.3125
 20
6.25
 30
0.0
 41
0.5
 42
0.5
 43
0.0
  0
CIRCLE
  8
CSOLID
 10
11.3125
 20
6.25
 30
0.0
 40
0.21875
  0
INSERT
  8
CCENTER
  2
100CROSS
 10
11.3125
 20
11.375
 30
0.0
 41
0.5
 42
0.5
 43
0.0
  0
CIRCLE
  8
CSOLID
 10
11.3125
 20
11.375
 30
0.0
 40
0.21875
  0
INSERT
  8
CCENTER
  2
100CROSS
 10
7.6875
 20
6.25
 30
0.0
 41
0.5
 42
0.5
 43
0.0
  0
CIRCLE
  8
CSOLID
 10
7.6875
 20
6.25
 30
0.0
 40
0.21875
  0
CIRCLE
  8
CSOLID
 10
7.6875
 20
11.375
 30
0.0
 40
0.21875
  0
INSERT
  8
CCENTER
  2
100CROSS
 10
7.6875
 20
11.375
 30
0.0
 41
0.5
 42
0.5
 43
0.0
  0
CIRCLE
  8
CHIDDEN
 10
7.6875
 20
6.25
 30
0.0
 40
0.25
  0
CIRCLE
  8
CHIDDEN
 10
7.6875
 20
11.375
 30
0.0
 40
0.25
  0
CIRCLE
  8
CHIDDEN
 10
11.3125
 20
6.25
 30
0.0
 40
0.25
  0
CIRCLE
  8
CHIDDEN
 10
11.3125
 20
11.375
 30
0.0
 40
0.25
  0
CIRCLE
  8
CHIDDEN
 10
7.6875
 20
8.34375
 30
0.0
 40
0.25
  0
CIRCLE
  8
CHIDDEN
 10
11.3125
 20
9.281
 30
0.0
 40
0.25
  0
INSERT
  8
CCENTER
  2
100CROSS
 10
9.5
 20
11.375
 30
0.0
 41
0.8125
 42
0.8125
 43
0.8125
  0
CIRCLE
  8
CSOLID
 10
9.5
 20
11.375
 30
0.0
 40
0.40625
  0
CIRCLE
  8
CSOLID
 10
9.5
 20
11.375
 30
0.0
 40
0.265625
  0
CIRCLE
  8
CSOLID
 10
9.5
 20
6.25
 30
0.0
 40
0.265625
  0
CIRCLE
  8
CSOLID
 10
9.5
 20
6.25
 30
0.0
 40
0.40625
  0
INSERT
  8
CCENTER
  2
100CROSS
 10
9.5
 20
6.25
 30
0.0
 41
-0.8125
 42
0.8125
 50
180.0
 43
0.8125
  0
CIRCLE
  8
CSOLID
 10
2.875
 20
9.34375
 30
0.0
 40
0.6125
  0
CIRCLE
  8
CSOLID
 10
2.875
 20
9.34375
 30
0.0
 40
0.562
  0
INSERT
  8
CCENTER
  2
100CROSS
 10
2.875
 20
9.34375
 30
0.0
 41
1.6
 42
1.6
 43
0.0
  0
CIRCLE
  8
CHIDDEN
 10
2.875
 20
9.34375
 30
0.0
 40
0.65625
  0
CIRCLE
  8
CSOLID
 10
2.875
 20
7.34375
 30
0.0
 40
0.6125
  0
CIRCLE
  8
CSOLID
 10
2.875
 20
7.34375
 30
0.0
 40
0.562
  0
INSERT
  8
CCENTER
  2
100CROSS
 10
2.875
 20
7.34375
 30
0.0
 41
1.6
 42
1.6
 43
0.0
  0
CIRCLE
  8
CHIDDEN
 10
2.875
 20
7.34375
 30
0.0
 40
0.65625
  0
CIRCLE
  8
CSOLID
 10
16.125
 20
10.28125
 30
0.0
 40
0.6125
  0
CIRCLE
  8
CSOLID
 10
16.125
 20
10.28125
 30
0.0
 40
0.562
  0
INSERT
  8
CCENTER
  2
100CROSS
 10
16.125
 20
10.28125
 30
0.0
 41
1.6
 42
1.6
 43
0.0
  0
CIRCLE
  8
CHIDDEN
 10
16.125
 20
10.28125
 30
0.0
 40
0.65625
  0
CIRCLE
  8
CSOLID
 10
16.125
 20
8.28125
 30
0.0
 40
0.6125
  0
CIRCLE
  8
CSOLID
 10
16.125
 20
8.28125
 30
0.0
 40
0.562
  0
INSERT
  8
CCENTER
  2
100CROSS
 10
16.125
 20
8.28125
 30
0.0
 41
1.6
 42
1.6
 43
0.0
  0
CIRCLE
  8
CHIDDEN
 10
16.125
 20
8.28125
 30
0.0
 40
0.65625
  0
INSERT
  8
CCENTER
  2
100CROSS
 10
2.875
 20
10.6875
 30
0.0
 43
0.0
  0
CIRCLE
  8
CHIDDEN
 10
2.875
 20
10.6875
 30
0.0
 40
0.28125
  0
ARC
  8
CSOLID
 10
2.875
 20
10.6875
 30
0.0
 40
0.5
 50
308.222826
 51
231.777174
  0
CIRCLE
  8
CSOLID
 10
2.875
 20
10.6875
 30
0.0
 40
0.25
  0
INSERT
  8
CCENTER
  2
100CROSS
 10
16.125
 20
6.9375
 30
0.0
 43
0.0
  0
CIRCLE
  8
CHIDDEN
 10
16.125
 20
6.9375
 30
0.0
 40
0.28125
  0
ARC
  8
CSOLID
 10
16.125
 20
6.9375
 30
0.0
 40
0.5
 50
128.222826
 51
51.777174
  0
CIRCLE
  8
CSOLID
 10
16.125
 20
6.9375
 30
0.0
 40
0.25
  0
TEXT
  8
CDIM
 10
3.21875
 20
11.4375
 30
0.0
 40
0.25
  1
X
 50
270.0
  7
STR
  0
TEXT
  8
CDIM
 10
3.40625
 20
10.46875
 30
0.0
 40
0.25
  1
A
 50
270.0
  7
STR
  0
TEXT
  8
CDIM
 10
3.375
 20
6.34375
 30
0.0
 40
0.25
  1
B
 50
270.0
  7
STR
  0
TEXT
  8
CDIM
 10
15.625
 20
6.40625
 30
0.0
 40
0.25
  1
Y
 50
90.0
  7
STR
  0
TEXT
  8
CDIM
 10
15.625
 20
7.1875
 30
0.0
 40
0.25
  1
P
 50
90.0
  7
STR
  0
TEXT
  8
CDIM
 10
15.59375
 20
11.21875
 30
0.0
 40
0.25
  1
T
 50
90.0
  7
STR
  0
LINE
  8
CDIM
 10
1.875
 20
12.026875
 30
0.0
 11
1.875
 21
12.80375
 31
0.0
  0
LINE
  8
CDIM
 10
2.875
 20
11.089375
 30
0.0
 11
2.875
 21
12.80375
 31
0.0
  0
LINE
  8
CDIM
 10
3.17875
 20
12.5
 30
0.0
 11
3.4825
 21
12.5
 31
0.0
  0
LINE
  8
CDIM
 10
1.57125
 20
12.5
 30
0.0
 11
1.2675
 21
12.5
 31
0.0
  0
SOLID
  8
CDIM
 10
3.17875
 20
12.449375
 30
0.0
 11
3.17875
 21
12.550625
 31
0.0
 12
2.875
 22
12.5
 32
0.0
 13
2.875
 23
12.5
 33
0.0
  0
SOLID
  8
CDIM
 10
1.57125
 20
12.449375
 30
0.0
 11
1.57125
 21
12.550625
 31
0.0
 12
1.875
 22
12.5
 32
0.0
 13
1.875
 23
12.5
 33
0.0
  0
TEXT
  8
CDIM
 10
3.88
 20
12.3299
 30
0.0
 40
0.3402
  1
1.00
  7
STR
  0
LINE
  8
CDIM
 10
1.875
 20
12.026875
 30
0.0
 11
1.875
 21
13.715
 31
0.0
  0
LINE
  8
CDIM
 10
3.875
 20
12.026875
 30
0.0
 11
3.875
 21
12.21875
 31
0.0
  0
LINE
  8
CDIM
 10
4.17875
 20
13.41125
 30
0.0
 11
4.4825
 21
13.41125
 31
0.0
  0
LINE
  8
CDIM
 10
1.57125
 20
13.41125
 30
0.0
 11
1.2675
 21
13.41125
 31
0.0
  0
SOLID
  8
CDIM
 10
4.17875
 20
13.360625
 30
0.0
 11
4.17875
 21
13.461875
 31
0.0
 12
3.875
 22
13.41125
 32
0.0
 13
3.875
 23
13.41125
 33
0.0
  0
SOLID
  8
CDIM
 10
1.57125
 20
13.360625
 30
0.0
 11
1.57125
 21
13.461875
 31
0.0
 12
1.875
 22
13.41125
 32
0.0
 13
1.875
 23
13.41125
 33
0.0
  0
TEXT
  8
CDIM
 10
2.38
 20
13.24115
 30
0.0
 40
0.3402
  1
2.00
  7
STR
  0
LINE
  8
CDIM
 10
7.25
 20
12.026875
 30
0.0
 11
7.25
 21
12.80375
 31
0.0
  0
LINE
  8
CDIM
 10
10.6255
 20
10.823875
 30
0.0
 11
10.6255
 21
12.80375
 31
0.0
  0
LINE
  8
CDIM
 10
7.55375
 20
12.5
 30
0.0
 11
8.1156
 21
12.5
 31
0.0
  0
LINE
  8
CDIM
 10
10.32175
 20
12.5
 30
0.0
 11
9.7599
 21
12.5
 31
0.0
  0
SOLID
  8
CDIM
 10
7.55375
 20
12.449375
 30
0.0
 11
7.55375
 21
12.550625
 31
0.0
 12
7.25
 22
12.5
 32
0.0
 13
7.25
 23
12.5
 33
0.0
  0
SOLID
  8
CDIM
 10
10.32175
 20
12.449375
 30
0.0
 11
10.32175
 21
12.550625
 31
0.0
 12
10.6255
 22
12.5
 32
0.0
 13
10.6255
 23
12.5
 33
0.0
  0
TEXT
  8
CDIM
 10
8.41935
 20
12.3299
 30
0.0
 40
0.3402
  1
3.38
  7
STR
  0
LINE
  8
CDIM
 10
7.25
 20
12.026875
 30
0.0
 11
7.25
 21
13.715
 31
0.0
  0
LINE
  8
CDIM
 10
11.75
 20
12.026875
 30
0.0
 11
11.75
 21
13.715
 31
0.0
  0
LINE
  8
CDIM
 10
7.55375
 20
13.41125
 30
0.0
 11
8.67785
 21
13.41125
 31
0.0
  0
LINE
  8
CDIM
 10
11.44625
 20
13.41125
 30
0.0
 11
10.32215
 21
13.41125
 31
0.0
  0
SOLID
  8
CDIM
 10
7.55375
 20
13.360625
 30
0.0
 11
7.55375
 21
13.461875
 31
0.0
 12
7.25
 22
13.41125
 32
0.0
 13
7.25
 23
13.41125
 33
0.0
  0
SOLID
  8
CDIM
 10
11.44625
 20
13.360625
 30
0.0
 11
11.44625
 21
13.461875
 31
0.0
 12
11.75
 22
13.41125
 32
0.0
 13
11.75
 23
13.41125
 33
0.0
  0
TEXT
  8
CDIM
 10
8.9816
 20
13.24115
 30
0.0
 40
0.3402
  1
4.50
  7
STR
  0
LINE
  8
CDIM
 10
17.125
 20
12.026875
 30
0.0
 11
17.125
 21
12.80375
 31
0.0
  0
LINE
  8
CDIM
 10
16.125
 20
10.995125
 30
0.0
 11
16.125
 21
12.80375
 31
0.0
  0
LINE
  8
CDIM
 10
15.82125
 20
12.5
 30
0.0
 11
15.5175
 21
12.5
 31
0.0
  0
LINE
  8
CDIM
 10
17.42875
 20
12.5
 30
0.0
 11
17.7325
 21
12.5
 31
0.0
  0
SOLID
  8
CDIM
 10
15.82125
 20
12.449375
 30
0.0
 11
15.82125
 21
12.550625
 31
0.0
 12
16.125
 22
12.5
 32
0.0
 13
16.125
 23
12.5
 33
0.0
  0
SOLID
  8
CDIM
 10
17.42875
 20
12.449375
 30
0.0
 11
17.42875
 21
12.550625
 31
0.0
 12
17.125
 22
12.5
 32
0.0
 13
17.125
 23
12.5
 33
0.0
  0
TEXT
  8
CDIM
 10
14.2707
 20
12.3299
 30
0.0
 40
0.3402
  1
1.00
  7
STR
  0
LINE
  8
CDIM
 10
7.25
 20
5.598125
 30
0.0
 11
7.25
 21
4.82125
 31
0.0
  0
LINE
  8
CDIM
 10
9.5
 20
5.8325
 30
0.0
 11
9.5
 21
4.82125
 31
0.0
  0
LINE
  8
CDIM
 10
9.80375
 20
5.125
 30
0.0
 11
10.1075
 21
5.125
 31
0.0
  0
LINE
  8
CDIM
 10
6.94625
 20
5.125
 30
0.0
 11
6.6425
 21
5.125
 31
0.0
  0
SOLID
  8
CDIM
 10
9.80375
 20
5.074375
 30
0.0
 11
9.80375
 21
5.175625
 31
0.0
 12
9.5
 22
5.125
 32
0.0
 13
9.5
 23
5.125
 33
0.0
  0
SOLID
  8
CDIM
 10
6.94625
 20
5.074375
 30
0.0
 11
6.94625
 21
5.175625
 31
0.0
 12
7.25
 22
5.125
 32
0.0
 13
7.25
 23
5.125
 33
0.0
  0
TEXT
  8
CDIM
 10
7.91125
 20
4.9549
 30
0.0
 40
0.3402
  1
2.25
  7
STR
  0
LINE
  8
CDIM
 10
17.276875
 20
11.875
 30
0.0
 11
18.17875
 21
11.875
 31
0.0
  0
LINE
  8
CDIM
 10
16.963875
 20
10.28125
 30
0.0
 11
18.17875
 21
10.28125
 31
0.0
  0
LINE
  8
CDIM
 10
17.875
 20
11.57125
 30
0.0
 11
17.875
 21
11.551975
 31
0.0
  0
LINE
  8
CDIM
 10
17.875
 20
10.585
 30
0.0
 11
17.875
 21
10.604275
 31
0.0
  0
SOLID
  8
CDIM
 10
17.925625
 20
11.57125
 30
0.0
 11
17.824375
 21
11.57125
 31
0.0
 12
17.875
 22
11.875
 32
0.0
 13
17.875
 23
11.875
 33
0.0
  0
SOLID
  8
CDIM
 10
17.925625
 20
10.585
 30
0.0
 11
17.824375
 21
10.585
 31
0.0
 12
17.875
 22
10.28125
 32
0.0
 13
17.875
 23
10.28125
 33
0.0
  0
TEXT
  8
CDIM
 10
17.3971
 20
10.908025
 30
0.0
 40
0.3402
  1
1.59
  7
STR
  0
LINE
  8
CDIM
 10
17.276875
 20
11.875
 30
0.0
 11
19.09
 21
11.875
 31
0.0
  0
LINE
  8
CDIM
 10
17.058125
 20
8.28125
 30
0.0
 11
19.09
 21
8.28125
 31
0.0
  0
LINE
  8
CDIM
 10
18.78625
 20
11.57125
 30
0.0
 11
18.78625
 21
10.114475
 31
0.0
  0
LINE
  8
CDIM
 10
18.78625
 20
8.585
 30
0.0
 11
18.78625
 21
9.166775
 31
0.0
  0
SOLID
  8
CDIM
 10
18.836875
 20
11.57125
 30
0.0
 11
18.735625
 21
11.57125
 31
0.0
 12
18.78625
 22
11.875
 32
0.0
 13
18.78625
 23
11.875
 33
0.0
  0
SOLID
  8
CDIM
 10
18.836875
 20
8.585
 30
0.0
 11
18.735625
 21
8.585
 31
0.0
 12
18.78625
 22
8.28125
 32
0.0
 13
18.78625
 23
8.28125
 33
0.0
  0
TEXT
  8
CDIM
 10
18.27595
 20
9.470525
 30
0.0
 40
0.3402
  1
3.59
  7
STR
  0
LINE
  8
CDIM
 10
17.276875
 20
11.875
 30
0.0
 11
20.00125
 21
11.875
 31
0.0
  0
LINE
  8
CDIM
 10
16.526875
 20
6.9375
 30
0.0
 11
20.00125
 21
6.9375
 31
0.0
  0
LINE
  8
CDIM
 10
19.6975
 20
11.57125
 30
0.0
 11
19.6975
 21
9.4426
 31
0.0
  0
LINE
  8
CDIM
 10
19.6975
 20
7.24125
 30
0.0
 11
19.6975
 21
8.4949
 31
0.0
  0
SOLID
  8
CDIM
 10
19.748125
 20
11.57125
 30
0.0
 11
19.646875
 21
11.57125
 31
0.0
 12
19.6975
 22
11.875
 32
0.0
 13
19.6975
 23
11.875
 33
0.0
  0
SOLID
  8
CDIM
 10
19.748125
 20
7.24125
 30
0.0
 11
19.646875
 21
7.24125
 31
0.0
 12
19.6975
 22
6.9375
 32
0.0
 13
19.6975
 23
6.9375
 33
0.0
  0
TEXT
  8
CDIM
 10
19.171
 20
8.79865
 30
0.0
 40
0.3402
  1
4.94
  7
STR
  0
LINE
  8
CDIM
 10
11.901875
 20
11.875
 30
0.0
 11
12.86625
 21
11.875
 31
0.0
  0
LINE
  8
CDIM
 10
9.9175
 20
11.375
 30
0.0
 11
12.86625
 21
11.375
 31
0.0
  0
LINE
  8
CDIM
 10
12.5625
 20
11.07125
 30
0.0
 11
12.5625
 21
10.7675
 31
0.0
  0
LINE
  8
CDIM
 10
12.5625
 20
12.17875
 30
0.0
 11
12.5625
 21
12.4825
 31
0.0
  0
SOLID
  8
CDIM
 10
12.613125
 20
11.07125
 30
0.0
 11
12.511875
 21
11.07125
 31
0.0
 12
12.5625
 22
11.375
 32
0.0
 13
12.5625
 23
11.375
 33
0.0
  0
SOLID
  8
CDIM
 10
12.613125
 20
12.17875
 30
0.0
 11
12.511875
 21
12.17875
 31
0.0
 12
12.5625
 22
11.875
 32
0.0
 13
12.5625
 23
11.875
 33
0.0
  0
TEXT
  8
CDIM
 10
11.9807
 20
10.25365
 30
0.0
 40
0.3402
  1
0.50
  7
STR
  0
LINE
  8
CDIM
 10
11.901875
 20
11.875
 30
0.0
 11
13.7775
 21
11.875
 31
0.0
  0
LINE
  8
CDIM
 10
9.9175
 20
6.25
 30
0.0
 11
13.7775
 21
6.25
 31
0.0
  0
LINE
  8
CDIM
 10
13.47375
 20
11.57125
 30
0.0
 11
13.47375
 21
9.53635
 31
0.0
  0
LINE
  8
CDIM
 10
13.47375
 20
6.55375
 30
0.0
 11
13.47375
 21
8.58865
 31
0.0
  0
SOLID
  8
CDIM
 10
13.524375
 20
11.57125
 30
0.0
 11
13.423125
 21
11.57125
 31
0.0
 12
13.47375
 22
11.875
 32
0.0
 13
13.47375
 23
11.875
 33
0.0
  0
SOLID
  8
CDIM
 10
13.524375
 20
6.55375
 30
0.0
 11
13.423125
 21
6.55375
 31
0.0
 12
13.47375
 22
6.25
 32
0.0
 13
13.47375
 23
6.25
 33
0.0
  0
TEXT
  8
CDIM
 10
12.95535
 20
8.8924
 30
0.0
 40
0.3402
  1
5.62
  7
STR
  0
LINE
  8
CDIM
 10
7.098125
 20
11.875
 30
0.0
 11
6.13375
 21
11.875
 31
0.0
  0
LINE
  8
CDIM
 10
10.020625
 20
8.344
 30
0.0
 11
6.13375
 21
8.344
 31
0.0
  0
LINE
  8
CDIM
 10
6.4375
 20
11.57125
 30
0.0
 11
6.4375
 21
10.58335
 31
0.0
  0
LINE
  8
CDIM
 10
6.4375
 20
8.64775
 30
0.0
 11
6.4375
 21
9.63565
 31
0.0
  0
SOLID
  8
CDIM
 10
6.488125
 20
11.57125
 30
0.0
 11
6.386875
 21
11.57125
 31
0.0
 12
6.4375
 22
11.875
 32
0.0
 13
6.4375
 23
11.875
 33
0.0
  0
SOLID
  8
CDIM
 10
6.488125
 20
8.64775
 30
0.0
 11
6.386875
 21
8.64775
 31
0.0
 12
6.4375
 22
8.344
 32
0.0
 13
6.4375
 23
8.344
 33
0.0
  0
TEXT
  8
CDIM
 10
5.9191
 20
9.9394
 30
0.0
 40
0.3402
  1
3.53
  7
STR
  0
LINE
  8
CDIM
 10
7.098125
 20
11.875
 30
0.0
 11
5.2225
 21
11.875
 31
0.0
  0
LINE
  8
CDIM
 10
7.098125
 20
5.75
 30
0.0
 11
5.2225
 21
5.75
 31
0.0
  0
LINE
  8
CDIM
 10
5.52625
 20
11.57125
 30
0.0
 11
5.52625
 21
9.28635
 31
0.0
  0
LINE
  8
CDIM
 10
5.52625
 20
6.05375
 30
0.0
 11
5.52625
 21
8.33865
 31
0.0
  0
SOLID
  8
CDIM
 10
5.576875
 20
11.57125
 30
0.0
 11
5.475625
 21
11.57125
 31
0.0
 12
5.52625
 22
11.875
 32
0.0
 13
5.52625
 23
11.875
 33
0.0
  0
SOLID
  8
CDIM
 10
5.576875
 20
6.05375
 30
0.0
 11
5.475625
 21
6.05375
 31
0.0
 12
5.52625
 22
5.75
 32
0.0
 13
5.52625
 23
5.75
 33
0.0
  0
TEXT
  8
CDIM
 10
5.04025
 20
8.6424
 30
0.0
 40
0.3402
  1
6.13
  7
STR
  0
LINE
  8
CDIM
 10
1.723125
 20
11.875
 30
0.0
 11
0.75875
 21
11.875
 31
0.0
  0
LINE
  8
CDIM
 10
2.473125
 20
10.6875
 30
0.0
 11
0.75875
 21
10.6875
 31
0.0
  0
LINE
  8
CDIM
 10
1.0625
 20
10.38375
 30
0.0
 11
1.0625
 21
10.08
 31
0.0
  0
LINE
  8
CDIM
 10
1.0625
 20
12.17875
 30
0.0
 11
1.0625
 21
12.4825
 31
0.0
  0
SOLID
  8
CDIM
 10
1.113125
 20
10.38375
 30
0.0
 11
1.011875
 21
10.38375
 31
0.0
 12
1.0625
 22
10.6875
 32
0.0
 13
1.0625
 23
10.6875
 33
0.0
  0
SOLID
  8
CDIM
 10
1.113125
 20
12.17875
 30
0.0
 11
1.011875
 21
12.17875
 31
0.0
 12
1.0625
 22
11.875
 32
0.0
 13
1.0625
 23
11.875
 33
0.0
  0
TEXT
  8
CDIM
 10
0.65775
 20
11.12865
 30
0.0
 40
0.3402
  1
1.19
  7
STR
  0
LINE
  8
CDIM
 10
1.723125
 20
11.875
 30
0.0
 11
-0.1525
 21
11.875
 31
0.0
  0
LINE
  8
CDIM
 10
2.161125
 20
9.34375
 30
0.0
 11
-0.1525
 21
9.34375
 31
0.0
  0
LINE
  8
CDIM
 10
0.15125
 20
11.57125
 30
0.0
 11
0.15125
 21
10.770725
 31
0.0
  0
LINE
  8
CDIM
 10
0.15125
 20
9.6475
 30
0.0
 11
0.15125
 21
9.823025
 31
0.0
  0
SOLID
  8
CDIM
 10
0.201875
 20
11.57125
 30
0.0
 11
0.100625
 21
11.57125
 31
0.0
 12
0.15125
 22
11.875
 32
0.0
 13
0.15125
 23
11.875
 33
0.0
  0
SOLID
  8
CDIM
 10
0.201875
 20
9.6475
 30
0.0
 11
0.100625
 21
9.6475
 31
0.0
 12
0.15125
 22
9.34375
 32
0.0
 13
0.15125
 23
9.34375
 33
0.0
  0
TEXT
  8
CDIM
 10
-0.36715
 20
10.126775
 30
0.0
 40
0.3402
  1
2.53
  7
STR
  0
LINE
  8
CDIM
 10
1.723125
 20
11.875
 30
0.0
 11
-1.06375
 21
11.875
 31
0.0
  0
LINE
  8
CDIM
 10
2.161125
 20
7.34375
 30
0.0
 11
-1.06375
 21
7.34375
 31
0.0
  0
LINE
  8
CDIM
 10
-0.76
 20
11.57125
 30
0.0
 11
-0.76
 21
9.426975
 31
0.0
  0
LINE
  8
CDIM
 10
-0.76
 20
7.6475
 30
0.0
 11
-0.76
 21
8.479275
 31
0.0
  0
SOLID
  8
CDIM
 10
-0.709375
 20
11.57125
 30
0.0
 11
-0.810625
 21
11.57125
 31
0.0
 12
-0.76
 22
11.875
 32
0.0
 13
-0.76
 23
11.875
 33
0.0
  0
SOLID
  8
CDIM
 10
-0.709375
 20
7.6475
 30
0.0
 11
-0.810625
 21
7.6475
 31
0.0
 12
-0.76
 22
7.34375
 32
0.0
 13
-0.76
 23
7.34375
 33
0.0
  0
TEXT
  8
CDIM
 10
-1.2784
 20
8.783025
 30
0.0
 40
0.3402
  1
4.53
  7
STR
  0
LINE
  8
CDIM
 10
3.875
 20
12.90625
 30
0.0
 11
3.875
 21
13.715
 31
0.0
  0
ARC
  8
CSOLID
 10
2.875
 20
9.34375
 30
0.0
 40
1.0
 50
108.020708
 51
71.979292
  0
CIRCLE
  8
CSOLID
 10
2.875
 20
7.34375
 30
0.0
 40
1.0
  0
CIRCLE
  8
CSOLID
 10
16.125
 20
10.28125
 30
0.0
 40
1.0
  0
ARC
  8
CSOLID
 10
16.125
 20
8.28125
 30
0.0
 40
1.0
 50
288.020708
 51
251.979292
  0
ENDBLK
  8
0
  0
BLOCK
  8
0
  2
100CROSS
 70
    64
 10
5.625
 20
4.59375
 30
0.0
  3
100CROSS
  0
INSERT
  8
0
  2
050CROSS
 10
5.625
 20
4.59375
 30
0.0
 43
0.0
  0
ENDBLK
  8
0
  0
BLOCK
  8
0
  2
050CROSS
 70
    64
 10
5.0
 20
5.0
 30
0.0
  3
050CROSS
  0
LINE
  8
0
 10
5.0
 20
5.28125
 30
0.0
 11
5.0
 21
5.78125
 31
0.0
  0
LINE
  8
0
 10
5.0
 20
4.875
 30
0.0
 11
5.0
 21
5.125
 31
0.0
  0
LINE
  8
0
 10
5.0
 20
4.15625
 30
0.0
 11
5.0
 21
4.71875
 31
0.0
  0
LINE
  8
0
 10
5.25
 20
5.0
 30
0.0
 11
5.8125
 21
5.0
 31
0.0
  0
LINE
  8
0
 10
4.90625
 20
5.0
 30
0.0
 11
5.09375
 21
5.0
 31
0.0
  0
LINE
  8
0
 10
4.1875
 20
5.0
 30
0.0
 11
4.75
 21
5.0
 31
0.0
  0
ENDBLK
  8
0
  0
BLOCK
  8
0
  2
3
 70
    64
 10
30.0625
 20
12.375
 30
0.0
  3
3
  0
LINE
  8
0
 10
30.0865
 20
12.375
 30
0.0
 11
36.0865
 21
18.375
 31
0.0
  0
LINE
  8
0
 10
30.0865
 20
12.375
 30
0.0
 11
29.0865
 21
12.375
 31
0.0
  0
ARC
  8
0
 10
29.0865
 20
15.375
 30
0.0
 40
3.0
 50
90.0
 51
270.0
  0
LINE
  8
0
 10
29.0865
 20
18.375
 30
0.0
 11
36.0865
 21
18.375
 31
0.0
  0
ENDBLK
  8
0
  0
BLOCK
  8
0
  2
100NPTFT
 70
    64
 10
0.0
 20
0.0
 30
0.0
  3
100NPTFT
  0
CIRCLE
  8
DAMAN
 10
0.0
 20
0.0
 30
0.0
 40
0.5625
  0
CIRCLE
  8
DAMAN
 10
0.0
 20
0.0
 30
0.0
 40
0.672
  0
INSERT
  8
DAMAN
  2
100CROSS
 10
0.0
 20
0.0
 30
0.0
 41
1.2
 42
1.2
 43
0.0
  0
CIRCLE
  8
DAMAN
 10
0.0
 20
0.0
 30
0.0
 40
0.625
  0
ENDBLK
  8
0
  0
BLOCK
  8
0
  2
025NPTFT
 70
    64
 10
0.0
 20
0.0
 30
0.0
  3
025NPTFT
  0
INSERT
  8
DAMAN
  2
250NPTFT
 10
0.0
 20
0.0
 30
0.0
  0
ENDBLK
  8
0
  0
BLOCK
  8
0
  2
250NPTFT
 70
    64
 10
0.0
 20
0.0
 30
0.0
  3
250NPTFT
  0
CIRCLE
  8
DAMAN
 10
0.0
 20
0.0
 30
0.0
 40
0.273
  0
CIRCLE
  8
DAMAN
 10
0.0
 20
0.0
 30
0.0
 40
0.211
  0
INSERT
  8
DAMAN
  2
100CROSS
 10
0.0
 20
0.0
 30
0.0
 41
0.422
 42
0.422
 43
0.0
  0
CIRCLE
  8
DAMAN
 10
0.0
 20
0.0
 30
0.0
 40
0.242251
  0
POINT
  8
CHIDDEN
 10
-0.087928
 20
0.191806
 30
0.0
  0
POINT
  8
CHIDDEN
 10
-0.137717
 20
-0.15986
 30
0.0
  0
POINT
  8
CHIDDEN
 10
0.202707
 20
-0.058572
 30
0.0
  0
ENDBLK
  8
0
  0
ENDSEC
  0
SECTION
  2
ENTITIES
  0
POLYLINE
  8
DAMAN
 66
     1
 10
0.0
 20
0.0
 30
0.0
 70
     1
  0
VERTEX
  8
DAMAN
 10
3.0625
 20
7.03125
 30
0.0
  0
VERTEX
  8
DAMAN
 10
3.0625
 20
13.15625
 30
0.0
  0
VERTEX
  8
DAMAN
 10
5.0625
 20
13.15625
 30
0.0
  0
VERTEX
  8
DAMAN
 10
5.0625
 20
7.03125
 30
0.0
  0
SEQEND
  8
DAMAN
  0
POLYLINE
  8
DAMAN
 66
     1
 10
0.0
 20
0.0
 30
0.0
 70
     1
  0
VERTEX
  8
DAMAN
 10
16.3125
 20
7.03125
 30
0.0
  0
VERTEX
  8
DAMAN
 10
16.3125
 20
13.15625
 30
0.0
  0
VERTEX
  8
DAMAN
 10
18.3125
 20
13.15625
 30
0.0
  0
VERTEX
  8
DAMAN
 10
18.3125
 20
7.03125
 30
0.0
  0
SEQEND
  8
DAMAN
  0
POLYLINE
  8
DAMAN
 66
     1
 10
0.0
 20
0.0
 30
0.0
 70
     1
  0
VERTEX
  8
DAMAN
 10
8.4375
 20
7.03125
 30
0.0
  0
VERTEX
  8
DAMAN
 10
8.4375
 20
13.15625
 30
0.0
  0
VERTEX
  8
DAMAN
 10
12.9375
 20
13.15625
 30
0.0
  0
VERTEX
  8
DAMAN
 10
12.9375
 20
7.03125
 30
0.0
  0
SEQEND
  8
DAMAN
  0
INSERT
  8
DAMAN
  2
100CROSS
 10
11.75
 20
8.21825
 30
0.0
 41
0.438
 42
0.438
 43
0.0
  0
CIRCLE
  8
DAMAN
 10
11.75
 20
8.21825
 30
0.0
 40
0.219
  0
CIRCLE
  8
DAMAN
 10
9.625
 20
11.96825
 30
0.0
 40
0.219
  0
INSERT
  8
DAMAN
  2
100CROSS
 10
9.625
 20
11.96825
 30
0.0
 41
0.438
 42
0.438
 43
0.0
  0
INSERT
  8
DAMAN
  2
100CROSS
 10
12.687
 20
8.938
 30
0.0
 41
0.25
 42
0.25
 43
0.0
  0
CIRCLE
  8
DAMAN
 10
12.687
 20
8.938
 30
0.0
 40
0.1405
  0
CIRCLE
  8
DAMAN
 10
8.875
 20
11.5
 30
0.0
 40
0.1405
  0
INSERT
  8
DAMAN
  2
100CROSS
 10
8.875
 20
11.5
 30
0.0
 41
0.25
 42
0.25
 43
0.0
  0
CIRCLE
  8
DAMAN
 10
11.813
 20
11.50025
 30
0.0
 40
0.453
  0
INSERT
  8
DAMAN
  2
100CROSS
 10
11.813
 20
11.50025
 30
0.0
 41
0.844
 42
0.844
 43
0.0
  0
INSERT
  8
DAMAN
  2
100CROSS
 10
11.813
 20
9.62525
 30
0.0
 41
0.844
 42
0.844
 43
0.0
  0
CIRCLE
  8
DAMAN
 10
11.813
 20
9.62525
 30
0.0
 40
0.453
  0
INSERT
  8
DAMAN
  2
100CROSS
 10
9.563
 20
10.56275
 30
0.0
 41
0.844
 42
0.844
 43
0.0
  0
CIRCLE
  8
DAMAN
 10
9.563
 20
10.56275
 30
0.0
 40
0.453
  0
CIRCLE
  8
DAMAN
 10
9.563
 20
8.68775
 30
0.0
 40
0.453
  0
INSERT
  8
DAMAN
  2
100CROSS
 10
9.563
 20
8.68775
 30
0.0
 41
0.844
 42
0.844
 43
0.0
  0
CIRCLE
  8
DAMAN
 10
12.5
 20
10.56225
 30
0.0
 40
0.21875
  0
INSERT
  8
DAMAN
  2
100CROSS
 10
12.5
 20
10.56225
 30
0.0
 41
0.5
 42
0.5
 43
0.0
  0
INSERT
  8
DAMAN
  2
100CROSS
 10
8.875
 20
9.62525
 30
0.0
 41
0.5
 42
0.5
 43
0.0
  0
CIRCLE
  8
DAMAN
 10
8.875
 20
9.62525
 30
0.0
 40
0.21875
  0
INSERT
  8
DAMAN
  2
100CROSS
 10
12.5
 20
7.53125
 30
0.0
 41
0.5
 42
0.5
 43
0.0
  0
CIRCLE
  8
DAMAN
 10
12.5
 20
7.53125
 30
0.0
 40
0.21875
  0
INSERT
  8
DAMAN
  2
100CROSS
 10
12.5
 20
12.65625
 30
0.0
 41
0.5
 42
0.5
 43
0.0
  0
CIRCLE
  8
DAMAN
 10
12.5
 20
12.65625
 30
0.0
 40
0.21875
  0
INSERT
  8
DAMAN
  2
100CROSS
 10
8.875
 20
7.53125
 30
0.0
 41
0.5
 42
0.5
 43
0.0
  0
CIRCLE
  8
DAMAN
 10
8.875
 20
7.53125
 30
0.0
 40
0.21875
  0
CIRCLE
  8
DAMAN
 10
8.875
 20
12.65625
 30
0.0
 40
0.21875
  0
INSERT
  8
DAMAN
  2
100CROSS
 10
8.875
 20
12.65625
 30
0.0
 41
0.5
 42
0.5
 43
0.0
  0
CIRCLE
  8
DAMAN
 10
8.875
 20
7.53125
 30
0.0
 40
0.25
  0
CIRCLE
  8
DAMAN
 10
8.875
 20
12.65625
 30
0.0
 40
0.25
  0
CIRCLE
  8
DAMAN
 10
12.5
 20
7.53125
 30
0.0
 40
0.25
  0
CIRCLE
  8
DAMAN
 10
12.5
 20
12.65625
 30
0.0
 40
0.25
  0
CIRCLE
  8
DAMAN
 10
8.875
 20
9.625
 30
0.0
 40
0.25
  0
CIRCLE
  8
DAMAN
 10
12.5
 20
10.56225
 30
0.0
 40
0.25
  0
INSERT
  8
DAMAN
  2
100CROSS
 10
10.6875
 20
12.65625
 30
0.0
 41
0.8125
 42
0.8125
 43
0.8125
  0
CIRCLE
  8
DAMAN
 10
10.6875
 20
12.65625
 30
0.0
 40
0.40625
  0
CIRCLE
  8
DAMAN
 10
10.6875
 20
12.65625
 30
0.0
 40
0.265625
  0
CIRCLE
  8
DAMAN
 10
10.6875
 20
7.53125
 30
0.0
 40
0.265625
  0
CIRCLE
  8
DAMAN
 10
10.6875
 20
7.53125
 30
0.0
 40
0.40625
  0
INSERT
  8
DAMAN
  2
100CROSS
 10
10.6875
 20
7.53125
 30
0.0
 41
-0.8125
 42
0.8125
 50
180.0
 43
0.8125
  0
TEXT
  8
DAMAN
 10
4.40625
 20
12.71875
 30
0.0
 40
0.25
  1
X
 50
270.0
  7
STR
  0
TEXT
  8
DAMAN
 10
4.59375
 20
11.75
 30
0.0
 40
0.25
  1
A
 50
270.0
  7
STR
  0
TEXT
  8
DAMAN
 10
4.5625
 20
7.625
 30
0.0
 40
0.25
  1
B
 50
270.0
  7
STR
  0
TEXT
  8
DAMAN
 10
16.8125
 20
7.6875
 30
0.0
 40
0.25
  1
Y
 50
90.0
  7
STR
  0
TEXT
  8
DAMAN
 10
16.8125
 20
8.46875
 30
0.0
 40
0.25
  1
P
 50
90.0
  7
STR
  0
TEXT
  8
DAMAN
 10
16.78125
 20
12.5
 30
0.0
 40
0.25
  1
T
 50
90.0
  7
STR
  0
LINE
  8
DAMAN
 10
8.4375
 20
3.375
 30
0.0
 11
12.9375
 21
3.375
 31
0.0
  0
LINE
  8
DAMAN
 10
12.9375
 20
3.375
 30
0.0
 11
12.9375
 21
5.375
 31
0.0
  0
LINE
  8
DAMAN
 10
12.9375
 20
5.375
 30
0.0
 11
8.4375
 21
5.375
 31
0.0
  0
LINE
  8
DAMAN
 10
8.4375
 20
5.375
 30
0.0
 11
8.4375
 21
3.375
 31
0.0
  0
TEXT
  8
DAMAN
 10
9.375
 20
4.84375
 30
0.0
 40
0.188
  1
DAMAN ****
  0
INSERT
  8
DAMAN
  2
100NPTFT
 10
17.3125
 20
9.5625
 30
0.0
  0
INSERT
  8
DAMAN
  2
100NPTFT
 10
17.3125
 20
11.5625
 30
0.0
  0
INSERT
  8
DAMAN
  2
100NPTFT
 10
4.0625
 20
8.625
 30
0.0
  0
INSERT
  8
DAMAN
  2
100NPTFT
 10
4.0625
 20
10.625
 30
0.0
  0
INSERT
  8
DAMAN
  2
025NPTFT
 10
17.3125
 20
8.21875
 30
0.0
  0
INSERT
  8
DAMAN
  2
025NPTFT
 10
4.0625
 20
11.96875
 30
0.0
  0
ENDSEC
  0
EOF
