  0
SECTION
  2
HEADER
  9
$ACADVER
  1
AC1014
  9
$ACADMAINTVER
 70
     9
  9
$DWGCODEPAGE
  3
ANSI_1252
  9
$INSBASE
 10
0.0
 20
0.0
 30
0.0
  9
$EXTMIN
 10
3.0625
 20
3.375
 30
0.0
  9
$EXTMAX
 10
18.3125
 20
13.291015625
 30
0.0
  9
$LIMMIN
 10
0.0
 20
0.0
  9
$LIMMAX
 10
12.0
 20
9.0
  9
$ORTHOMODE
 70
     1
  9
$REGENMODE
 70
     1
  9
$FILLMODE
 70
     1
  9
$QTEXTMODE
 70
     0
  9
$MIRRTEXT
 70
     1
  9
$DRAGMODE
 70
     2
  9
$LTSCALE
 40
1.0
  9
$OSMODE
 70
    37
  9
$ATTMODE
 70
     1
  9
$TEXTSIZE
 40
0.188
  9
$TRACEWID
 40
0.05
  9
$TEXTSTYLE
  7
STANDARD
  9
$CLAYER
  8
DAMAN
  9
$CELTYPE
  6
BYLAYER
  9
$CECOLOR
 62
   256
  9
$CELTSCALE
 40
1.0
  9
$DELOBJ
 70
     1
  9
$DISPSILH
 70
     0
  9
$DIMSCALE
 40
1.0
  9
$DIMASZ
 40
0.18
  9
$DIMEXO
 40
0.0625
  9
$DIMDLI
 40
0.38
  9
$DIMRND
 40
0.0
  9
$DIMDLE
 40
0.0
  9
$DIMEXE
 40
0.18
  9
$DIMTP
 40
0.0
  9
$DIMTM
 40
0.0
  9
$DIMTXT
 40
0.18
  9
$DIMCEN
 40
0.09
  9
$DIMTSZ
 40
0.0
  9
$DIMTOL
 70
     0
  9
$DIMLIM
 70
     0
  9
$DIMTIH
 70
     1
  9
$DIMTOH
 70
     1
  9
$DIMSE1
 70
     0
  9
$DIMSE2
 70
     0
  9
$DIMTAD
 70
     0
  9
$DIMZIN
 70
     0
  9
$DIMBLK
  1

  9
$DIMASO
 70
     1
  9
$DIMSHO
 70
     1
  9
$DIMPOST
  1

  9
$DIMAPOST
  1

  9
$DIMALT
 70
     0
  9
$DIMALTD
 70
     2
  9
$DIMALTF
 40
25.4
  9
$DIMLFAC
 40
1.0
  9
$DIMTOFL
 70
     0
  9
$DIMTVP
 40
0.0
  9
$DIMTIX
 70
     0
  9
$DIMSOXD
 70
     0
  9
$DIMSAH
 70
     0
  9
$DIMBLK1
  1

  9
$DIMBLK2
  1

  9
$DIMSTYLE
  2
STANDARD
  9
$DIMCLRD
 70
     0
  9
$DIMCLRE
 70
     0
  9
$DIMCLRT
 70
     0
  9
$DIMTFAC
 40
1.0
  9
$DIMGAP
 40
0.09
  9
$DIMJUST
 70
     0
  9
$DIMSD1
 70
     0
  9
$DIMSD2
 70
     0
  9
$DIMTOLJ
 70
     1
  9
$DIMTZIN
 70
     0
  9
$DIMALTZ
 70
     0
  9
$DIMALTTZ
 70
     0
  9
$DIMFIT
 70
     3
  9
$DIMUPT
 70
     0
  9
$DIMUNIT
 70
     2
  9
$DIMDEC
 70
     4
  9
$DIMTDEC
 70
     4
  9
$DIMALTU
 70
     2
  9
$DIMALTTD
 70
     2
  9
$DIMTXSTY
  7
STANDARD
  9
$DIMAUNIT
 70
     0
  9
$LUNITS
 70
     2
  9
$LUPREC
 70
     4
  9
$SKETCHINC
 40
0.1
  9
$FILLETRAD
 40
0.0
  9
$AUNITS
 70
     0
  9
$AUPREC
 70
     0
  9
$MENU
  1
tom
  9
$ELEVATION
 40
0.0
  9
$PELEVATION
 40
0.0
  9
$THICKNESS
 40
0.0
  9
$LIMCHECK
 70
     0
  9
$BLIPMODE
 70
     0
  9
$CHAMFERA
 40
0.0
  9
$CHAMFERB
 40
0.0
  9
$CHAMFERC
 40
0.0
  9
$CHAMFERD
 40
0.0
  9
$SKPOLY
 70
     0
  9
$TDCREATE
 40
2449746.372906030
  9
$TDUPDATE
 40
2453437.435577905
  9
$TDINDWG
 40
0.0297777315
  9
$TDUSRTIMER
 40
0.0297777315
  9
$USRTIMER
 70
     1
  9
$ANGBASE
 50
0.0
  9
$ANGDIR
 70
     0
  9
$PDMODE
 70
     0
  9
$PDSIZE
 40
0.0
  9
$PLINEWID
 40
0.0
  9
$COORDS
 70
     1
  9
$SPLFRAME
 70
     0
  9
$SPLINETYPE
 70
     6
  9
$SPLINESEGS
 70
     8
  9
$ATTDIA
 70
     0
  9
$ATTREQ
 70
     1
  9
$HANDLING
 70
-16383
  9
$HANDSEED
  5
1C7
  9
$SURFTAB1
 70
     6
  9
$SURFTAB2
 70
     6
  9
$SURFTYPE
 70
     6
  9
$SURFU
 70
     6
  9
$SURFV
 70
     6
  9
$UCSNAME
  2

  9
$UCSORG
 10
0.0
 20
0.0
 30
0.0
  9
$UCSXDIR
 10
1.0
 20
0.0
 30
0.0
  9
$UCSYDIR
 10
0.0
 20
1.0
 30
0.0
  9
$PUCSNAME
  2

  9
$PUCSORG
 10
0.0
 20
0.0
 30
0.0
  9
$PUCSXDIR
 10
1.0
 20
0.0
 30
0.0
  9
$PUCSYDIR
 10
0.0
 20
1.0
 30
0.0
  9
$USERI1
 70
     0
  9
$USERI2
 70
     0
  9
$USERI3
 70
     0
  9
$USERI4
 70
     0
  9
$USERI5
 70
     0
  9
$USERR1
 40
0.0
  9
$USERR2
 40
0.0
  9
$USERR3
 40
0.0
  9
$USERR4
 40
0.0
  9
$USERR5
 40
0.0
  9
$WORLDVIEW
 70
     1
  9
$SHADEDGE
 70
     3
  9
$SHADEDIF
 70
    70
  9
$TILEMODE
 70
     1
  9
$MAXACTVP
 70
    16
  9
$PINSBASE
 10
0.0
 20
0.0
 30
0.0
  9
$PLIMCHECK
 70
     0
  9
$PEXTMIN
 10
1.000000000000000E+20
 20
1.000000000000000E+20
 30
1.000000000000000E+20
  9
$PEXTMAX
 10
-1.000000000000000E+20
 20
-1.000000000000000E+20
 30
-1.000000000000000E+20
  9
$PLIMMIN
 10
0.0
 20
0.0
  9
$PLIMMAX
 10
12.0
 20
9.0
  9
$UNITMODE
 70
     0
  9
$VISRETAIN
 70
     0
  9
$PLINEGEN
 70
     0
  9
$PSLTSCALE
 70
     1
  9
$TREEDEPTH
 70
  3020
  9
$PICKSTYLE
 70
     1
  9
$CMLSTYLE
  2
STANDARD
  9
$CMLJUST
 70
     0
  9
$CMLSCALE
 40
1.0
  9
$PROXYGRAPHICS
 70
     1
  9
$MEASUREMENT
 70
     0
  0
ENDSEC
  0
SECTION
  2
CLASSES
  0
CLASS
  1
ACDBDICTIONARYWDFLT
  2
AcDbDictionaryWithDefault
  3
AutoCAD 2000
 90
        0
280
     0
281
     0
  0
CLASS
  1
ACDBPLACEHOLDER
  2
AcDbPlaceHolder
  3
AutoCAD 2000
 90
        0
280
     0
281
     0
  0
CLASS
  1
LAYOUT
  2
AcDbLayout
  3
AutoCAD 2000
 90
        0
280
     0
281
     0
  0
CLASS
  1
LONG_TRANSACTION
  2
AcDbLongTransaction
  3
AutoCAD 2000
 90
        0
280
     0
281
     0
  0
CLASS
  1
LWPOLYLINE
  2
AcDbPolyline
  3
AutoCAD 2000
 90
        0
280
     0
281
     1
  0
CLASS
  1
HATCH
  2
AcDbHatch
  3
AutoCAD 2000
 90
        0
280
     0
281
     1
  0
CLASS
  1
XRECORD
  2
AcDbXrecord
  3
AutoCAD 2000
 90
        0
280
     0
281
     0
  0
ENDSEC
  0
SECTION
  2
TABLES
  0
TABLE
  2
VPORT
  5
8
330
0
100
AcDbSymbolTable
 70
     2
  0
VPORT
  5
1A2
330
8
100
AcDbSymbolTableRecord
100
AcDbViewportTableRecord
  2
*ACTIVE
 70
     0
 10
0.0
 20
0.0
 11
1.0
 21
1.0
 12
12.00088311907754
 22
8.470052246043572
 13
0.0
 23
0.0
 14
0.03125
 24
0.03125
 15
0.0
 25
0.0
 16
0.0
 26
0.0
 36
1.0
 17
0.0
 27
0.0
 37
0.0
 40
12.16112629180212
 41
1.647569444444444
 42
50.0
 43
0.0
 44
0.0
 50
0.0
 51
0.0
 71
     0
 72
   100
 73
     1
 74
     1
 75
     1
 76
     0
 77
     0
 78
     0
  0
ENDTAB
  0
TABLE
  2
LTYPE
  5
5
330
0
100
AcDbSymbolTable
 70
     4
  0
LTYPE
  5
13
330
5
100
AcDbSymbolTableRecord
100
AcDbLinetypeTableRecord
  2
BYBLOCK
 70
     0
  3

 72
    65
 73
     0
 40
0.0
  0
LTYPE
  5
14
330
5
100
AcDbSymbolTableRecord
100
AcDbLinetypeTableRecord
  2
BYLAYER
 70
     0
  3

 72
    65
 73
     0
 40
0.0
  0
LTYPE
  5
15
330
5
100
AcDbSymbolTableRecord
100
AcDbLinetypeTableRecord
  2
CONTINUOUS
 70
     0
  3
Solid line
 72
    65
 73
     0
 40
0.0
  0
LTYPE
  5
24
330
5
100
AcDbSymbolTableRecord
100
AcDbLinetypeTableRecord
  2
HIDDEN
 70
     0
  3
_ _ _ _ _ _ _ _ _ _ _ _ _ _ _ _ _ _ _ _ _ _ _
 72
    65
 73
     2
 40
0.375
 49
0.25
 74
     0
 49
-0.125
 74
     0
  0
LTYPE
  5
25
330
5
100
AcDbSymbolTableRecord
100
AcDbLinetypeTableRecord
  2
CENTER
 70
     0
  3
____ _ ____ _ ____ _ ____ _ ____ _ ____ _ ____
 72
    65
 73
     4
 40
2.0
 49
1.25
 74
     0
 49
-0.25
 74
     0
 49
0.25
 74
     0
 49
-0.25
 74
     0
  0
LTYPE
  5
26
330
5
100
AcDbSymbolTableRecord
100
AcDbLinetypeTableRecord
  2
PHANTOM
 70
     0
  3
_____ _ _ _____ _ _ _____ _ _ _____ _ _ ____
 72
    65
 73
     6
 40
2.5
 49
1.25
 74
     0
 49
-0.25
 74
     0
 49
0.25
 74
     0
 49
-0.25
 74
     0
 49
0.25
 74
     0
 49
-0.25
 74
     0
  0
ENDTAB
  0
TABLE
  2
LAYER
  5
2
330
0
100
AcDbSymbolTable
 70
    10
  0
LAYER
  5
10
330
2
100
AcDbSymbolTableRecord
100
AcDbLayerTableRecord
  2
0
 70
     0
 62
     7
  6
CONTINUOUS
  0
LAYER
  5
22
330
2
100
AcDbSymbolTableRecord
100
AcDbLayerTableRecord
  2
DAMAN
 70
     0
 62
     5
  6
CONTINUOUS
  0
LAYER
  5
27
330
2
100
AcDbSymbolTableRecord
100
AcDbLayerTableRecord
  2
BORDER
 70
     0
 62
     7
  6
CONTINUOUS
  0
LAYER
  5
28
330
2
100
AcDbSymbolTableRecord
100
AcDbLayerTableRecord
  2
CSOLID
 70
     0
 62
     3
  6
CONTINUOUS
  0
LAYER
  5
29
330
2
100
AcDbSymbolTableRecord
100
AcDbLayerTableRecord
  2
SOLID
 70
     0
 62
     4
  6
CONTINUOUS
  0
LAYER
  5
2A
330
2
100
AcDbSymbolTableRecord
100
AcDbLayerTableRecord
  2
CHIDDEN
 70
     0
 62
     3
  6
HIDDEN
  0
LAYER
  5
2B
330
2
100
AcDbSymbolTableRecord
100
AcDbLayerTableRecord
  2
CDIM
 70
     0
 62
     2
  6
CONTINUOUS
  0
LAYER
  5
2C
330
2
100
AcDbSymbolTableRecord
100
AcDbLayerTableRecord
  2
DIM
 70
     0
 62
     5
  6
CONTINUOUS
  0
LAYER
  5
2D
330
2
100
AcDbSymbolTableRecord
100
AcDbLayerTableRecord
  2
CCENTER
 70
     0
 62
     4
  6
CENTER
  0
LAYER
  5
2E
330
2
100
AcDbSymbolTableRecord
100
AcDbLayerTableRecord
  2
PHANTOM
 70
     0
 62
     1
  6
PHANTOM
  0
ENDTAB
  0
TABLE
  2
STYLE
  5
3
330
0
100
AcDbSymbolTable
 70
     2
  0
STYLE
  5
11
330
3
100
AcDbSymbolTableRecord
100
AcDbTextStyleTableRecord
  2
STANDARD
 70
     0
 40
0.0
 41
1.0
 50
0.0
 71
     0
 42
0.188
  3
txt
  4

  0
STYLE
  5
2F
330
3
100
AcDbSymbolTableRecord
100
AcDbTextStyleTableRecord
  2
STR
 70
     0
 40
0.0
 41
1.0
 50
0.0
 71
     0
 42
0.25
  3
SIMPLEX
  4

  0
ENDTAB
  0
TABLE
  2
VIEW
  5
6
330
0
100
AcDbSymbolTable
 70
     0
  0
ENDTAB
  0
TABLE
  2
UCS
  5
7
330
0
100
AcDbSymbolTable
 70
     0
  0
ENDTAB
  0
TABLE
  2
APPID
  5
9
330
0
100
AcDbSymbolTable
 70
     1
  0
APPID
  5
12
330
9
100
AcDbSymbolTableRecord
100
AcDbRegAppTableRecord
  2
ACAD
 70
     0
  0
ENDTAB
  0
TABLE
  2
DIMSTYLE
  5
A
330
0
100
AcDbSymbolTable
 70
     1
  0
DIMSTYLE
105
1A1
330
A
100
AcDbSymbolTableRecord
100
AcDbDimStyleTableRecord
  2
STANDARD
 70
     0
  3

  4

  5

  6

  7

 40
1.0
 41
0.18
 42
0.0625
 43
0.38
 44
0.18
 45
0.0
 46
0.0
 47
0.0
 48
0.0
140
0.18
141
0.09
142
0.0
143
25.4
144
1.0
145
0.0
146
1.0
147
0.09
 71
     0
 72
     0
 73
     1
 74
     1
 75
     0
 76
     0
 77
     0
 78
     0
170
     0
171
     2
172
     0
173
     0
174
     0
175
     0
176
     0
177
     0
178
     0
270
     2
271
     4
272
     4
273
     2
274
     2
340
11
275
     0
280
     0
281
     0
282
     0
283
     1
284
     0
285
     0
286
     0
287
     3
288
     0
  0
ENDTAB
  0
TABLE
  2
BLOCK_RECORD
  5
1
330
0
100
AcDbSymbolTable
 70
    13
  0
BLOCK_RECORD
  5
1E
102
{ACAD_XDICTIONARY
360
1C5
102
}
330
1
100
AcDbSymbolTableRecord
100
AcDbBlockTableRecord
  2
*MODEL_SPACE
  0
BLOCK_RECORD
  5
1A
102
{ACAD_XDICTIONARY
360
1C3
102
}
330
1
100
AcDbSymbolTableRecord
100
AcDbBlockTableRecord
  2
*PAPER_SPACE
  0
BLOCK_RECORD
  5
32
330
1
100
AcDbSymbolTableRecord
100
AcDbBlockTableRecord
  2
D08SPS
  0
BLOCK_RECORD
  5
46
330
1
100
AcDbSymbolTableRecord
100
AcDbBlockTableRecord
  2
100CROSS
  0
BLOCK_RECORD
  5
104
330
1
100
AcDbSymbolTableRecord
100
AcDbBlockTableRecord
  2
050CROSS
  0
BLOCK_RECORD
  5
10F
330
1
100
AcDbSymbolTableRecord
100
AcDbBlockTableRecord
  2
3
  0
BLOCK_RECORD
  5
116
330
1
100
AcDbSymbolTableRecord
100
AcDbBlockTableRecord
  2
100NPTFT
  0
BLOCK_RECORD
  5
11D
330
1
100
AcDbSymbolTableRecord
100
AcDbBlockTableRecord
  2
025NPTFT
  0
BLOCK_RECORD
  5
11F
330
1
100
AcDbSymbolTableRecord
100
AcDbBlockTableRecord
  2
250NPTFT
  0
BLOCK_RECORD
  5
12B
330
1
100
AcDbSymbolTableRecord
100
AcDbBlockTableRecord
  2
100BSPPT
  0
BLOCK_RECORD
  5
133
330
1
100
AcDbSymbolTableRecord
100
AcDbBlockTableRecord
  2
106SAET
  0
BLOCK_RECORD
  5
13C
330
1
100
AcDbSymbolTableRecord
100
AcDbBlockTableRecord
  2
025BSPPT
  0
BLOCK_RECORD
  5
143
330
1
100
AcDbSymbolTableRecord
100
AcDbBlockTableRecord
  2
0375BSPPT
  0
BLOCK_RECORD
  5
14B
330
1
100
AcDbSymbolTableRecord
100
AcDbBlockTableRecord
  2
075NPTFT
  0
BLOCK_RECORD
  5
14D
330
1
100
AcDbSymbolTableRecord
100
AcDbBlockTableRecord
  2
750NPTFT
  0
ENDTAB
  0
ENDSEC
  0
SECTION
  2
BLOCKS
  0
BLOCK
  5
1F
330
1E
100
AcDbEntity
  8
0
100
AcDbBlockBegin
  2
*MODEL_SPACE
 70
     0
 10
0.0
 20
0.0
 30
0.0
  3
*MODEL_SPACE
  1

  0
ENDBLK
  5
20
330
1E
100
AcDbEntity
  8
0
100
AcDbBlockEnd
  0
BLOCK
  5
1B
330
1A
100
AcDbEntity
 67
     1
  8
0
100
AcDbBlockBegin
  2
*PAPER_SPACE
 70
     0
 10
0.0
 20
0.0
 30
0.0
  3
*PAPER_SPACE
  1

  0
ENDBLK
  5
1C
330
1A
100
AcDbEntity
 67
     1
  8
0
100
AcDbBlockEnd
  0
BLOCK
  5
33
330
32
100
AcDbEntity
  8
0
100
AcDbBlockBegin
  2
D08SPS
 70
     0
 10
0.0
 20
0.0
 30
0.0
  3
D08SPS
  1

  0
LWPOLYLINE
  5
34
330
32
100
AcDbEntity
  8
BORDER
100
AcDbPolyline
 90
        4
 70
     1
 43
0.0
 10
1.875
 20
5.75
 10
1.875
 20
11.875
 10
3.875
 20
11.875
 10
3.875
 20
5.75
  0
LWPOLYLINE
  5
3A
330
32
100
AcDbEntity
  8
BORDER
100
AcDbPolyline
 90
        4
 70
     1
 43
0.0
 10
15.125
 20
5.75
 10
15.125
 20
11.875
 10
17.125
 20
11.875
 10
17.125
 20
5.75
  0
LWPOLYLINE
  5
40
330
32
100
AcDbEntity
  8
BORDER
100
AcDbPolyline
 90
        4
 70
     1
 43
0.0
 10
7.25
 20
5.75
 10
7.25
 20
11.875
 10
11.75
 20
11.875
 10
11.75
 20
5.75
  0
INSERT
  5
47
330
32
100
AcDbEntity
  8
CCENTER
100
AcDbBlockReference
  2
100CROSS
 10
10.5625
 20
6.937
 30
0.0
 41
0.4379999999999999
 42
0.4379999999999999
  0
CIRCLE
  5
48
330
32
100
AcDbEntity
  8
CSOLID
100
AcDbCircle
 10
10.5625
 20
6.937
 30
0.0
 40
0.2189999999999999
  0
CIRCLE
  5
49
330
32
100
AcDbEntity
  8
CSOLID
100
AcDbCircle
 10
8.4375
 20
10.687
 30
0.0
 40
0.2189999999999999
  0
INSERT
  5
4A
330
32
100
AcDbEntity
  8
CCENTER
100
AcDbBlockReference
  2
100CROSS
 10
8.4375
 20
10.687
 30
0.0
 41
0.4379999999999999
 42
0.4379999999999999
  0
INSERT
  5
4B
330
32
100
AcDbEntity
  8
CCENTER
100
AcDbBlockReference
  2
100CROSS
 10
11.4995
 20
7.656749999999999
 30
0.0
 41
0.25
 42
0.25
  0
CIRCLE
  5
4C
330
32
100
AcDbEntity
  8
CSOLID
100
AcDbCircle
 10
11.4995
 20
7.656749999999999
 30
0.0
 40
0.1405
  0
CIRCLE
  5
4D
330
32
100
AcDbEntity
  8
CSOLID
100
AcDbCircle
 10
7.6875
 20
10.21875
 30
0.0
 40
0.1405
  0
INSERT
  5
4E
330
32
100
AcDbEntity
  8
CCENTER
100
AcDbBlockReference
  2
100CROSS
 10
7.6875
 20
10.21875
 30
0.0
 41
0.25
 42
0.25
  0
CIRCLE
  5
4F
330
32
100
AcDbEntity
  8
CSOLID
100
AcDbCircle
 10
10.6255
 20
10.219
 30
0.0
 40
0.453
  0
INSERT
  5
50
330
32
100
AcDbEntity
  8
CCENTER
100
AcDbBlockReference
  2
100CROSS
 10
10.6255
 20
10.219
 30
0.0
 41
0.8440000000000001
 42
0.8440000000000001
  0
INSERT
  5
51
330
32
100
AcDbEntity
  8
CCENTER
100
AcDbBlockReference
  2
100CROSS
 10
10.6255
 20
8.343999999999999
 30
0.0
 41
0.8440000000000001
 42
0.8440000000000001
  0
CIRCLE
  5
52
330
32
100
AcDbEntity
  8
CSOLID
100
AcDbCircle
 10
10.6255
 20
8.343999999999999
 30
0.0
 40
0.453
  0
INSERT
  5
53
330
32
100
AcDbEntity
  8
CCENTER
100
AcDbBlockReference
  2
100CROSS
 10
8.3755
 20
9.281499999999999
 30
0.0
 41
0.8440000000000001
 42
0.8440000000000001
  0
CIRCLE
  5
54
330
32
100
AcDbEntity
  8
CSOLID
100
AcDbCircle
 10
8.3755
 20
9.281499999999999
 30
0.0
 40
0.453
  0
CIRCLE
  5
55
330
32
100
AcDbEntity
  8
CSOLID
100
AcDbCircle
 10
8.3755
 20
7.4065
 30
0.0
 40
0.453
  0
INSERT
  5
56
330
32
100
AcDbEntity
  8
CCENTER
100
AcDbBlockReference
  2
100CROSS
 10
8.3755
 20
7.4065
 30
0.0
 41
0.8440000000000001
 42
0.8440000000000001
  0
CIRCLE
  5
57
330
32
100
AcDbEntity
  8
CSOLID
100
AcDbCircle
 10
11.3125
 20
9.281
 30
0.0
 40
0.21875
  0
INSERT
  5
58
330
32
100
AcDbEntity
  8
CCENTER
100
AcDbBlockReference
  2
100CROSS
 10
11.3125
 20
9.281
 30
0.0
 41
0.5
 42
0.5
  0
INSERT
  5
59
330
32
100
AcDbEntity
  8
CCENTER
100
AcDbBlockReference
  2
100CROSS
 10
7.6875
 20
8.343999999999999
 30
0.0
 41
0.5
 42
0.5
  0
CIRCLE
  5
5A
330
32
100
AcDbEntity
  8
CSOLID
100
AcDbCircle
 10
7.6875
 20
8.343999999999999
 30
0.0
 40
0.21875
  0
INSERT
  5
5B
330
32
100
AcDbEntity
  8
CCENTER
100
AcDbBlockReference
  2
100CROSS
 10
11.3125
 20
6.25
 30
0.0
 41
0.5
 42
0.5
  0
CIRCLE
  5
5C
330
32
100
AcDbEntity
  8
CSOLID
100
AcDbCircle
 10
11.3125
 20
6.25
 30
0.0
 40
0.21875
  0
INSERT
  5
5D
330
32
100
AcDbEntity
  8
CCENTER
100
AcDbBlockReference
  2
100CROSS
 10
11.3125
 20
11.37499999999999
 30
0.0
 41
0.5
 42
0.5
  0
CIRCLE
  5
5E
330
32
100
AcDbEntity
  8
CSOLID
100
AcDbCircle
 10
11.3125
 20
11.37499999999999
 30
0.0
 40
0.21875
  0
INSERT
  5
5F
330
32
100
AcDbEntity
  8
CCENTER
100
AcDbBlockReference
  2
100CROSS
 10
7.6875
 20
6.25
 30
0.0
 41
0.5
 42
0.5
  0
CIRCLE
  5
60
330
32
100
AcDbEntity
  8
CSOLID
100
AcDbCircle
 10
7.6875
 20
6.25
 30
0.0
 40
0.21875
  0
CIRCLE
  5
61
330
32
100
AcDbEntity
  8
CSOLID
100
AcDbCircle
 10
7.6875
 20
11.37499999999999
 30
0.0
 40
0.21875
  0
INSERT
  5
62
330
32
100
AcDbEntity
  8
CCENTER
100
AcDbBlockReference
  2
100CROSS
 10
7.6875
 20
11.37499999999999
 30
0.0
 41
0.5
 42
0.5
  0
CIRCLE
  5
63
330
32
100
AcDbEntity
  8
CHIDDEN
100
AcDbCircle
 10
7.6875
 20
6.25
 30
0.0
 40
0.25
  0
CIRCLE
  5
64
330
32
100
AcDbEntity
  8
CHIDDEN
100
AcDbCircle
 10
7.6875
 20
11.37499999999999
 30
0.0
 40
0.25
  0
CIRCLE
  5
65
330
32
100
AcDbEntity
  8
CHIDDEN
100
AcDbCircle
 10
11.3125
 20
6.25
 30
0.0
 40
0.25
  0
CIRCLE
  5
66
330
32
100
AcDbEntity
  8
CHIDDEN
100
AcDbCircle
 10
11.3125
 20
11.37499999999999
 30
0.0
 40
0.25
  0
CIRCLE
  5
67
330
32
100
AcDbEntity
  8
CHIDDEN
100
AcDbCircle
 10
7.6875
 20
8.34375
 30
0.0
 40
0.25
  0
CIRCLE
  5
68
330
32
100
AcDbEntity
  8
CHIDDEN
100
AcDbCircle
 10
11.3125
 20
9.281
 30
0.0
 40
0.25
  0
INSERT
  5
69
330
32
100
AcDbEntity
  8
CCENTER
100
AcDbBlockReference
  2
100CROSS
 10
9.5
 20
11.37499999999999
 30
0.0
 41
0.8125
 42
0.8125
 43
0.8125
  0
CIRCLE
  5
6A
330
32
100
AcDbEntity
  8
CSOLID
100
AcDbCircle
 10
9.5
 20
11.37499999999999
 30
0.0
 40
0.40625
  0
CIRCLE
  5
6B
330
32
100
AcDbEntity
  8
CSOLID
100
AcDbCircle
 10
9.5
 20
11.37499999999999
 30
0.0
 40
0.265625
  0
CIRCLE
  5
6C
330
32
100
AcDbEntity
  8
CSOLID
100
AcDbCircle
 10
9.5
 20
6.25
 30
0.0
 40
0.265625
  0
CIRCLE
  5
6D
330
32
100
AcDbEntity
  8
CSOLID
100
AcDbCircle
 10
9.5
 20
6.25
 30
0.0
 40
0.40625
  0
INSERT
  5
6E
330
32
100
AcDbEntity
  8
CCENTER
100
AcDbBlockReference
  2
100CROSS
 10
9.5
 20
6.25
 30
0.0
 41
-0.8125
 42
0.8125
 43
0.8125
 50
180.0
  0
CIRCLE
  5
6F
330
32
100
AcDbEntity
  8
CSOLID
100
AcDbCircle
 10
2.875
 20
9.34375
 30
0.0
 40
0.6125
  0
CIRCLE
  5
70
330
32
100
AcDbEntity
  8
CSOLID
100
AcDbCircle
 10
2.875
 20
9.34375
 30
0.0
 40
0.5620000000000001
  0
INSERT
  5
71
330
32
100
AcDbEntity
  8
CCENTER
100
AcDbBlockReference
  2
100CROSS
 10
2.875
 20
9.34375
 30
0.0
 41
1.6
 42
1.6
  0
CIRCLE
  5
72
330
32
100
AcDbEntity
  8
CHIDDEN
100
AcDbCircle
 10
2.875
 20
9.34375
 30
0.0
 40
0.65625
  0
CIRCLE
  5
73
330
32
100
AcDbEntity
  8
CSOLID
100
AcDbCircle
 10
2.875
 20
7.34375
 30
0.0
 40
0.6125
  0
CIRCLE
  5
74
330
32
100
AcDbEntity
  8
CSOLID
100
AcDbCircle
 10
2.875
 20
7.34375
 30
0.0
 40
0.5620000000000001
  0
INSERT
  5
75
330
32
100
AcDbEntity
  8
CCENTER
100
AcDbBlockReference
  2
100CROSS
 10
2.875
 20
7.34375
 30
0.0
 41
1.6
 42
1.6
  0
CIRCLE
  5
76
330
32
100
AcDbEntity
  8
CHIDDEN
100
AcDbCircle
 10
2.875
 20
7.34375
 30
0.0
 40
0.65625
  0
CIRCLE
  5
77
330
32
100
AcDbEntity
  8
CSOLID
100
AcDbCircle
 10
16.125
 20
10.28124999999999
 30
0.0
 40
0.6125
  0
CIRCLE
  5
78
330
32
100
AcDbEntity
  8
CSOLID
100
AcDbCircle
 10
16.125
 20
10.28124999999999
 30
0.0
 40
0.5620000000000001
  0
INSERT
  5
79
330
32
100
AcDbEntity
  8
CCENTER
100
AcDbBlockReference
  2
100CROSS
 10
16.125
 20
10.28124999999999
 30
0.0
 41
1.6
 42
1.6
  0
CIRCLE
  5
7A
330
32
100
AcDbEntity
  8
CHIDDEN
100
AcDbCircle
 10
16.125
 20
10.28124999999999
 30
0.0
 40
0.65625
  0
CIRCLE
  5
7B
330
32
100
AcDbEntity
  8
CSOLID
100
AcDbCircle
 10
16.125
 20
8.28125
 30
0.0
 40
0.6125
  0
CIRCLE
  5
7C
330
32
100
AcDbEntity
  8
CSOLID
100
AcDbCircle
 10
16.125
 20
8.28125
 30
0.0
 40
0.5620000000000001
  0
INSERT
  5
7D
330
32
100
AcDbEntity
  8
CCENTER
100
AcDbBlockReference
  2
100CROSS
 10
16.125
 20
8.28125
 30
0.0
 41
1.6
 42
1.6
  0
CIRCLE
  5
7E
330
32
100
AcDbEntity
  8
CHIDDEN
100
AcDbCircle
 10
16.125
 20
8.28125
 30
0.0
 40
0.65625
  0
INSERT
  5
7F
330
32
100
AcDbEntity
  8
CCENTER
100
AcDbBlockReference
  2
100CROSS
 10
2.875
 20
10.6875
 30
0.0
  0
CIRCLE
  5
80
330
32
100
AcDbEntity
  8
CHIDDEN
100
AcDbCircle
 10
2.875
 20
10.6875
 30
0.0
 40
0.28125
  0
ARC
  5
81
330
32
100
AcDbEntity
  8
CSOLID
100
AcDbCircle
 10
2.875
 20
10.6875
 30
0.0
 40
0.5
100
AcDbArc
 50
308.2228259999999
 51
231.777174
  0
CIRCLE
  5
82
330
32
100
AcDbEntity
  8
CSOLID
100
AcDbCircle
 10
2.875
 20
10.6875
 30
0.0
 40
0.25
  0
INSERT
  5
83
330
32
100
AcDbEntity
  8
CCENTER
100
AcDbBlockReference
  2
100CROSS
 10
16.125
 20
6.9375
 30
0.0
  0
CIRCLE
  5
84
330
32
100
AcDbEntity
  8
CHIDDEN
100
AcDbCircle
 10
16.125
 20
6.9375
 30
0.0
 40
0.28125
  0
ARC
  5
85
330
32
100
AcDbEntity
  8
CSOLID
100
AcDbCircle
 10
16.125
 20
6.9375
 30
0.0
 40
0.5
100
AcDbArc
 50
128.2228259999999
 51
51.777174
  0
CIRCLE
  5
86
330
32
100
AcDbEntity
  8
CSOLID
100
AcDbCircle
 10
16.125
 20
6.9375
 30
0.0
 40
0.25
  0
TEXT
  5
87
330
32
100
AcDbEntity
  8
CDIM
100
AcDbText
 10
3.21875
 20
11.4375
 30
0.0
 40
0.25
  1
X
 50
270.0
  7
STR
100
AcDbText
  0
TEXT
  5
88
330
32
100
AcDbEntity
  8
CDIM
100
AcDbText
 10
3.40625
 20
10.46875
 30
0.0
 40
0.25
  1
A
 50
270.0
  7
STR
100
AcDbText
  0
TEXT
  5
89
330
32
100
AcDbEntity
  8
CDIM
100
AcDbText
 10
3.375
 20
6.34375
 30
0.0
 40
0.25
  1
B
 50
270.0
  7
STR
100
AcDbText
  0
TEXT
  5
8A
330
32
100
AcDbEntity
  8
CDIM
100
AcDbText
 10
15.625
 20
6.40625
 30
0.0
 40
0.25
  1
Y
 50
90.0
  7
STR
100
AcDbText
  0
TEXT
  5
8B
330
32
100
AcDbEntity
  8
CDIM
100
AcDbText
 10
15.625
 20
7.1875
 30
0.0
 40
0.25
  1
P
 50
90.0
  7
STR
100
AcDbText
  0
TEXT
  5
8C
330
32
100
AcDbEntity
  8
CDIM
100
AcDbText
 10
15.59375
 20
11.21874999999999
 30
0.0
 40
0.25
  1
T
 50
90.0
  7
STR
100
AcDbText
  0
LINE
  5
8D
330
32
100
AcDbEntity
  8
CDIM
100
AcDbLine
 10
1.875
 20
12.026875
 30
0.0
 11
1.875
 21
12.80375
 31
0.0
  0
LINE
  5
8E
330
32
100
AcDbEntity
  8
CDIM
100
AcDbLine
 10
2.875
 20
11.089375
 30
0.0
 11
2.875
 21
12.80375
 31
0.0
  0
LINE
  5
8F
330
32
100
AcDbEntity
  8
CDIM
100
AcDbLine
 10
3.178749999999999
 20
12.5
 30
0.0
 11
3.482499999999999
 21
12.5
 31
0.0
  0
LINE
  5
90
330
32
100
AcDbEntity
  8
CDIM
100
AcDbLine
 10
1.57125
 20
12.5
 30
0.0
 11
1.2675
 21
12.5
 31
0.0
  0
SOLID
  5
91
330
32
100
AcDbEntity
  8
CDIM
100
AcDbTrace
 10
3.178749999999999
 20
12.449375
 30
0.0
 11
3.178749999999999
 21
12.550625
 31
0.0
 12
2.875
 22
12.5
 32
0.0
 13
2.875
 23
12.5
 33
0.0
  0
SOLID
  5
92
330
32
100
AcDbEntity
  8
CDIM
100
AcDbTrace
 10
1.57125
 20
12.449375
 30
0.0
 11
1.57125
 21
12.550625
 31
0.0
 12
1.875
 22
12.5
 32
0.0
 13
1.875
 23
12.5
 33
0.0
  0
TEXT
  5
93
330
32
100
AcDbEntity
  8
CDIM
100
AcDbText
 10
3.879999999999999
 20
12.3299
 30
0.0
 40
0.3402
  1
1.00
  7
STR
100
AcDbText
  0
LINE
  5
94
330
32
100
AcDbEntity
  8
CDIM
100
AcDbLine
 10
1.875
 20
12.026875
 30
0.0
 11
1.875
 21
13.715
 31
0.0
  0
LINE
  5
95
330
32
100
AcDbEntity
  8
CDIM
100
AcDbLine
 10
3.875
 20
12.026875
 30
0.0
 11
3.875
 21
12.21875
 31
0.0
  0
LINE
  5
96
330
32
100
AcDbEntity
  8
CDIM
100
AcDbLine
 10
4.178749999999999
 20
13.41125
 30
0.0
 11
4.482499999999999
 21
13.41125
 31
0.0
  0
LINE
  5
97
330
32
100
AcDbEntity
  8
CDIM
100
AcDbLine
 10
1.57125
 20
13.41125
 30
0.0
 11
1.2675
 21
13.41125
 31
0.0
  0
SOLID
  5
98
330
32
100
AcDbEntity
  8
CDIM
100
AcDbTrace
 10
4.178749999999999
 20
13.360625
 30
0.0
 11
4.178749999999999
 21
13.461875
 31
0.0
 12
3.875
 22
13.41125
 32
0.0
 13
3.875
 23
13.41125
 33
0.0
  0
SOLID
  5
99
330
32
100
AcDbEntity
  8
CDIM
100
AcDbTrace
 10
1.57125
 20
13.360625
 30
0.0
 11
1.57125
 21
13.461875
 31
0.0
 12
1.875
 22
13.41125
 32
0.0
 13
1.875
 23
13.41125
 33
0.0
  0
TEXT
  5
9A
330
32
100
AcDbEntity
  8
CDIM
100
AcDbText
 10
2.379999999999999
 20
13.24114999999999
 30
0.0
 40
0.3402
  1
2.00
  7
STR
100
AcDbText
  0
LINE
  5
9B
330
32
100
AcDbEntity
  8
CDIM
100
AcDbLine
 10
7.25
 20
12.026875
 30
0.0
 11
7.25
 21
12.80375
 31
0.0
  0
LINE
  5
9C
330
32
100
AcDbEntity
  8
CDIM
100
AcDbLine
 10
10.6255
 20
10.823875
 30
0.0
 11
10.6255
 21
12.80375
 31
0.0
  0
LINE
  5
9D
330
32
100
AcDbEntity
  8
CDIM
100
AcDbLine
 10
7.553749999999999
 20
12.5
 30
0.0
 11
8.1156
 21
12.5
 31
0.0
  0
LINE
  5
9E
330
32
100
AcDbEntity
  8
CDIM
100
AcDbLine
 10
10.32175
 20
12.5
 30
0.0
 11
9.7599
 21
12.5
 31
0.0
  0
SOLID
  5
9F
330
32
100
AcDbEntity
  8
CDIM
100
AcDbTrace
 10
7.553749999999999
 20
12.449375
 30
0.0
 11
7.553749999999999
 21
12.550625
 31
0.0
 12
7.25
 22
12.5
 32
0.0
 13
7.25
 23
12.5
 33
0.0
  0
SOLID
  5
A0
330
32
100
AcDbEntity
  8
CDIM
100
AcDbTrace
 10
10.32175
 20
12.449375
 30
0.0
 11
10.32175
 21
12.550625
 31
0.0
 12
10.6255
 22
12.5
 32
0.0
 13
10.6255
 23
12.5
 33
0.0
  0
TEXT
  5
A1
330
32
100
AcDbEntity
  8
CDIM
100
AcDbText
 10
8.419349999999999
 20
12.3299
 30
0.0
 40
0.3402
  1
3.38
  7
STR
100
AcDbText
  0
LINE
  5
A2
330
32
100
AcDbEntity
  8
CDIM
100
AcDbLine
 10
7.25
 20
12.026875
 30
0.0
 11
7.25
 21
13.715
 31
0.0
  0
LINE
  5
A3
330
32
100
AcDbEntity
  8
CDIM
100
AcDbLine
 10
11.75
 20
12.026875
 30
0.0
 11
11.75
 21
13.715
 31
0.0
  0
LINE
  5
A4
330
32
100
AcDbEntity
  8
CDIM
100
AcDbLine
 10
7.553749999999999
 20
13.41125
 30
0.0
 11
8.677849999999999
 21
13.41125
 31
0.0
  0
LINE
  5
A5
330
32
100
AcDbEntity
  8
CDIM
100
AcDbLine
 10
11.44625
 20
13.41125
 30
0.0
 11
10.32215
 21
13.41125
 31
0.0
  0
SOLID
  5
A6
330
32
100
AcDbEntity
  8
CDIM
100
AcDbTrace
 10
7.553749999999999
 20
13.360625
 30
0.0
 11
7.553749999999999
 21
13.461875
 31
0.0
 12
7.25
 22
13.41125
 32
0.0
 13
7.25
 23
13.41125
 33
0.0
  0
SOLID
  5
A7
330
32
100
AcDbEntity
  8
CDIM
100
AcDbTrace
 10
11.44625
 20
13.360625
 30
0.0
 11
11.44625
 21
13.461875
 31
0.0
 12
11.75
 22
13.41125
 32
0.0
 13
11.75
 23
13.41125
 33
0.0
  0
TEXT
  5
A8
330
32
100
AcDbEntity
  8
CDIM
100
AcDbText
 10
8.9816
 20
13.24114999999999
 30
0.0
 40
0.3402
  1
4.50
  7
STR
100
AcDbText
  0
LINE
  5
A9
330
32
100
AcDbEntity
  8
CDIM
100
AcDbLine
 10
17.125
 20
12.026875
 30
0.0
 11
17.125
 21
12.80375
 31
0.0
  0
LINE
  5
AA
330
32
100
AcDbEntity
  8
CDIM
100
AcDbLine
 10
16.125
 20
10.995125
 30
0.0
 11
16.125
 21
12.80375
 31
0.0
  0
LINE
  5
AB
330
32
100
AcDbEntity
  8
CDIM
100
AcDbLine
 10
15.82125
 20
12.5
 30
0.0
 11
15.5175
 21
12.5
 31
0.0
  0
LINE
  5
AC
330
32
100
AcDbEntity
  8
CDIM
100
AcDbLine
 10
17.42875
 20
12.5
 30
0.0
 11
17.7325
 21
12.5
 31
0.0
  0
SOLID
  5
AD
330
32
100
AcDbEntity
  8
CDIM
100
AcDbTrace
 10
15.82125
 20
12.449375
 30
0.0
 11
15.82125
 21
12.550625
 31
0.0
 12
16.125
 22
12.5
 32
0.0
 13
16.125
 23
12.5
 33
0.0
  0
SOLID
  5
AE
330
32
100
AcDbEntity
  8
CDIM
100
AcDbTrace
 10
17.42875
 20
12.449375
 30
0.0
 11
17.42875
 21
12.550625
 31
0.0
 12
17.125
 22
12.5
 32
0.0
 13
17.125
 23
12.5
 33
0.0
  0
TEXT
  5
AF
330
32
100
AcDbEntity
  8
CDIM
100
AcDbText
 10
14.2707
 20
12.3299
 30
0.0
 40
0.3402
  1
1.00
  7
STR
100
AcDbText
  0
LINE
  5
B0
330
32
100
AcDbEntity
  8
CDIM
100
AcDbLine
 10
7.25
 20
5.598124999999999
 30
0.0
 11
7.25
 21
4.82125
 31
0.0
  0
LINE
  5
B1
330
32
100
AcDbEntity
  8
CDIM
100
AcDbLine
 10
9.5
 20
5.832499999999999
 30
0.0
 11
9.5
 21
4.82125
 31
0.0
  0
LINE
  5
B2
330
32
100
AcDbEntity
  8
CDIM
100
AcDbLine
 10
9.80375
 20
5.125
 30
0.0
 11
10.1075
 21
5.125
 31
0.0
  0
LINE
  5
B3
330
32
100
AcDbEntity
  8
CDIM
100
AcDbLine
 10
6.94625
 20
5.125
 30
0.0
 11
6.6425
 21
5.125
 31
0.0
  0
SOLID
  5
B4
330
32
100
AcDbEntity
  8
CDIM
100
AcDbTrace
 10
9.80375
 20
5.074374999999999
 30
0.0
 11
9.80375
 21
5.175625
 31
0.0
 12
9.5
 22
5.125
 32
0.0
 13
9.5
 23
5.125
 33
0.0
  0
SOLID
  5
B5
330
32
100
AcDbEntity
  8
CDIM
100
AcDbTrace
 10
6.94625
 20
5.074374999999999
 30
0.0
 11
6.94625
 21
5.175625
 31
0.0
 12
7.25
 22
5.125
 32
0.0
 13
7.25
 23
5.125
 33
0.0
  0
TEXT
  5
B6
330
32
100
AcDbEntity
  8
CDIM
100
AcDbText
 10
7.911249999999999
 20
4.9549
 30
0.0
 40
0.3402
  1
2.25
  7
STR
100
AcDbText
  0
LINE
  5
B7
330
32
100
AcDbEntity
  8
CDIM
100
AcDbLine
 10
17.276875
 20
11.875
 30
0.0
 11
18.17875
 21
11.875
 31
0.0
  0
LINE
  5
B8
330
32
100
AcDbEntity
  8
CDIM
100
AcDbLine
 10
16.963875
 20
10.28124999999999
 30
0.0
 11
18.17875
 21
10.28124999999999
 31
0.0
  0
LINE
  5
B9
330
32
100
AcDbEntity
  8
CDIM
100
AcDbLine
 10
17.875
 20
11.57124999999999
 30
0.0
 11
17.875
 21
11.551975
 31
0.0
  0
LINE
  5
BA
330
32
100
AcDbEntity
  8
CDIM
100
AcDbLine
 10
17.875
 20
10.585
 30
0.0
 11
17.875
 21
10.604275
 31
0.0
  0
SOLID
  5
BB
330
32
100
AcDbEntity
  8
CDIM
100
AcDbTrace
 10
17.925625
 20
11.57124999999999
 30
0.0
 11
17.824375
 21
11.57124999999999
 31
0.0
 12
17.875
 22
11.875
 32
0.0
 13
17.875
 23
11.875
 33
0.0
  0
SOLID
  5
BC
330
32
100
AcDbEntity
  8
CDIM
100
AcDbTrace
 10
17.925625
 20
10.585
 30
0.0
 11
17.824375
 21
10.585
 31
0.0
 12
17.875
 22
10.28124999999999
 32
0.0
 13
17.875
 23
10.28124999999999
 33
0.0
  0
TEXT
  5
BD
330
32
100
AcDbEntity
  8
CDIM
100
AcDbText
 10
17.39709999999999
 20
10.908025
 30
0.0
 40
0.3402
  1
1.59
  7
STR
100
AcDbText
  0
LINE
  5
BE
330
32
100
AcDbEntity
  8
CDIM
100
AcDbLine
 10
17.276875
 20
11.875
 30
0.0
 11
19.08999999999999
 21
11.875
 31
0.0
  0
LINE
  5
BF
330
32
100
AcDbEntity
  8
CDIM
100
AcDbLine
 10
17.058125
 20
8.28125
 30
0.0
 11
19.08999999999999
 21
8.28125
 31
0.0
  0
LINE
  5
C0
330
32
100
AcDbEntity
  8
CDIM
100
AcDbLine
 10
18.78624999999999
 20
11.57124999999999
 30
0.0
 11
18.78624999999999
 21
10.114475
 31
0.0
  0
LINE
  5
C1
330
32
100
AcDbEntity
  8
CDIM
100
AcDbLine
 10
18.78624999999999
 20
8.585
 30
0.0
 11
18.78624999999999
 21
9.166774999999999
 31
0.0
  0
SOLID
  5
C2
330
32
100
AcDbEntity
  8
CDIM
100
AcDbTrace
 10
18.83687499999999
 20
11.57124999999999
 30
0.0
 11
18.735625
 21
11.57124999999999
 31
0.0
 12
18.78624999999999
 22
11.875
 32
0.0
 13
18.78624999999999
 23
11.875
 33
0.0
  0
SOLID
  5
C3
330
32
100
AcDbEntity
  8
CDIM
100
AcDbTrace
 10
18.83687499999999
 20
8.585
 30
0.0
 11
18.735625
 21
8.585
 31
0.0
 12
18.78624999999999
 22
8.28125
 32
0.0
 13
18.78624999999999
 23
8.28125
 33
0.0
  0
TEXT
  5
C4
330
32
100
AcDbEntity
  8
CDIM
100
AcDbText
 10
18.27595
 20
9.470525
 30
0.0
 40
0.3402
  1
3.59
  7
STR
100
AcDbText
  0
LINE
  5
C5
330
32
100
AcDbEntity
  8
CDIM
100
AcDbLine
 10
17.276875
 20
11.875
 30
0.0
 11
20.00125
 21
11.875
 31
0.0
  0
LINE
  5
C6
330
32
100
AcDbEntity
  8
CDIM
100
AcDbLine
 10
16.526875
 20
6.9375
 30
0.0
 11
20.00125
 21
6.9375
 31
0.0
  0
LINE
  5
C7
330
32
100
AcDbEntity
  8
CDIM
100
AcDbLine
 10
19.6975
 20
11.57124999999999
 30
0.0
 11
19.6975
 21
9.4426
 31
0.0
  0
LINE
  5
C8
330
32
100
AcDbEntity
  8
CDIM
100
AcDbLine
 10
19.6975
 20
7.241249999999999
 30
0.0
 11
19.6975
 21
8.494899999999999
 31
0.0
  0
SOLID
  5
C9
330
32
100
AcDbEntity
  8
CDIM
100
AcDbTrace
 10
19.748125
 20
11.57124999999999
 30
0.0
 11
19.646875
 21
11.57124999999999
 31
0.0
 12
19.6975
 22
11.875
 32
0.0
 13
19.6975
 23
11.875
 33
0.0
  0
SOLID
  5
CA
330
32
100
AcDbEntity
  8
CDIM
100
AcDbTrace
 10
19.748125
 20
7.241249999999999
 30
0.0
 11
19.646875
 21
7.241249999999999
 31
0.0
 12
19.6975
 22
6.9375
 32
0.0
 13
19.6975
 23
6.9375
 33
0.0
  0
TEXT
  5
CB
330
32
100
AcDbEntity
  8
CDIM
100
AcDbText
 10
19.17099999999999
 20
8.79865
 30
0.0
 40
0.3402
  1
4.94
  7
STR
100
AcDbText
  0
LINE
  5
CC
330
32
100
AcDbEntity
  8
CDIM
100
AcDbLine
 10
11.901875
 20
11.875
 30
0.0
 11
12.86625
 21
11.875
 31
0.0
  0
LINE
  5
CD
330
32
100
AcDbEntity
  8
CDIM
100
AcDbLine
 10
9.9175
 20
11.37499999999999
 30
0.0
 11
12.86625
 21
11.37499999999999
 31
0.0
  0
LINE
  5
CE
330
32
100
AcDbEntity
  8
CDIM
100
AcDbLine
 10
12.5625
 20
11.07124999999999
 30
0.0
 11
12.5625
 21
10.7675
 31
0.0
  0
LINE
  5
CF
330
32
100
AcDbEntity
  8
CDIM
100
AcDbLine
 10
12.5625
 20
12.17875
 30
0.0
 11
12.5625
 21
12.4825
 31
0.0
  0
SOLID
  5
D0
330
32
100
AcDbEntity
  8
CDIM
100
AcDbTrace
 10
12.613125
 20
11.07124999999999
 30
0.0
 11
12.511875
 21
11.07124999999999
 31
0.0
 12
12.5625
 22
11.37499999999999
 32
0.0
 13
12.5625
 23
11.37499999999999
 33
0.0
  0
SOLID
  5
D1
330
32
100
AcDbEntity
  8
CDIM
100
AcDbTrace
 10
12.613125
 20
12.17875
 30
0.0
 11
12.511875
 21
12.17875
 31
0.0
 12
12.5625
 22
11.875
 32
0.0
 13
12.5625
 23
11.875
 33
0.0
  0
TEXT
  5
D2
330
32
100
AcDbEntity
  8
CDIM
100
AcDbText
 10
11.9807
 20
10.25365
 30
0.0
 40
0.3402
  1
0.50
  7
STR
100
AcDbText
  0
LINE
  5
D3
330
32
100
AcDbEntity
  8
CDIM
100
AcDbLine
 10
11.901875
 20
11.875
 30
0.0
 11
13.7775
 21
11.875
 31
0.0
  0
LINE
  5
D4
330
32
100
AcDbEntity
  8
CDIM
100
AcDbLine
 10
9.9175
 20
6.25
 30
0.0
 11
13.7775
 21
6.25
 31
0.0
  0
LINE
  5
D5
330
32
100
AcDbEntity
  8
CDIM
100
AcDbLine
 10
13.47375
 20
11.57124999999999
 30
0.0
 11
13.47375
 21
9.53635
 31
0.0
  0
LINE
  5
D6
330
32
100
AcDbEntity
  8
CDIM
100
AcDbLine
 10
13.47375
 20
6.553749999999999
 30
0.0
 11
13.47375
 21
8.588649999999999
 31
0.0
  0
SOLID
  5
D7
330
32
100
AcDbEntity
  8
CDIM
100
AcDbTrace
 10
13.52437499999999
 20
11.57124999999999
 30
0.0
 11
13.423125
 21
11.57124999999999
 31
0.0
 12
13.47375
 22
11.875
 32
0.0
 13
13.47375
 23
11.875
 33
0.0
  0
SOLID
  5
D8
330
32
100
AcDbEntity
  8
CDIM
100
AcDbTrace
 10
13.52437499999999
 20
6.553749999999999
 30
0.0
 11
13.423125
 21
6.553749999999999
 31
0.0
 12
13.47375
 22
6.25
 32
0.0
 13
13.47375
 23
6.25
 33
0.0
  0
TEXT
  5
D9
330
32
100
AcDbEntity
  8
CDIM
100
AcDbText
 10
12.95535
 20
8.8924
 30
0.0
 40
0.3402
  1
5.62
  7
STR
100
AcDbText
  0
LINE
  5
DA
330
32
100
AcDbEntity
  8
CDIM
100
AcDbLine
 10
7.098124999999999
 20
11.875
 30
0.0
 11
6.13375
 21
11.875
 31
0.0
  0
LINE
  5
DB
330
32
100
AcDbEntity
  8
CDIM
100
AcDbLine
 10
10.020625
 20
8.343999999999999
 30
0.0
 11
6.13375
 21
8.343999999999999
 31
0.0
  0
LINE
  5
DC
330
32
100
AcDbEntity
  8
CDIM
100
AcDbLine
 10
6.4375
 20
11.57124999999999
 30
0.0
 11
6.4375
 21
10.58335
 31
0.0
  0
LINE
  5
DD
330
32
100
AcDbEntity
  8
CDIM
100
AcDbLine
 10
6.4375
 20
8.64775
 30
0.0
 11
6.4375
 21
9.63565
 31
0.0
  0
SOLID
  5
DE
330
32
100
AcDbEntity
  8
CDIM
100
AcDbTrace
 10
6.488125
 20
11.57124999999999
 30
0.0
 11
6.386874999999999
 21
11.57124999999999
 31
0.0
 12
6.4375
 22
11.875
 32
0.0
 13
6.4375
 23
11.875
 33
0.0
  0
SOLID
  5
DF
330
32
100
AcDbEntity
  8
CDIM
100
AcDbTrace
 10
6.488125
 20
8.64775
 30
0.0
 11
6.386874999999999
 21
8.64775
 31
0.0
 12
6.4375
 22
8.343999999999999
 32
0.0
 13
6.4375
 23
8.343999999999999
 33
0.0
  0
TEXT
  5
E0
330
32
100
AcDbEntity
  8
CDIM
100
AcDbText
 10
5.9191
 20
9.939399999999999
 30
0.0
 40
0.3402
  1
3.53
  7
STR
100
AcDbText
  0
LINE
  5
E1
330
32
100
AcDbEntity
  8
CDIM
100
AcDbLine
 10
7.098124999999999
 20
11.875
 30
0.0
 11
5.2225
 21
11.875
 31
0.0
  0
LINE
  5
E2
330
32
100
AcDbEntity
  8
CDIM
100
AcDbLine
 10
7.098124999999999
 20
5.75
 30
0.0
 11
5.2225
 21
5.75
 31
0.0
  0
LINE
  5
E3
330
32
100
AcDbEntity
  8
CDIM
100
AcDbLine
 10
5.52625
 20
11.57124999999999
 30
0.0
 11
5.52625
 21
9.28635
 31
0.0
  0
LINE
  5
E4
330
32
100
AcDbEntity
  8
CDIM
100
AcDbLine
 10
5.52625
 20
6.053749999999999
 30
0.0
 11
5.52625
 21
8.338649999999999
 31
0.0
  0
SOLID
  5
E5
330
32
100
AcDbEntity
  8
CDIM
100
AcDbTrace
 10
5.576875
 20
11.57124999999999
 30
0.0
 11
5.475624999999999
 21
11.57124999999999
 31
0.0
 12
5.52625
 22
11.875
 32
0.0
 13
5.52625
 23
11.875
 33
0.0
  0
SOLID
  5
E6
330
32
100
AcDbEntity
  8
CDIM
100
AcDbTrace
 10
5.576875
 20
6.053749999999999
 30
0.0
 11
5.475624999999999
 21
6.053749999999999
 31
0.0
 12
5.52625
 22
5.75
 32
0.0
 13
5.52625
 23
5.75
 33
0.0
  0
TEXT
  5
E7
330
32
100
AcDbEntity
  8
CDIM
100
AcDbText
 10
5.04025
 20
8.6424
 30
0.0
 40
0.3402
  1
6.13
  7
STR
100
AcDbText
  0
LINE
  5
E8
330
32
100
AcDbEntity
  8
CDIM
100
AcDbLine
 10
1.723125
 20
11.875
 30
0.0
 11
0.7587500000000001
 21
11.875
 31
0.0
  0
LINE
  5
E9
330
32
100
AcDbEntity
  8
CDIM
100
AcDbLine
 10
2.473125
 20
10.6875
 30
0.0
 11
0.7587500000000001
 21
10.6875
 31
0.0
  0
LINE
  5
EA
330
32
100
AcDbEntity
  8
CDIM
100
AcDbLine
 10
1.0625
 20
10.38375
 30
0.0
 11
1.0625
 21
10.08
 31
0.0
  0
LINE
  5
EB
330
32
100
AcDbEntity
  8
CDIM
100
AcDbLine
 10
1.0625
 20
12.17875
 30
0.0
 11
1.0625
 21
12.4825
 31
0.0
  0
SOLID
  5
EC
330
32
100
AcDbEntity
  8
CDIM
100
AcDbTrace
 10
1.113124999999999
 20
10.38375
 30
0.0
 11
1.011875
 21
10.38375
 31
0.0
 12
1.0625
 22
10.6875
 32
0.0
 13
1.0625
 23
10.6875
 33
0.0
  0
SOLID
  5
ED
330
32
100
AcDbEntity
  8
CDIM
100
AcDbTrace
 10
1.113124999999999
 20
12.17875
 30
0.0
 11
1.011875
 21
12.17875
 31
0.0
 12
1.0625
 22
11.875
 32
0.0
 13
1.0625
 23
11.875
 33
0.0
  0
TEXT
  5
EE
330
32
100
AcDbEntity
  8
CDIM
100
AcDbText
 10
0.65775
 20
11.12864999999999
 30
0.0
 40
0.3402
  1
1.19
  7
STR
100
AcDbText
  0
LINE
  5
EF
330
32
100
AcDbEntity
  8
CDIM
100
AcDbLine
 10
1.723125
 20
11.875
 30
0.0
 11
-0.1525
 21
11.875
 31
0.0
  0
LINE
  5
F0
330
32
100
AcDbEntity
  8
CDIM
100
AcDbLine
 10
2.161125
 20
9.34375
 30
0.0
 11
-0.1525
 21
9.34375
 31
0.0
  0
LINE
  5
F1
330
32
100
AcDbEntity
  8
CDIM
100
AcDbLine
 10
0.15125
 20
11.57124999999999
 30
0.0
 11
0.15125
 21
10.770725
 31
0.0
  0
LINE
  5
F2
330
32
100
AcDbEntity
  8
CDIM
100
AcDbLine
 10
0.15125
 20
9.6475
 30
0.0
 11
0.15125
 21
9.823024999999999
 31
0.0
  0
SOLID
  5
F3
330
32
100
AcDbEntity
  8
CDIM
100
AcDbTrace
 10
0.201875
 20
11.57124999999999
 30
0.0
 11
0.100625
 21
11.57124999999999
 31
0.0
 12
0.15125
 22
11.875
 32
0.0
 13
0.15125
 23
11.875
 33
0.0
  0
SOLID
  5
F4
330
32
100
AcDbEntity
  8
CDIM
100
AcDbTrace
 10
0.201875
 20
9.6475
 30
0.0
 11
0.100625
 21
9.6475
 31
0.0
 12
0.15125
 22
9.34375
 32
0.0
 13
0.15125
 23
9.34375
 33
0.0
  0
TEXT
  5
F5
330
32
100
AcDbEntity
  8
CDIM
100
AcDbText
 10
-0.36715
 20
10.126775
 30
0.0
 40
0.3402
  1
2.53
  7
STR
100
AcDbText
  0
LINE
  5
F6
330
32
100
AcDbEntity
  8
CDIM
100
AcDbLine
 10
1.723125
 20
11.875
 30
0.0
 11
-1.063749999999999
 21
11.875
 31
0.0
  0
LINE
  5
F7
330
32
100
AcDbEntity
  8
CDIM
100
AcDbLine
 10
2.161125
 20
7.34375
 30
0.0
 11
-1.063749999999999
 21
7.34375
 31
0.0
  0
LINE
  5
F8
330
32
100
AcDbEntity
  8
CDIM
100
AcDbLine
 10
-0.76
 20
11.57124999999999
 30
0.0
 11
-0.76
 21
9.426975
 31
0.0
  0
LINE
  5
F9
330
32
100
AcDbEntity
  8
CDIM
100
AcDbLine
 10
-0.76
 20
7.647499999999999
 30
0.0
 11
-0.76
 21
8.479274999999999
 31
0.0
  0
SOLID
  5
FA
330
32
100
AcDbEntity
  8
CDIM
100
AcDbTrace
 10
-0.709375
 20
11.57124999999999
 30
0.0
 11
-0.8106250000000001
 21
11.57124999999999
 31
0.0
 12
-0.76
 22
11.875
 32
0.0
 13
-0.76
 23
11.875
 33
0.0
  0
SOLID
  5
FB
330
32
100
AcDbEntity
  8
CDIM
100
AcDbTrace
 10
-0.709375
 20
7.647499999999999
 30
0.0
 11
-0.8106250000000001
 21
7.647499999999999
 31
0.0
 12
-0.76
 22
7.34375
 32
0.0
 13
-0.76
 23
7.34375
 33
0.0
  0
TEXT
  5
FC
330
32
100
AcDbEntity
  8
CDIM
100
AcDbText
 10
-1.278399999999999
 20
8.783025
 30
0.0
 40
0.3402
  1
4.53
  7
STR
100
AcDbText
  0
LINE
  5
FD
330
32
100
AcDbEntity
  8
CDIM
100
AcDbLine
 10
3.875
 20
12.90625
 30
0.0
 11
3.875
 21
13.715
 31
0.0
  0
ARC
  5
FE
330
32
100
AcDbEntity
  8
CSOLID
100
AcDbCircle
 10
2.875
 20
9.34375
 30
0.0
 40
1.0
100
AcDbArc
 50
108.020708
 51
71.979292
  0
CIRCLE
  5
FF
330
32
100
AcDbEntity
  8
CSOLID
100
AcDbCircle
 10
2.875
 20
7.34375
 30
0.0
 40
1.0
  0
CIRCLE
  5
100
330
32
100
AcDbEntity
  8
CSOLID
100
AcDbCircle
 10
16.125
 20
10.28124999999999
 30
0.0
 40
1.0
  0
ARC
  5
101
330
32
100
AcDbEntity
  8
CSOLID
100
AcDbCircle
 10
16.125
 20
8.28125
 30
0.0
 40
1.0
100
AcDbArc
 50
288.020708
 51
251.9792919999999
  0
ENDBLK
  5
102
330
32
100
AcDbEntity
  8
0
100
AcDbBlockEnd
  0
BLOCK
  5
103
330
46
100
AcDbEntity
  8
0
100
AcDbBlockBegin
  2
100CROSS
 70
     0
 10
5.625
 20
4.59375
 30
0.0
  3
100CROSS
  1

  0
INSERT
  5
105
330
46
100
AcDbEntity
  8
0
100
AcDbBlockReference
  2
050CROSS
 10
5.625
 20
4.59375
 30
0.0
  0
ENDBLK
  5
106
330
46
100
AcDbEntity
  8
0
100
AcDbBlockEnd
  0
BLOCK
  5
107
330
104
100
AcDbEntity
  8
0
100
AcDbBlockBegin
  2
050CROSS
 70
     0
 10
5.0
 20
5.0
 30
0.0
  3
050CROSS
  1

  0
LINE
  5
108
330
104
100
AcDbEntity
  8
0
100
AcDbLine
 10
5.0
 20
5.28125
 30
0.0
 11
5.0
 21
5.78125
 31
0.0
  0
LINE
  5
109
330
104
100
AcDbEntity
  8
0
100
AcDbLine
 10
5.0
 20
4.875
 30
0.0
 11
5.0
 21
5.125
 31
0.0
  0
LINE
  5
10A
330
104
100
AcDbEntity
  8
0
100
AcDbLine
 10
5.0
 20
4.15625
 30
0.0
 11
5.0
 21
4.71875
 31
0.0
  0
LINE
  5
10B
330
104
100
AcDbEntity
  8
0
100
AcDbLine
 10
5.25
 20
5.0
 30
0.0
 11
5.8125
 21
5.0
 31
0.0
  0
LINE
  5
10C
330
104
100
AcDbEntity
  8
0
100
AcDbLine
 10
4.90625
 20
5.0
 30
0.0
 11
5.09375
 21
5.0
 31
0.0
  0
LINE
  5
10D
330
104
100
AcDbEntity
  8
0
100
AcDbLine
 10
4.1875
 20
5.0
 30
0.0
 11
4.75
 21
5.0
 31
0.0
  0
ENDBLK
  5
10E
330
104
100
AcDbEntity
  8
0
100
AcDbBlockEnd
  0
BLOCK
  5
110
330
10F
100
AcDbEntity
  8
0
100
AcDbBlockBegin
  2
3
 70
     0
 10
30.0625
 20
12.375
 30
0.0
  3
3
  1

  0
LINE
  5
111
330
10F
100
AcDbEntity
  8
0
100
AcDbLine
 10
30.0865
 20
12.375
 30
0.0
 11
36.0865
 21
18.375
 31
0.0
  0
LINE
  5
112
330
10F
100
AcDbEntity
  8
0
100
AcDbLine
 10
30.0865
 20
12.375
 30
0.0
 11
29.0865
 21
12.375
 31
0.0
  0
ARC
  5
113
330
10F
100
AcDbEntity
  8
0
100
AcDbCircle
 10
29.0865
 20
15.375
 30
0.0
 40
3.0
100
AcDbArc
 50
90.0
 51
270.0
  0
LINE
  5
114
330
10F
100
AcDbEntity
  8
0
100
AcDbLine
 10
29.0865
 20
18.375
 30
0.0
 11
36.0865
 21
18.375
 31
0.0
  0
ENDBLK
  5
115
330
10F
100
AcDbEntity
  8
0
100
AcDbBlockEnd
  0
BLOCK
  5
117
330
116
100
AcDbEntity
  8
0
100
AcDbBlockBegin
  2
100NPTFT
 70
     0
 10
0.0
 20
0.0
 30
0.0
  3
100NPTFT
  1

  0
CIRCLE
  5
118
330
116
100
AcDbEntity
  8
DAMAN
100
AcDbCircle
 10
0.0
 20
0.0
 30
0.0
 40
0.5625
  0
CIRCLE
  5
119
330
116
100
AcDbEntity
  8
DAMAN
100
AcDbCircle
 10
0.0
 20
0.0
 30
0.0
 40
0.6720000000000001
  0
INSERT
  5
11A
330
116
100
AcDbEntity
  8
DAMAN
100
AcDbBlockReference
  2
100CROSS
 10
0.0
 20
0.0
 30
0.0
 41
1.199999999999999
 42
1.199999999999999
  0
CIRCLE
  5
11B
330
116
100
AcDbEntity
  8
DAMAN
100
AcDbCircle
 10
0.0
 20
0.0
 30
0.0
 40
0.625
  0
ENDBLK
  5
11C
330
116
100
AcDbEntity
  8
0
100
AcDbBlockEnd
  0
BLOCK
  5
11E
330
11D
100
AcDbEntity
  8
0
100
AcDbBlockBegin
  2
025NPTFT
 70
     0
 10
0.0
 20
0.0
 30
0.0
  3
025NPTFT
  1

  0
INSERT
  5
120
330
11D
100
AcDbEntity
  8
DAMAN
100
AcDbBlockReference
  2
250NPTFT
 10
0.0
 20
0.0
 30
0.0
  0
ENDBLK
  5
121
330
11D
100
AcDbEntity
  8
0
100
AcDbBlockEnd
  0
BLOCK
  5
122
330
11F
100
AcDbEntity
  8
0
100
AcDbBlockBegin
  2
250NPTFT
 70
     0
 10
0.0
 20
0.0
 30
0.0
  3
250NPTFT
  1

  0
CIRCLE
  5
123
330
11F
100
AcDbEntity
  8
DAMAN
100
AcDbCircle
 10
0.0
 20
0.0
 30
0.0
 40
0.273
  0
CIRCLE
  5
124
330
11F
100
AcDbEntity
  8
DAMAN
100
AcDbCircle
 10
0.0
 20
0.0
 30
0.0
 40
0.211
  0
INSERT
  5
125
330
11F
100
AcDbEntity
  8
DAMAN
100
AcDbBlockReference
  2
100CROSS
 10
0.0
 20
0.0
 30
0.0
 41
0.4220000000000001
 42
0.4220000000000001
  0
CIRCLE
  5
126
330
11F
100
AcDbEntity
  8
DAMAN
100
AcDbCircle
 10
0.0
 20
0.0
 30
0.0
 40
0.242251
  0
POINT
  5
127
330
11F
100
AcDbEntity
  8
CHIDDEN
100
AcDbPoint
 10
-0.087928
 20
0.191806
 30
0.0
  0
POINT
  5
128
330
11F
100
AcDbEntity
  8
CHIDDEN
100
AcDbPoint
 10
-0.137717
 20
-0.15986
 30
0.0
  0
POINT
  5
129
330
11F
100
AcDbEntity
  8
CHIDDEN
100
AcDbPoint
 10
0.202707
 20
-0.058572
 30
0.0
  0
ENDBLK
  5
12A
330
11F
100
AcDbEntity
  8
0
100
AcDbBlockEnd
  0
BLOCK
  5
12C
330
12B
100
AcDbEntity
  8
0
100
AcDbBlockBegin
  2
100BSPPT
 70
     0
 10
0.0
 20
0.0
 30
0.0
  3
100BSPPT
  1

  0
CIRCLE
  5
12D
330
12B
100
AcDbEntity
  8
DAMAN
  6
HIDDEN
100
AcDbCircle
 10
0.0
 20
0.0
 30
0.0
 40
0.6545
  0
CIRCLE
  5
12E
330
12B
100
AcDbEntity
  8
DAMAN
100
AcDbCircle
 10
0.0
 20
0.0
 30
0.0
 40
0.6125
  0
CIRCLE
  5
12F
330
12B
100
AcDbEntity
  8
DAMAN
100
AcDbCircle
 10
0.0
 20
0.0
 30
0.0
 40
0.915
  0
INSERT
  5
130
330
12B
100
AcDbEntity
  8
DAMAN
100
AcDbBlockReference
  2
100CROSS
 10
0.0
 20
0.0
 30
0.0
 41
1.33
 42
1.33
  0
CIRCLE
  5
131
330
12B
100
AcDbEntity
  8
DAMAN
100
AcDbCircle
 10
0.0
 20
0.0
 30
0.0
 40
0.6575
  0
ENDBLK
  5
132
330
12B
100
AcDbEntity
  8
0
100
AcDbBlockEnd
  0
BLOCK
  5
134
330
133
100
AcDbEntity
  8
0
100
AcDbBlockBegin
  2
106SAET
 70
     0
 10
0.0
 20
0.0
 30
0.0
  3
106SAET
  1

  0
CIRCLE
  5
135
330
133
100
AcDbEntity
  8
CSOLID
100
AcDbCircle
 10
0.0
 20
0.0
 30
0.0
 40
0.4920000000000001
  0
CIRCLE
  5
136
330
133
100
AcDbEntity
  8
CSOLID
100
AcDbCircle
 10
0.0
 20
0.0
 30
0.0
 40
0.453
  0
CIRCLE
  5
137
330
133
100
AcDbEntity
  8
CSOLID
100
AcDbCircle
 10
0.0
 20
0.0
 30
0.0
 40
0.8125
  0
INSERT
  5
138
330
133
100
AcDbEntity
  8
CCENTER
100
AcDbBlockReference
  2
100CROSS
 10
0.0
 20
0.0
 30
0.0
 41
1.33
 42
1.33
  0
CIRCLE
  5
139
330
133
100
AcDbEntity
  8
CHIDDEN
100
AcDbCircle
 10
0.0
 20
0.0
 30
0.0
 40
0.53125
  0
CIRCLE
  5
13A
330
133
100
AcDbEntity
  8
PHANTOM
100
AcDbCircle
 10
0.0
 20
0.0
 30
0.0
 40
0.725
  0
ENDBLK
  5
13B
330
133
100
AcDbEntity
  8
0
100
AcDbBlockEnd
  0
BLOCK
  5
13D
330
13C
100
AcDbEntity
  8
0
100
AcDbBlockBegin
  2
025BSPPT
 70
     0
 10
0.0
 20
0.0
 30
0.0
  3
025BSPPT
  1

  0
CIRCLE
  5
13E
330
13C
100
AcDbEntity
  8
DAMAN
100
AcDbCircle
 10
0.0
 20
0.0
 30
0.0
 40
0.425
  0
CIRCLE
  5
13F
330
13C
100
AcDbEntity
  8
DAMAN
100
AcDbCircle
 10
0.0
 20
0.0
 30
0.0
 40
0.225
  0
CIRCLE
  5
140
330
13C
100
AcDbEntity
  8
DAMAN
100
AcDbCircle
 10
0.0
 20
0.0
 30
0.0
 40
0.26
  0
INSERT
  5
141
330
13C
100
AcDbEntity
  8
DAMAN
100
AcDbBlockReference
  2
100CROSS
 10
0.0
 20
0.0
 30
0.0
 41
0.7480000000000001
 42
0.7480000000000001
  0
ENDBLK
  5
142
330
13C
100
AcDbEntity
  8
0
100
AcDbBlockEnd
  0
BLOCK
  5
144
330
143
100
AcDbEntity
  8
0
100
AcDbBlockBegin
  2
0375BSPPT
 70
     0
 10
0.0
 20
0.0
 30
0.0
  3
0375BSPPT
  1

  0
CIRCLE
  5
145
330
143
100
AcDbEntity
  8
CSOLID
  6
HIDDEN
100
AcDbCircle
 10
0.0
 20
0.0
 30
0.0
 40
0.3279999999999999
  0
CIRCLE
  5
146
330
143
100
AcDbEntity
  8
CSOLID
100
AcDbCircle
 10
0.0
 20
0.0
 30
0.0
 40
0.3325
  0
CIRCLE
  5
147
330
143
100
AcDbEntity
  8
CSOLID
100
AcDbCircle
 10
0.0
 20
0.0
 30
0.0
 40
0.3035
  0
CIRCLE
  5
148
330
143
100
AcDbEntity
  8
CSOLID
100
AcDbCircle
 10
0.0
 20
0.0
 30
0.0
 40
0.51
  0
INSERT
  5
149
330
143
100
AcDbEntity
  8
DAMAN
100
AcDbBlockReference
  2
100CROSS
 10
0.0
 20
0.0
 30
0.0
 41
0.88
 42
0.88
  0
ENDBLK
  5
14A
330
143
100
AcDbEntity
  8
0
100
AcDbBlockEnd
  0
BLOCK
  5
14C
330
14B
100
AcDbEntity
  8
0
100
AcDbBlockBegin
  2
075NPTFT
 70
     0
 10
0.0
 20
0.0
 30
0.0
  3
075NPTFT
  1

  0
INSERT
  5
14E
330
14B
100
AcDbEntity
  8
DAMAN
100
AcDbBlockReference
  2
750NPTFT
 10
-6.410892999999999
 20
-4.555543
 30
0.0
  0
ENDBLK
  5
14F
330
14B
100
AcDbEntity
  8
0
100
AcDbBlockEnd
  0
BLOCK
  5
150
330
14D
100
AcDbEntity
  8
0
100
AcDbBlockBegin
  2
750NPTFT
 70
     0
 10
0.0
 20
0.0
 30
0.0
  3
750NPTFT
  1

  0
INSERT
  5
151
330
14D
100
AcDbEntity
  8
DAMAN
 62
     5
100
AcDbBlockReference
  2
100CROSS
 10
6.410892999999999
 20
4.555543
 30
0.0
 41
0.98
 42
0.98
  0
CIRCLE
  5
152
330
14D
100
AcDbEntity
  8
DAMAN
 62
     5
100
AcDbCircle
 10
6.410892999999999
 20
4.555543
 30
0.0
 40
0.4910670000000001
  0
CIRCLE
  5
153
330
14D
100
AcDbEntity
  8
DAMAN
 62
     5
100
AcDbCircle
 10
6.410892999999999
 20
4.555543
 30
0.0
 40
0.453
  0
CIRCLE
  5
154
330
14D
100
AcDbEntity
  8
DAMAN
 62
     5
100
AcDbCircle
 10
6.410892999999999
 20
4.555543
 30
0.0
 40
0.53125
  0
ENDBLK
  5
155
330
14D
100
AcDbEntity
  8
0
100
AcDbBlockEnd
  0
ENDSEC
  0
SECTION
  2
ENTITIES
  0
LWPOLYLINE
  5
156
330
1E
100
AcDbEntity
  8
DAMAN
100
AcDbPolyline
 90
        4
 70
     1
 43
0.0
 10
3.0625
 20
7.03125
 10
3.0625
 20
13.15625
 10
5.0625
 20
13.15625
 10
5.0625
 20
7.03125
  0
LWPOLYLINE
  5
15C
330
1E
100
AcDbEntity
  8
DAMAN
100
AcDbPolyline
 90
        4
 70
     1
 43
0.0
 10
16.3125
 20
7.03125
 10
16.3125
 20
13.15625
 10
18.3125
 20
13.15625
 10
18.3125
 20
7.03125
  0
LWPOLYLINE
  5
162
330
1E
100
AcDbEntity
  8
DAMAN
100
AcDbPolyline
 90
        4
 70
     1
 43
0.0
 10
8.4375
 20
7.03125
 10
8.4375
 20
13.15625
 10
12.9375
 20
13.15625
 10
12.9375
 20
7.03125
  0
INSERT
  5
168
330
1E
100
AcDbEntity
  8
DAMAN
100
AcDbBlockReference
  2
100CROSS
 10
11.75
 20
8.218249999999999
 30
0.0
 41
0.4379999999999999
 42
0.4379999999999999
  0
CIRCLE
  5
169
330
1E
100
AcDbEntity
  8
DAMAN
100
AcDbCircle
 10
11.75
 20
8.218249999999999
 30
0.0
 40
0.2189999999999999
  0
CIRCLE
  5
16A
330
1E
100
AcDbEntity
  8
DAMAN
100
AcDbCircle
 10
9.625
 20
11.96825
 30
0.0
 40
0.2189999999999999
  0
INSERT
  5
16B
330
1E
100
AcDbEntity
  8
DAMAN
100
AcDbBlockReference
  2
100CROSS
 10
9.625
 20
11.96825
 30
0.0
 41
0.4379999999999999
 42
0.4379999999999999
  0
INSERT
  5
16C
330
1E
100
AcDbEntity
  8
DAMAN
100
AcDbBlockReference
  2
100CROSS
 10
12.687
 20
8.937999999999998
 30
0.0
 41
0.25
 42
0.25
  0
CIRCLE
  5
16D
330
1E
100
AcDbEntity
  8
DAMAN
100
AcDbCircle
 10
12.687
 20
8.937999999999998
 30
0.0
 40
0.1405
  0
CIRCLE
  5
16E
330
1E
100
AcDbEntity
  8
DAMAN
100
AcDbCircle
 10
8.875
 20
11.5
 30
0.0
 40
0.1405
  0
INSERT
  5
16F
330
1E
100
AcDbEntity
  8
DAMAN
100
AcDbBlockReference
  2
100CROSS
 10
8.875
 20
11.5
 30
0.0
 41
0.25
 42
0.25
  0
CIRCLE
  5
170
330
1E
100
AcDbEntity
  8
DAMAN
100
AcDbCircle
 10
11.813
 20
11.50025
 30
0.0
 40
0.453
  0
INSERT
  5
171
330
1E
100
AcDbEntity
  8
DAMAN
100
AcDbBlockReference
  2
100CROSS
 10
11.813
 20
11.50025
 30
0.0
 41
0.8440000000000001
 42
0.8440000000000001
  0
INSERT
  5
172
330
1E
100
AcDbEntity
  8
DAMAN
100
AcDbBlockReference
  2
100CROSS
 10
11.813
 20
9.625249999999999
 30
0.0
 41
0.8440000000000001
 42
0.8440000000000001
  0
CIRCLE
  5
173
330
1E
100
AcDbEntity
  8
DAMAN
100
AcDbCircle
 10
11.813
 20
9.625249999999999
 30
0.0
 40
0.453
  0
INSERT
  5
174
330
1E
100
AcDbEntity
  8
DAMAN
100
AcDbBlockReference
  2
100CROSS
 10
9.562999999999998
 20
10.56275
 30
0.0
 41
0.8440000000000001
 42
0.8440000000000001
  0
CIRCLE
  5
175
330
1E
100
AcDbEntity
  8
DAMAN
100
AcDbCircle
 10
9.562999999999998
 20
10.56275
 30
0.0
 40
0.453
  0
CIRCLE
  5
176
330
1E
100
AcDbEntity
  8
DAMAN
100
AcDbCircle
 10
9.562999999999998
 20
8.687749999999999
 30
0.0
 40
0.453
  0
INSERT
  5
177
330
1E
100
AcDbEntity
  8
DAMAN
100
AcDbBlockReference
  2
100CROSS
 10
9.562999999999998
 20
8.687749999999999
 30
0.0
 41
0.8440000000000001
 42
0.8440000000000001
  0
CIRCLE
  5
178
330
1E
100
AcDbEntity
  8
DAMAN
100
AcDbCircle
 10
12.5
 20
10.56225
 30
0.0
 40
0.21875
  0
INSERT
  5
179
330
1E
100
AcDbEntity
  8
DAMAN
100
AcDbBlockReference
  2
100CROSS
 10
12.5
 20
10.56225
 30
0.0
 41
0.5
 42
0.5
  0
INSERT
  5
17A
330
1E
100
AcDbEntity
  8
DAMAN
100
AcDbBlockReference
  2
100CROSS
 10
8.875
 20
9.625249999999999
 30
0.0
 41
0.5
 42
0.5
  0
CIRCLE
  5
17B
330
1E
100
AcDbEntity
  8
DAMAN
100
AcDbCircle
 10
8.875
 20
9.625249999999999
 30
0.0
 40
0.21875
  0
INSERT
  5
17C
330
1E
100
AcDbEntity
  8
DAMAN
100
AcDbBlockReference
  2
100CROSS
 10
12.5
 20
7.53125
 30
0.0
 41
0.5
 42
0.5
  0
CIRCLE
  5
17D
330
1E
100
AcDbEntity
  8
DAMAN
100
AcDbCircle
 10
12.5
 20
7.53125
 30
0.0
 40
0.21875
  0
INSERT
  5
17E
330
1E
100
AcDbEntity
  8
DAMAN
100
AcDbBlockReference
  2
100CROSS
 10
12.5
 20
12.65625
 30
0.0
 41
0.5
 42
0.5
  0
CIRCLE
  5
17F
330
1E
100
AcDbEntity
  8
DAMAN
100
AcDbCircle
 10
12.5
 20
12.65625
 30
0.0
 40
0.21875
  0
INSERT
  5
180
330
1E
100
AcDbEntity
  8
DAMAN
100
AcDbBlockReference
  2
100CROSS
 10
8.875
 20
7.53125
 30
0.0
 41
0.5
 42
0.5
  0
CIRCLE
  5
181
330
1E
100
AcDbEntity
  8
DAMAN
100
AcDbCircle
 10
8.875
 20
7.53125
 30
0.0
 40
0.21875
  0
CIRCLE
  5
182
330
1E
100
AcDbEntity
  8
DAMAN
100
AcDbCircle
 10
8.875
 20
12.65625
 30
0.0
 40
0.21875
  0
INSERT
  5
183
330
1E
100
AcDbEntity
  8
DAMAN
100
AcDbBlockReference
  2
100CROSS
 10
8.875
 20
12.65625
 30
0.0
 41
0.5
 42
0.5
  0
CIRCLE
  5
184
330
1E
100
AcDbEntity
  8
DAMAN
100
AcDbCircle
 10
8.875
 20
7.53125
 30
0.0
 40
0.25
  0
CIRCLE
  5
185
330
1E
100
AcDbEntity
  8
DAMAN
100
AcDbCircle
 10
8.875
 20
12.65625
 30
0.0
 40
0.25
  0
CIRCLE
  5
186
330
1E
100
AcDbEntity
  8
DAMAN
100
AcDbCircle
 10
12.5
 20
7.53125
 30
0.0
 40
0.25
  0
CIRCLE
  5
187
330
1E
100
AcDbEntity
  8
DAMAN
100
AcDbCircle
 10
12.5
 20
12.65625
 30
0.0
 40
0.25
  0
CIRCLE
  5
188
330
1E
100
AcDbEntity
  8
DAMAN
100
AcDbCircle
 10
8.875
 20
9.625
 30
0.0
 40
0.25
  0
CIRCLE
  5
189
330
1E
100
AcDbEntity
  8
DAMAN
100
AcDbCircle
 10
12.5
 20
10.56225
 30
0.0
 40
0.25
  0
INSERT
  5
18A
330
1E
100
AcDbEntity
  8
DAMAN
100
AcDbBlockReference
  2
100CROSS
 10
10.6875
 20
12.65625
 30
0.0
 41
0.8125
 42
0.8125
 43
0.8125
  0
CIRCLE
  5
18B
330
1E
100
AcDbEntity
  8
DAMAN
100
AcDbCircle
 10
10.6875
 20
12.65625
 30
0.0
 40
0.40625
  0
CIRCLE
  5
18C
330
1E
100
AcDbEntity
  8
DAMAN
100
AcDbCircle
 10
10.6875
 20
12.65625
 30
0.0
 40
0.265625
  0
CIRCLE
  5
18D
330
1E
100
AcDbEntity
  8
DAMAN
100
AcDbCircle
 10
10.6875
 20
7.53125
 30
0.0
 40
0.265625
  0
CIRCLE
  5
18E
330
1E
100
AcDbEntity
  8
DAMAN
100
AcDbCircle
 10
10.6875
 20
7.53125
 30
0.0
 40
0.40625
  0
INSERT
  5
18F
330
1E
100
AcDbEntity
  8
DAMAN
100
AcDbBlockReference
  2
100CROSS
 10
10.6875
 20
7.53125
 30
0.0
 41
-0.8125
 42
0.8125
 43
0.8125
 50
180.0
  0
TEXT
  5
190
330
1E
100
AcDbEntity
  8
DAMAN
100
AcDbText
 10
4.40625
 20
12.71875
 30
0.0
 40
0.25
  1
X
 50
270.0
  7
STR
100
AcDbText
  0
TEXT
  5
191
330
1E
100
AcDbEntity
  8
DAMAN
100
AcDbText
 10
4.59375
 20
11.75
 30
0.0
 40
0.25
  1
A
 50
270.0
  7
STR
100
AcDbText
  0
TEXT
  5
192
330
1E
100
AcDbEntity
  8
DAMAN
100
AcDbText
 10
4.5625
 20
7.625
 30
0.0
 40
0.25
  1
B
 50
270.0
  7
STR
100
AcDbText
  0
TEXT
  5
193
330
1E
100
AcDbEntity
  8
DAMAN
100
AcDbText
 10
16.8125
 20
7.6875
 30
0.0
 40
0.25
  1
Y
 50
90.0
  7
STR
100
AcDbText
  0
TEXT
  5
194
330
1E
100
AcDbEntity
  8
DAMAN
100
AcDbText
 10
16.8125
 20
8.46875
 30
0.0
 40
0.25
  1
P
 50
90.0
  7
STR
100
AcDbText
  0
TEXT
  5
195
330
1E
100
AcDbEntity
  8
DAMAN
100
AcDbText
 10
16.78125
 20
12.5
 30
0.0
 40
0.25
  1
T
 50
90.0
  7
STR
100
AcDbText
  0
LINE
  5
196
330
1E
100
AcDbEntity
  8
DAMAN
100
AcDbLine
 10
8.4375
 20
3.375
 30
0.0
 11
12.9375
 21
3.375
 31
0.0
  0
LINE
  5
197
330
1E
100
AcDbEntity
  8
DAMAN
100
AcDbLine
 10
12.9375
 20
3.375
 30
0.0
 11
12.9375
 21
5.375
 31
0.0
  0
LINE
  5
198
330
1E
100
AcDbEntity
  8
DAMAN
100
AcDbLine
 10
12.9375
 20
5.375
 30
0.0
 11
8.4375
 21
5.375
 31
0.0
  0
LINE
  5
199
330
1E
100
AcDbEntity
  8
DAMAN
100
AcDbLine
 10
8.4375
 20
5.375
 30
0.0
 11
8.4375
 21
3.375
 31
0.0
  0
TEXT
  5
19A
330
1E
100
AcDbEntity
  8
DAMAN
100
AcDbText
 10
9.375
 20
4.84375
 30
0.0
 40
0.188
  1
DAMAN ****
100
AcDbText
  0
INSERT
  5
19B
330
1E
100
AcDbEntity
  8
DAMAN
100
AcDbBlockReference
  2
075NPTFT
 10
17.3125
 20
9.5625
 30
0.0
  0
INSERT
  5
19C
330
1E
100
AcDbEntity
  8
DAMAN
100
AcDbBlockReference
  2
075NPTFT
 10
17.3125
 20
11.5625
 30
0.0
  0
INSERT
  5
19D
330
1E
100
AcDbEntity
  8
DAMAN
100
AcDbBlockReference
  2
075NPTFT
 10
4.0625
 20
8.625
 30
0.0
  0
INSERT
  5
19E
330
1E
100
AcDbEntity
  8
DAMAN
100
AcDbBlockReference
  2
075NPTFT
 10
4.0625
 20
10.625
 30
0.0
  0
INSERT
  5
19F
330
1E
100
AcDbEntity
  8
DAMAN
100
AcDbBlockReference
  2
025NPTFT
 10
17.3125
 20
8.21875
 30
0.0
  0
INSERT
  5
1A0
330
1E
100
AcDbEntity
  8
DAMAN
100
AcDbBlockReference
  2
025NPTFT
 10
4.0625
 20
11.96875
 30
0.0
  0
ENDSEC
  0
SECTION
  2
OBJECTS
  0
DICTIONARY
  5
C
330
0
100
AcDbDictionary
  3
ACAD_GROUP
350
D
  3
ACAD_LAYOUT
350
19
  3
ACAD_MLINESTYLE
350
16
  3
ACAD_PLOTSETTINGS
350
18
  3
ACAD_PLOTSTYLENAME
350
E
  3
ACDBHEADERROUNDTRIPXREC
350
1A3
  0
DICTIONARY
  5
1C5
330
1E
100
AcDbDictionary
280
     1
  3
ACAD_LAYOUTSELFREF
360
1C6
  0
DICTIONARY
  5
1C3
330
1A
100
AcDbDictionary
280
     1
  3
ACAD_LAYOUTSELFREF
360
1C4
  0
DICTIONARY
  5
D
102
{ACAD_REACTORS
330
C
102
}
330
C
100
AcDbDictionary
  0
DICTIONARY
  5
19
102
{ACAD_REACTORS
330
C
102
}
330
C
100
AcDbDictionary
  0
DICTIONARY
  5
16
102
{ACAD_REACTORS
330
C
102
}
330
C
100
AcDbDictionary
  3
STANDARD
350
17
  0
DICTIONARY
  5
18
102
{ACAD_REACTORS
330
C
102
}
330
C
100
AcDbDictionary
  0
ACDBDICTIONARYWDFLT
  5
E
102
{ACAD_REACTORS
330
C
102
}
330
C
100
AcDbDictionary
281
     1
  3
Normal
350
F
100
AcDbDictionaryWithDefault
340
F
  0
DICTIONARY
  5
1A3
102
{ACAD_REACTORS
330
C
102
}
330
C
100
AcDbDictionary
  3
CEPSNTYPE
350
1AD
  3
FINGERPRINTGUID
350
1AE
  3
HYPERLINKBASE
350
1A6
  3
INSUNITS
350
1AC
  3
LAYOUTDICT
350
1A8
  3
LWETCUNION
350
1AB
  3
PLOTSETDICT
350
1A9
  3
PLOTSTYLNAMDICT
350
1AA
  3
PSVPSCALE
350
1B0
  3
PUCSBASE
350
1B3
  3
PUCSORGBACK
350
1B9
  3
PUCSORGBOTTOM
350
1B5
  3
PUCSORGFRONT
350
1B8
  3
PUCSORGLEFT
350
1B6
  3
PUCSORGRIGHT
350
1B7
  3
PUCSORGTOP
350
1B4
  3
PUCSORTHOREF
350
1B1
  3
PUCSORTHOVIEW
350
1B2
  3
STYLESHEET
350
1A7
  3
TSTACKALIGN
350
1A4
  3
TSTACKSIZE
350
1A5
  3
UCSBASE
350
1BC
  3
UCSORGBACK
350
1C2
  3
UCSORGBOTTOM
350
1BE
  3
UCSORGFRONT
350
1C1
  3
UCSORGLEFT
350
1BF
  3
UCSORGRIGHT
350
1C0
  3
UCSORGTOP
350
1BD
  3
UCSORTHOREF
350
1BA
  3
UCSORTHOVIEW
350
1BB
  3
VERSIONGUID
350
1AF
  0
XRECORD
  5
1C6
102
{ACAD_REACTORS
330
1C5
102
}
330
1C5
100
AcDbXrecord
340
1E
  0
XRECORD
  5
1C4
102
{ACAD_REACTORS
330
1C3
102
}
330
1C3
100
AcDbXrecord
340
1A
  0
MLINESTYLE
  5
17
102
{ACAD_REACTORS
330
16
102
}
330
16
100
AcDbMlineStyle
  2
STANDARD
 70
     0
  3

 62
   256
 51
90.0
 52
90.0
 71
     2
 49
0.5
 62
   256
  6
BYLAYER
 49
-0.5
 62
   256
  6
BYLAYER
  0
ACDBPLACEHOLDER
  5
F
102
{ACAD_REACTORS
330
E
102
}
330
E
100
AcDbPlaceHolder
280
     0
  0
XRECORD
  5
1AD
102
{ACAD_REACTORS
330
1A3
102
}
330
1A3
100
AcDbXrecord
 90
        0
  0
XRECORD
  5
1AE
102
{ACAD_REACTORS
330
1A3
102
}
330
1A3
100
AcDbXrecord
  1
{CA3FDF98-6290-4273-8E03-B1604F00F794}
  0
XRECORD
  5
1A6
102
{ACAD_REACTORS
330
1A3
102
}
330
1A3
100
AcDbXrecord
  1

  0
XRECORD
  5
1AC
102
{ACAD_REACTORS
330
1A3
102
}
330
1A3
100
AcDbXrecord
 90
        0
  0
XRECORD
  5
1A8
102
{ACAD_REACTORS
330
1A3
102
}
330
1A3
100
AcDbXrecord
340
19
  0
XRECORD
  5
1AB
102
{ACAD_REACTORS
330
1A3
102
}
330
1A3
100
AcDbXrecord
 90
    10781
  0
XRECORD
  5
1A9
102
{ACAD_REACTORS
330
1A3
102
}
330
1A3
100
AcDbXrecord
340
18
  0
XRECORD
  5
1AA
102
{ACAD_REACTORS
330
1A3
102
}
330
1A3
100
AcDbXrecord
340
E
  0
XRECORD
  5
1B0
102
{ACAD_REACTORS
330
1A3
102
}
330
1A3
100
AcDbXrecord
 40
0.0
  0
XRECORD
  5
1B3
102
{ACAD_REACTORS
330
1A3
102
}
330
1A3
100
AcDbXrecord
340
0
  0
XRECORD
  5
1B9
102
{ACAD_REACTORS
330
1A3
102
}
330
1A3
100
AcDbXrecord
 10
0.0
 20
0.0
 30
0.0
  0
XRECORD
  5
1B5
102
{ACAD_REACTORS
330
1A3
102
}
330
1A3
100
AcDbXrecord
 10
0.0
 20
0.0
 30
0.0
  0
XRECORD
  5
1B8
102
{ACAD_REACTORS
330
1A3
102
}
330
1A3
100
AcDbXrecord
 10
0.0
 20
0.0
 30
0.0
  0
XRECORD
  5
1B6
102
{ACAD_REACTORS
330
1A3
102
}
330
1A3
100
AcDbXrecord
 10
0.0
 20
0.0
 30
0.0
  0
XRECORD
  5
1B7
102
{ACAD_REACTORS
330
1A3
102
}
330
1A3
100
AcDbXrecord
 10
0.0
 20
0.0
 30
0.0
  0
XRECORD
  5
1B4
102
{ACAD_REACTORS
330
1A3
102
}
330
1A3
100
AcDbXrecord
 10
0.0
 20
0.0
 30
0.0
  0
XRECORD
  5
1B1
102
{ACAD_REACTORS
330
1A3
102
}
330
1A3
100
AcDbXrecord
340
0
  0
XRECORD
  5
1B2
102
{ACAD_REACTORS
330
1A3
102
}
330
1A3
100
AcDbXrecord
 70
     0
  0
XRECORD
  5
1A7
102
{ACAD_REACTORS
330
1A3
102
}
330
1A3
100
AcDbXrecord
  1

  0
XRECORD
  5
1A4
102
{ACAD_REACTORS
330
1A3
102
}
330
1A3
100
AcDbXrecord
 90
        1
  0
XRECORD
  5
1A5
102
{ACAD_REACTORS
330
1A3
102
}
330
1A3
100
AcDbXrecord
 90
       70
  0
XRECORD
  5
1BC
102
{ACAD_REACTORS
330
1A3
102
}
330
1A3
100
AcDbXrecord
340
0
  0
XRECORD
  5
1C2
102
{ACAD_REACTORS
330
1A3
102
}
330
1A3
100
AcDbXrecord
 10
0.0
 20
0.0
 30
0.0
  0
XRECORD
  5
1BE
102
{ACAD_REACTORS
330
1A3
102
}
330
1A3
100
AcDbXrecord
 10
0.0
 20
0.0
 30
0.0
  0
XRECORD
  5
1C1
102
{ACAD_REACTORS
330
1A3
102
}
330
1A3
100
AcDbXrecord
 10
0.0
 20
0.0
 30
0.0
  0
XRECORD
  5
1BF
102
{ACAD_REACTORS
330
1A3
102
}
330
1A3
100
AcDbXrecord
 10
0.0
 20
0.0
 30
0.0
  0
XRECORD
  5
1C0
102
{ACAD_REACTORS
330
1A3
102
}
330
1A3
100
AcDbXrecord
 10
0.0
 20
0.0
 30
0.0
  0
XRECORD
  5
1BD
102
{ACAD_REACTORS
330
1A3
102
}
330
1A3
100
AcDbXrecord
 10
0.0
 20
0.0
 30
0.0
  0
XRECORD
  5
1BA
102
{ACAD_REACTORS
330
1A3
102
}
330
1A3
100
AcDbXrecord
340
0
  0
XRECORD
  5
1BB
102
{ACAD_REACTORS
330
1A3
102
}
330
1A3
100
AcDbXrecord
 70
     0
  0
XRECORD
  5
1AF
102
{ACAD_REACTORS
330
1A3
102
}
330
1A3
100
AcDbXrecord
  1
{90F2CFFE-ACB1-4007-BF39-00A592879C1A}
  0
ENDSEC
  0
EOF
