  0
SECTION
  2
HEADER
  9
$ACADVER
  1
AC1014
  9
$ACADMAINTVER
 70
     9
  9
$DWGCODEPAGE
  3
ANSI_1252
  9
$INSBASE
 10
0.0
 20
0.0
 30
0.0
  9
$EXTMIN
 10
-0.4078864302117893
 20
-6.657205523339847
 30
-0.0000000349181948
  9
$EXTMAX
 10
31.6572972597841
 20
7.250515516818595
 30
0.0000000814935747
  9
$LIMMIN
 10
0.0
 20
0.0
  9
$LIMMAX
 10
12.0
 20
9.0
  9
$ORTHOMODE
 70
     1
  9
$REGENMODE
 70
     1
  9
$FILLMODE
 70
     1
  9
$QTEXTMODE
 70
     0
  9
$MIRRTEXT
 70
     1
  9
$DRAGMODE
 70
     2
  9
$LTSCALE
 40
1.0
  9
$OSMODE
 70
    37
  9
$ATTMODE
 70
     1
  9
$TEXTSIZE
 40
0.25
  9
$TRACEWID
 40
0.05
  9
$TEXTSTYLE
  7
STANDARD
  9
$CLAYER
  8
DAMAN
  9
$CELTYPE
  6
BYLAYER
  9
$CECOLOR
 62
   256
  9
$CELTSCALE
 40
1.0
  9
$DELOBJ
 70
     1
  9
$DISPSILH
 70
     0
  9
$DIMSCALE
 40
1.0
  9
$DIMASZ
 40
0.18
  9
$DIMEXO
 40
0.0625
  9
$DIMDLI
 40
0.38
  9
$DIMRND
 40
0.0
  9
$DIMDLE
 40
0.0
  9
$DIMEXE
 40
0.18
  9
$DIMTP
 40
0.0
  9
$DIMTM
 40
0.0
  9
$DIMTXT
 40
0.18
  9
$DIMCEN
 40
0.09
  9
$DIMTSZ
 40
0.0
  9
$DIMTOL
 70
     0
  9
$DIMLIM
 70
     0
  9
$DIMTIH
 70
     1
  9
$DIMTOH
 70
     1
  9
$DIMSE1
 70
     0
  9
$DIMSE2
 70
     0
  9
$DIMTAD
 70
     0
  9
$DIMZIN
 70
     0
  9
$DIMBLK
  1

  9
$DIMASO
 70
     1
  9
$DIMSHO
 70
     1
  9
$DIMPOST
  1

  9
$DIMAPOST
  1

  9
$DIMALT
 70
     0
  9
$DIMALTD
 70
     2
  9
$DIMALTF
 40
25.4
  9
$DIMLFAC
 40
1.0
  9
$DIMTOFL
 70
     0
  9
$DIMTVP
 40
0.0
  9
$DIMTIX
 70
     0
  9
$DIMSOXD
 70
     0
  9
$DIMSAH
 70
     0
  9
$DIMBLK1
  1

  9
$DIMBLK2
  1

  9
$DIMSTYLE
  2
STANDARD
  9
$DIMCLRD
 70
     0
  9
$DIMCLRE
 70
     0
  9
$DIMCLRT
 70
     0
  9
$DIMTFAC
 40
1.0
  9
$DIMGAP
 40
0.09
  9
$DIMJUST
 70
     0
  9
$DIMSD1
 70
     0
  9
$DIMSD2
 70
     0
  9
$DIMTOLJ
 70
     1
  9
$DIMTZIN
 70
     0
  9
$DIMALTZ
 70
     0
  9
$DIMALTTZ
 70
     0
  9
$DIMFIT
 70
     3
  9
$DIMUPT
 70
     0
  9
$DIMUNIT
 70
     2
  9
$DIMDEC
 70
     4
  9
$DIMTDEC
 70
     4
  9
$DIMALTU
 70
     2
  9
$DIMALTTD
 70
     2
  9
$DIMTXSTY
  7
STANDARD
  9
$DIMAUNIT
 70
     0
  9
$LUNITS
 70
     2
  9
$LUPREC
 70
     4
  9
$SKETCHINC
 40
0.1
  9
$FILLETRAD
 40
0.0
  9
$AUNITS
 70
     0
  9
$AUPREC
 70
     0
  9
$MENU
  1
tom
  9
$ELEVATION
 40
0.0
  9
$PELEVATION
 40
0.0
  9
$THICKNESS
 40
0.0
  9
$LIMCHECK
 70
     0
  9
$BLIPMODE
 70
     0
  9
$CHAMFERA
 40
0.0
  9
$CHAMFERB
 40
0.0
  9
$CHAMFERC
 40
0.0
  9
$CHAMFERD
 40
0.0
  9
$SKPOLY
 70
     0
  9
$TDCREATE
 40
2449760.423024248
  9
$TDUPDATE
 40
2453420.344971134
  9
$TDINDWG
 40
0.0108851273
  9
$TDUSRTIMER
 40
0.0108851273
  9
$USRTIMER
 70
     1
  9
$ANGBASE
 50
0.0
  9
$ANGDIR
 70
     0
  9
$PDMODE
 70
     0
  9
$PDSIZE
 40
0.0
  9
$PLINEWID
 40
0.0
  9
$COORDS
 70
     1
  9
$SPLFRAME
 70
     0
  9
$SPLINETYPE
 70
     6
  9
$SPLINESEGS
 70
     8
  9
$ATTDIA
 70
     0
  9
$ATTREQ
 70
     1
  9
$HANDLING
 70
-16383
  9
$HANDSEED
  5
47D
  9
$SURFTAB1
 70
     6
  9
$SURFTAB2
 70
     6
  9
$SURFTYPE
 70
     6
  9
$SURFU
 70
     6
  9
$SURFV
 70
     6
  9
$UCSNAME
  2

  9
$UCSORG
 10
0.0
 20
0.0
 30
0.0
  9
$UCSXDIR
 10
1.0
 20
0.0
 30
0.0
  9
$UCSYDIR
 10
0.0
 20
1.0
 30
0.0
  9
$PUCSNAME
  2

  9
$PUCSORG
 10
0.0
 20
0.0
 30
0.0
  9
$PUCSXDIR
 10
1.0
 20
0.0
 30
0.0
  9
$PUCSYDIR
 10
0.0
 20
1.0
 30
0.0
  9
$USERI1
 70
     0
  9
$USERI2
 70
     0
  9
$USERI3
 70
     0
  9
$USERI4
 70
     0
  9
$USERI5
 70
     0
  9
$USERR1
 40
0.0
  9
$USERR2
 40
0.0
  9
$USERR3
 40
0.0
  9
$USERR4
 40
0.0
  9
$USERR5
 40
0.0
  9
$WORLDVIEW
 70
     1
  9
$SHADEDGE
 70
     3
  9
$SHADEDIF
 70
    70
  9
$TILEMODE
 70
     1
  9
$MAXACTVP
 70
    16
  9
$PINSBASE
 10
0.0
 20
0.0
 30
0.0
  9
$PLIMCHECK
 70
     0
  9
$PEXTMIN
 10
1.000000000000000E+20
 20
1.000000000000000E+20
 30
1.000000000000000E+20
  9
$PEXTMAX
 10
-1.000000000000000E+20
 20
-1.000000000000000E+20
 30
-1.000000000000000E+20
  9
$PLIMMIN
 10
0.0
 20
0.0
  9
$PLIMMAX
 10
12.0
 20
9.0
  9
$UNITMODE
 70
     0
  9
$VISRETAIN
 70
     0
  9
$PLINEGEN
 70
     0
  9
$PSLTSCALE
 70
     1
  9
$TREEDEPTH
 70
  3020
  9
$PICKSTYLE
 70
     1
  9
$CMLSTYLE
  2
STANDARD
  9
$CMLJUST
 70
     0
  9
$CMLSCALE
 40
1.0
  9
$PROXYGRAPHICS
 70
     1
  9
$MEASUREMENT
 70
     0
  0
ENDSEC
  0
SECTION
  2
CLASSES
  0
CLASS
  1
ACDBDICTIONARYWDFLT
  2
AcDbDictionaryWithDefault
  3
AutoCAD 2000
 90
        0
280
     0
281
     0
  0
CLASS
  1
ACDBPLACEHOLDER
  2
AcDbPlaceHolder
  3
AutoCAD 2000
 90
        0
280
     0
281
     0
  0
CLASS
  1
LAYOUT
  2
AcDbLayout
  3
AutoCAD 2000
 90
        0
280
     0
281
     0
  0
CLASS
  1
LONG_TRANSACTION
  2
AcDbLongTransaction
  3
AutoCAD 2000
 90
        0
280
     0
281
     0
  0
CLASS
  1
LWPOLYLINE
  2
AcDbPolyline
  3
AutoCAD 2000
 90
        0
280
     0
281
     1
  0
CLASS
  1
HATCH
  2
AcDbHatch
  3
AutoCAD 2000
 90
        0
280
     0
281
     1
  0
CLASS
  1
XRECORD
  2
AcDbXrecord
  3
AutoCAD 2000
 90
        0
280
     0
281
     0
  0
CLASS
  1
LONG_TRANSACTION
  2
AcDbLongTransaction
  3
AutoCAD 2000
 90
        0
280
     0
281
     0
  0
CLASS
  1
LWPOLYLINE
  2
AcDbPolyline
  3
AutoCAD 2000
 90
        0
280
     0
281
     1
  0
CLASS
  1
HATCH
  2
AcDbHatch
  3
AutoCAD 2000
 90
        0
280
     0
281
     1
  0
CLASS
  1
XRECORD
  2
AcDbXrecord
  3
AutoCAD 2000
 90
        0
280
     0
281
     0
  0
ENDSEC
  0
SECTION
  2
TABLES
  0
TABLE
  2
VPORT
  5
8
330
0
100
AcDbSymbolTable
 70
     2
  0
VPORT
  5
45A
330
8
100
AcDbSymbolTableRecord
100
AcDbViewportTableRecord
  2
*ACTIVE
 70
     0
 10
0.0
 20
0.0
 11
1.0
 21
1.0
 12
15.62470541478615
 22
0.2966549967393739
 13
0.0
 23
0.0
 14
0.03125
 24
0.03125
 15
0.0
 25
0.0
 16
0.0
 26
0.0
 36
1.0
 17
0.0
 27
0.0
 37
0.0
 40
19.58494848054161
 41
1.647569444444444
 42
50.0
 43
0.0
 44
0.0
 50
0.0
 51
0.0
 71
     0
 72
   100
 73
     1
 74
     1
 75
     1
 76
     0
 77
     0
 78
     0
  0
ENDTAB
  0
TABLE
  2
LTYPE
  5
5
330
0
100
AcDbSymbolTable
 70
     6
  0
LTYPE
  5
13
330
5
100
AcDbSymbolTableRecord
100
AcDbLinetypeTableRecord
  2
BYBLOCK
 70
     0
  3

 72
    65
 73
     0
 40
0.0
  0
LTYPE
  5
14
330
5
100
AcDbSymbolTableRecord
100
AcDbLinetypeTableRecord
  2
BYLAYER
 70
     0
  3

 72
    65
 73
     0
 40
0.0
  0
LTYPE
  5
15
330
5
100
AcDbSymbolTableRecord
100
AcDbLinetypeTableRecord
  2
CONTINUOUS
 70
     0
  3
Solid line
 72
    65
 73
     0
 40
0.0
  0
LTYPE
  5
24
330
5
100
AcDbSymbolTableRecord
100
AcDbLinetypeTableRecord
  2
HIDDEN
 70
     0
  3
_ _ _ _ _ _ _ _ _ _ _ _ _ _ _ _ _ _ _ _ _ _ _
 72
    65
 73
     2
 40
0.375
 49
0.25
 74
     0
 49
-0.125
 74
     0
  0
LTYPE
  5
25
330
5
100
AcDbSymbolTableRecord
100
AcDbLinetypeTableRecord
  2
CENTER
 70
     0
  3
____ _ ____ _ ____ _ ____ _ ____ _ ____ _ ____
 72
    65
 73
     4
 40
2.0
 49
1.25
 74
     0
 49
-0.25
 74
     0
 49
0.25
 74
     0
 49
-0.25
 74
     0
  0
LTYPE
  5
26
330
5
100
AcDbSymbolTableRecord
100
AcDbLinetypeTableRecord
  2
PHANTOM
 70
     0
  3
_____ _ _ _____ _ _ _____ _ _ _____ _ _ ____
 72
    65
 73
     6
 40
2.5
 49
1.25
 74
     0
 49
-0.25
 74
     0
 49
0.25
 74
     0
 49
-0.25
 74
     0
 49
0.25
 74
     0
 49
-0.25
 74
     0
  0
LTYPE
  5
27
330
5
100
AcDbSymbolTableRecord
100
AcDbLinetypeTableRecord
  2
DOT
 70
     0
  3
. . . . . . . . . . . . . . . . . . . . . . . .
 72
    65
 73
     2
 40
0.25
 49
0.0
 74
     0
 49
-0.25
 74
     0
  0
LTYPE
  5
28
330
5
100
AcDbSymbolTableRecord
100
AcDbLinetypeTableRecord
  2
DASHED
 70
     0
  3
__ __ __ __ __ __ __ __ __ __ __ __ __ __ __ __
 72
    65
 73
     2
 40
0.75
 49
0.5
 74
     0
 49
-0.25
 74
     0
  0
ENDTAB
  0
TABLE
  2
LAYER
  5
2
330
0
100
AcDbSymbolTable
 70
    11
  0
LAYER
  5
10
330
2
100
AcDbSymbolTableRecord
100
AcDbLayerTableRecord
  2
0
 70
     0
 62
     7
  6
CONTINUOUS
  0
LAYER
  5
22
330
2
100
AcDbSymbolTableRecord
100
AcDbLayerTableRecord
  2
DAMAN
 70
     0
 62
     5
  6
CONTINUOUS
  0
LAYER
  5
29
330
2
100
AcDbSymbolTableRecord
100
AcDbLayerTableRecord
  2
CSOLID
 70
     0
 62
     3
  6
CONTINUOUS
  0
LAYER
  5
2A
330
2
100
AcDbSymbolTableRecord
100
AcDbLayerTableRecord
  2
CHIDDEN
 70
     0
 62
     3
  6
HIDDEN
  0
LAYER
  5
2B
330
2
100
AcDbSymbolTableRecord
100
AcDbLayerTableRecord
  2
CCENTER
 70
     0
 62
     4
  6
CENTER
  0
LAYER
  5
2C
330
2
100
AcDbSymbolTableRecord
100
AcDbLayerTableRecord
  2
PHANTOM
 70
     0
 62
     1
  6
PHANTOM
  0
LAYER
  5
2D
330
2
100
AcDbSymbolTableRecord
100
AcDbLayerTableRecord
  2
BORDER
 70
     0
 62
     7
  6
CONTINUOUS
  0
LAYER
  5
2E
330
2
100
AcDbSymbolTableRecord
100
AcDbLayerTableRecord
  2
SOLID
 70
     0
 62
     4
  6
CONTINUOUS
  0
LAYER
  5
2F
330
2
100
AcDbSymbolTableRecord
100
AcDbLayerTableRecord
  2
CDIM
 70
     0
 62
     2
  6
CONTINUOUS
  0
LAYER
  5
30
330
2
100
AcDbSymbolTableRecord
100
AcDbLayerTableRecord
  2
CENTER
 70
     0
 62
     4
  6
CENTER
  0
LAYER
  5
31
330
2
100
AcDbSymbolTableRecord
100
AcDbLayerTableRecord
  2
HIDDEN
 70
     0
 62
     6
  6
HIDDEN
  0
ENDTAB
  0
TABLE
  2
STYLE
  5
3
330
0
100
AcDbSymbolTable
 70
     2
  0
STYLE
  5
11
330
3
100
AcDbSymbolTableRecord
100
AcDbTextStyleTableRecord
  2
STANDARD
 70
     0
 40
0.0
 41
1.0
 50
0.0
 71
     0
 42
0.25
  3
txt
  4

  0
STYLE
  5
32
330
3
100
AcDbSymbolTableRecord
100
AcDbTextStyleTableRecord
  2
STR
 70
     0
 40
0.0
 41
1.0
 50
0.0
 71
     0
 42
0.2
  3
SIMPLEX
  4

  0
ENDTAB
  0
TABLE
  2
VIEW
  5
6
330
0
100
AcDbSymbolTable
 70
     0
  0
ENDTAB
  0
TABLE
  2
UCS
  5
7
330
0
100
AcDbSymbolTable
 70
     0
  0
ENDTAB
  0
TABLE
  2
APPID
  5
9
330
0
100
AcDbSymbolTable
 70
     1
  0
APPID
  5
12
330
9
100
AcDbSymbolTableRecord
100
AcDbRegAppTableRecord
  2
ACAD
 70
     0
  0
ENDTAB
  0
TABLE
  2
DIMSTYLE
  5
A
330
0
100
AcDbSymbolTable
 70
     1
  0
DIMSTYLE
105
429
330
A
100
AcDbSymbolTableRecord
100
AcDbDimStyleTableRecord
  2
STANDARD
 70
     0
  3

  4

  5

  6

  7

 40
1.0
 41
0.18
 42
0.0625
 43
0.38
 44
0.18
 45
0.0
 46
0.0
 47
0.0
 48
0.0
140
0.18
141
0.09
142
0.0
143
25.4
144
1.0
145
0.0
146
1.0
147
0.09
 71
     0
 72
     0
 73
     1
 74
     1
 75
     0
 76
     0
 77
     0
 78
     0
170
     0
171
     2
172
     0
173
     0
174
     0
175
     0
176
     0
177
     0
178
     0
270
     2
271
     4
272
     4
273
     2
274
     2
340
11
275
     0
280
     0
281
     0
282
     0
283
     1
284
     0
285
     0
286
     0
287
     3
288
     0
  0
ENDTAB
  0
TABLE
  2
BLOCK_RECORD
  5
1
330
0
100
AcDbSymbolTable
 70
    22
  0
BLOCK_RECORD
  5
1E
102
{ACAD_XDICTIONARY
360
44D
102
}
330
1
100
AcDbSymbolTableRecord
100
AcDbBlockTableRecord
  2
*MODEL_SPACE
  0
BLOCK_RECORD
  5
1A
102
{ACAD_XDICTIONARY
360
44B
102
}
330
1
100
AcDbSymbolTableRecord
100
AcDbBlockTableRecord
  2
*PAPER_SPACE
  0
BLOCK_RECORD
  5
35
330
1
100
AcDbSymbolTableRecord
100
AcDbBlockTableRecord
  2
125NPTFT
  0
BLOCK_RECORD
  5
39
330
1
100
AcDbSymbolTableRecord
100
AcDbBlockTableRecord
  2
100CROSS
  0
BLOCK_RECORD
  5
3E
330
1
100
AcDbSymbolTableRecord
100
AcDbBlockTableRecord
  2
050CROSS
  0
BLOCK_RECORD
  5
49
330
1
100
AcDbSymbolTableRecord
100
AcDbBlockTableRecord
  2
100NPTFT
  0
BLOCK_RECORD
  5
50
330
1
100
AcDbSymbolTableRecord
100
AcDbBlockTableRecord
  2
600MKT
  0
BLOCK_RECORD
  5
96
330
1
100
AcDbSymbolTableRecord
100
AcDbBlockTableRecord
  2
D07D08MK
  0
BLOCK_RECORD
  5
116
330
1
100
AcDbSymbolTableRecord
100
AcDbBlockTableRecord
  2
MACL
  0
BLOCK_RECORD
  5
127
330
1
100
AcDbSymbolTableRecord
100
AcDbBlockTableRecord
  2
300MKT
  0
BLOCK_RECORD
  5
12B
330
1
100
AcDbSymbolTableRecord
100
AcDbBlockTableRecord
  2
D03
  0
BLOCK_RECORD
  5
12D
330
1
100
AcDbSymbolTableRecord
100
AcDbBlockTableRecord
  2
10SAET
  0
BLOCK_RECORD
  5
132
330
1
100
AcDbSymbolTableRecord
100
AcDbBlockTableRecord
  2
08SAET
  0
BLOCK_RECORD
  5
191
330
1
100
AcDbSymbolTableRecord
100
AcDbBlockTableRecord
  2
300MKS
  0
BLOCK_RECORD
  5
19F
330
1
100
AcDbSymbolTableRecord
100
AcDbBlockTableRecord
  2
06SAET
  0
BLOCK_RECORD
  5
240
330
1
100
AcDbSymbolTableRecord
100
AcDbBlockTableRecord
  2
MABL
  0
BLOCK_RECORD
  5
2C7
330
1
100
AcDbSymbolTableRecord
100
AcDbBlockTableRecord
  2
600MK
  0
BLOCK_RECORD
  5
306
330
1
100
AcDbSymbolTableRecord
100
AcDbBlockTableRecord
  2
600MKS
  0
BLOCK_RECORD
  5
333
330
1
100
AcDbSymbolTableRecord
100
AcDbBlockTableRecord
  2
D08NOX
  0
BLOCK_RECORD
  5
356
330
1
100
AcDbSymbolTableRecord
100
AcDbBlockTableRecord
  2
D08
  0
BLOCK_RECORD
  5
379
330
1
100
AcDbSymbolTableRecord
100
AcDbBlockTableRecord
  2
038NPTFT
  0
BLOCK_RECORD
  5
37B
330
1
100
AcDbSymbolTableRecord
100
AcDbBlockTableRecord
  2
375NPTFT
  0
BLOCK_RECORD
  5
384
330
1
100
AcDbSymbolTableRecord
100
AcDbBlockTableRecord
  2
025NPTFT
  0
BLOCK_RECORD
  5
386
330
1
100
AcDbSymbolTableRecord
100
AcDbBlockTableRecord
  2
250NPTFT
  0
ENDTAB
  0
ENDSEC
  0
SECTION
  2
BLOCKS
  0
BLOCK
  5
1F
330
1E
100
AcDbEntity
  8
0
100
AcDbBlockBegin
  2
*MODEL_SPACE
 70
     0
 10
0.0
 20
0.0
 30
0.0
  3
*MODEL_SPACE
  1

  0
ENDBLK
  5
20
330
1E
100
AcDbEntity
  8
0
100
AcDbBlockEnd
  0
BLOCK
  5
1B
330
1A
100
AcDbEntity
 67
     1
  8
0
100
AcDbBlockBegin
  2
*PAPER_SPACE
 70
     0
 10
0.0
 20
0.0
 30
0.0
  3
*PAPER_SPACE
  1

  0
ENDBLK
  5
1C
330
1A
100
AcDbEntity
 67
     1
  8
0
100
AcDbBlockEnd
  0
BLOCK
  5
36
330
35
100
AcDbEntity
  8
0
100
AcDbBlockBegin
  2
125NPTFT
 70
     0
 10
0.0
 20
0.0
 30
0.0
  3
125NPTFT
  1

  0
CIRCLE
  5
37
330
35
100
AcDbEntity
  8
DAMAN
100
AcDbCircle
 10
0.0
 20
0.0
 30
0.0
 40
0.8440000000000001
  0
CIRCLE
  5
38
330
35
100
AcDbEntity
  8
DAMAN
100
AcDbCircle
 10
0.0
 20
0.0
 30
0.0
 40
0.7265000000000002
  0
INSERT
  5
3A
330
35
100
AcDbEntity
  8
DAMAN
100
AcDbBlockReference
  2
100CROSS
 10
0.0
 20
0.0
 30
0.0
 41
1.399999999999999
 42
1.399999999999999
  0
CIRCLE
  5
3B
330
35
100
AcDbEntity
  8
DAMAN
100
AcDbCircle
 10
0.0
 20
0.0
 30
0.0
 40
0.78125
  0
ENDBLK
  5
3C
330
35
100
AcDbEntity
  8
0
100
AcDbBlockEnd
  0
BLOCK
  5
3D
330
39
100
AcDbEntity
  8
0
100
AcDbBlockBegin
  2
100CROSS
 70
     0
 10
15.0
 20
11.65625
 30
0.0
  3
100CROSS
  1

  0
INSERT
  5
3F
330
39
100
AcDbEntity
  8
0
100
AcDbBlockReference
  2
050CROSS
 10
15.0
 20
11.65625
 30
0.0
  0
ENDBLK
  5
40
330
39
100
AcDbEntity
  8
0
100
AcDbBlockEnd
  0
BLOCK
  5
41
330
3E
100
AcDbEntity
  8
0
100
AcDbBlockBegin
  2
050CROSS
 70
     0
 10
14.375
 20
12.0625
 30
0.0
  3
050CROSS
  1

  0
LINE
  5
42
330
3E
100
AcDbEntity
  8
0
100
AcDbLine
 10
14.375
 20
12.34375
 30
0.0
 11
14.375
 21
12.84375
 31
0.0
  0
LINE
  5
43
330
3E
100
AcDbEntity
  8
0
100
AcDbLine
 10
14.375
 20
11.9375
 30
0.0
 11
14.375
 21
12.1875
 31
0.0
  0
LINE
  5
44
330
3E
100
AcDbEntity
  8
0
100
AcDbLine
 10
14.375
 20
11.21874999999999
 30
0.0
 11
14.375
 21
11.78125
 31
0.0
  0
LINE
  5
45
330
3E
100
AcDbEntity
  8
0
100
AcDbLine
 10
14.625
 20
12.0625
 30
0.0
 11
15.1875
 21
12.0625
 31
0.0
  0
LINE
  5
46
330
3E
100
AcDbEntity
  8
0
100
AcDbLine
 10
14.28125
 20
12.0625
 30
0.0
 11
14.46875
 21
12.0625
 31
0.0
  0
LINE
  5
47
330
3E
100
AcDbEntity
  8
0
100
AcDbLine
 10
13.5625
 20
12.0625
 30
0.0
 11
14.125
 21
12.0625
 31
0.0
  0
ENDBLK
  5
48
330
3E
100
AcDbEntity
  8
0
100
AcDbBlockEnd
  0
BLOCK
  5
4A
330
49
100
AcDbEntity
  8
0
100
AcDbBlockBegin
  2
100NPTFT
 70
     0
 10
0.0
 20
0.0
 30
0.0
  3
100NPTFT
  1

  0
CIRCLE
  5
4B
330
49
100
AcDbEntity
  8
DAMAN
100
AcDbCircle
 10
0.0
 20
0.0
 30
0.0
 40
0.5625
  0
CIRCLE
  5
4C
330
49
100
AcDbEntity
  8
DAMAN
100
AcDbCircle
 10
0.0
 20
0.0
 30
0.0
 40
0.6720000000000002
  0
INSERT
  5
4D
330
49
100
AcDbEntity
  8
DAMAN
100
AcDbBlockReference
  2
100CROSS
 10
0.0
 20
0.0
 30
0.0
 41
1.199999999999999
 42
1.199999999999999
  0
CIRCLE
  5
4E
330
49
100
AcDbEntity
  8
DAMAN
100
AcDbCircle
 10
0.0
 20
0.0
 30
0.0
 40
0.625
  0
ENDBLK
  5
4F
330
49
100
AcDbEntity
  8
0
100
AcDbBlockEnd
  0
BLOCK
  5
51
330
50
100
AcDbEntity
  8
0
100
AcDbBlockBegin
  2
600MKT
 70
     0
 10
0.0
 20
0.0
 30
0.0
  3
600MKT
  1

  0
LINE
  5
52
330
50
100
AcDbEntity
  8
DAMAN
100
AcDbLine
 10
-0.5625
 20
6.0
 30
0.0
 11
1.0625
 21
6.0
 31
0.0
  0
LINE
  5
53
330
50
100
AcDbEntity
  8
DAMAN
100
AcDbLine
 10
1.0625
 20
6.0
 30
0.0
 11
1.0625
 21
0.0
 31
0.0
  0
LINE
  5
54
330
50
100
AcDbEntity
  8
DAMAN
100
AcDbLine
 10
1.0625
 20
0.0
 30
0.0
 11
-0.5625
 21
0.0
 31
0.0
  0
LINE
  5
55
330
50
100
AcDbEntity
  8
DAMAN
100
AcDbLine
 10
-0.5625
 20
0.0
 30
0.0
 11
-0.5625
 21
6.0
 31
0.0
  0
LINE
  5
56
330
50
100
AcDbEntity
  8
DAMAN
100
AcDbLine
 10
-0.375
 20
0.0
 30
0.0
 11
-0.375
 21
6.0
 31
0.0
  0
LINE
  5
57
330
50
100
AcDbEntity
  8
DAMAN
100
AcDbLine
 10
-0.375
 20
1.09375
 30
0.0
 11
-0.3125
 21
1.09375
 31
0.0
  0
LINE
  5
58
330
50
100
AcDbEntity
  8
DAMAN
100
AcDbLine
 10
-0.3125
 20
1.09375
 30
0.0
 11
-0.3125
 21
0.03125
 31
0.0
  0
LINE
  5
59
330
50
100
AcDbEntity
  8
DAMAN
100
AcDbLine
 10
-0.3125
 20
0.03125
 30
0.0
 11
-0.375
 21
0.03125
 31
0.0
  0
LINE
  5
5A
330
50
100
AcDbEntity
  8
DAMAN
100
AcDbLine
 10
-0.3125
 20
0.9955129999999996
 30
0.0
 11
-0.042835
 21
0.9955129999999996
 31
0.0
  0
LINE
  5
5B
330
50
100
AcDbEntity
  8
DAMAN
100
AcDbLine
 10
0.0
 20
0.921321
 30
0.0
 11
0.0
 21
0.203679
 31
0.0
  0
LINE
  5
5C
330
50
100
AcDbEntity
  8
DAMAN
100
AcDbLine
 10
-0.042835
 20
0.129487
 30
0.0
 11
-0.3125
 21
0.129487
 31
0.0
  0
LINE
  5
5D
330
50
100
AcDbEntity
  8
DAMAN
100
AcDbLine
 10
-0.3125
 20
0.7790060000000001
 30
0.0
 11
-0.0625
 21
0.7790060000000001
 31
0.0
  0
LINE
  5
5E
330
50
100
AcDbEntity
  8
DAMAN
100
AcDbLine
 10
-0.3125
 20
0.345994
 30
0.0
 11
-0.0625
 21
0.345994
 31
0.0
  0
ARC
  5
5F
330
50
100
AcDbEntity
  8
DAMAN
100
AcDbCircle
 10
-0.40625
 20
0.5625
 30
0.0
 40
0.40625
100
AcDbArc
 50
327.7957719999998
 51
32.204228
  0
ARC
  5
60
330
50
100
AcDbEntity
  8
DAMAN
100
AcDbCircle
 10
-0.125
 20
0.23774
 30
0.0
 40
0.125
100
AcDbArc
 50
300.0
 51
60.0
  0
ARC
  5
61
330
50
100
AcDbEntity
  8
DAMAN
100
AcDbCircle
 10
-0.125
 20
0.88726
 30
0.0
 40
0.125
100
AcDbArc
 50
300.0
 51
60.0
  0
LINE
  5
62
330
50
100
AcDbEntity
  8
DAMAN
100
AcDbLine
 10
-0.042835
 20
0.9955129999999996
 30
0.0
 11
0.0
 21
0.921321
 31
0.0
  0
LINE
  5
63
330
50
100
AcDbEntity
  8
DAMAN
100
AcDbLine
 10
-0.042835
 20
0.129487
 30
0.0
 11
0.0
 21
0.203679
 31
0.0
  0
LINE
  5
64
330
50
100
AcDbEntity
  8
DAMAN
100
AcDbLine
 10
-0.5625
 20
0.8125
 30
0.0
 11
-1.28125
 21
0.8125
 31
0.0
  0
LINE
  5
65
330
50
100
AcDbEntity
  8
DAMAN
100
AcDbLine
 10
-1.28125
 20
0.8125
 30
0.0
 11
-1.3125
 21
0.78125
 31
0.0
  0
LINE
  5
66
330
50
100
AcDbEntity
  8
DAMAN
100
AcDbLine
 10
-1.3125
 20
0.78125
 30
0.0
 11
-1.3125
 21
0.34375
 31
0.0
  0
LINE
  5
67
330
50
100
AcDbEntity
  8
DAMAN
100
AcDbLine
 10
-1.3125
 20
0.34375
 30
0.0
 11
-1.28125
 21
0.3125
 31
0.0
  0
LINE
  5
68
330
50
100
AcDbEntity
  8
DAMAN
100
AcDbLine
 10
-1.28125
 20
0.3125
 30
0.0
 11
-0.5625
 21
0.3125
 31
0.0
  0
LINE
  5
69
330
50
100
AcDbEntity
  8
DAMAN
100
AcDbLine
 10
-0.5625
 20
0.78125
 30
0.0
 11
-1.3125
 21
0.78125
 31
0.0
  0
LINE
  5
6A
330
50
100
AcDbEntity
  8
DAMAN
100
AcDbLine
 10
-0.5625
 20
0.34375
 30
0.0
 11
-1.3125
 21
0.34375
 31
0.0
  0
LINE
  5
6B
330
50
100
AcDbEntity
  8
DAMAN
100
AcDbLine
 10
0.125
 20
0.5625
 30
0.0
 11
-1.40625
 21
0.5625
 31
0.0
  0
LINE
  5
6C
330
50
100
AcDbEntity
  8
DAMAN
100
AcDbLine
 10
0.125
 20
5.4375
 30
0.0
 11
-1.40625
 21
5.4375
 31
0.0
  0
LINE
  5
6D
330
50
100
AcDbEntity
  8
DAMAN
100
AcDbLine
 10
-0.5625
 20
5.21875
 30
0.0
 11
-1.3125
 21
5.21875
 31
0.0
  0
LINE
  5
6E
330
50
100
AcDbEntity
  8
DAMAN
100
AcDbLine
 10
-1.28125
 20
5.1875
 30
0.0
 11
-0.5625
 21
5.1875
 31
0.0
  0
LINE
  5
6F
330
50
100
AcDbEntity
  8
DAMAN
100
AcDbLine
 10
-0.5625
 20
5.65625
 30
0.0
 11
-1.3125
 21
5.65625
 31
0.0
  0
LINE
  5
70
330
50
100
AcDbEntity
  8
DAMAN
100
AcDbLine
 10
-0.5625
 20
5.6875
 30
0.0
 11
-1.28125
 21
5.6875
 31
0.0
  0
LINE
  5
71
330
50
100
AcDbEntity
  8
DAMAN
100
AcDbLine
 10
-1.3125
 20
5.65625
 30
0.0
 11
-1.3125
 21
5.21875
 31
0.0
  0
LINE
  5
72
330
50
100
AcDbEntity
  8
DAMAN
100
AcDbLine
 10
-1.28125
 20
5.6875
 30
0.0
 11
-1.3125
 21
5.65625
 31
0.0
  0
LINE
  5
73
330
50
100
AcDbEntity
  8
DAMAN
100
AcDbLine
 10
-1.3125
 20
5.21875
 30
0.0
 11
-1.28125
 21
5.1875
 31
0.0
  0
ARC
  5
74
330
50
100
AcDbEntity
  8
DAMAN
100
AcDbCircle
 10
-0.40625
 20
5.4375
 30
0.0
 40
0.40625
100
AcDbArc
 50
327.7957719999998
 51
32.204228
  0
LINE
  5
75
330
50
100
AcDbEntity
  8
DAMAN
100
AcDbLine
 10
-0.3125
 20
5.96875
 30
0.0
 11
-0.3125
 21
4.90625
 31
0.0
  0
LINE
  5
76
330
50
100
AcDbEntity
  8
DAMAN
100
AcDbLine
 10
0.0
 20
5.796320999999998
 30
0.0
 11
0.0
 21
5.078679
 31
0.0
  0
ARC
  5
77
330
50
100
AcDbEntity
  8
DAMAN
100
AcDbCircle
 10
-0.125
 20
5.762259999999998
 30
0.0
 40
0.125
100
AcDbArc
 50
300.0
 51
60.0
  0
LINE
  5
78
330
50
100
AcDbEntity
  8
DAMAN
100
AcDbLine
 10
-0.042835
 20
5.870512999999998
 30
0.0
 11
0.0
 21
5.796320999999998
 31
0.0
  0
LINE
  5
79
330
50
100
AcDbEntity
  8
DAMAN
100
AcDbLine
 10
-0.3125
 20
5.870512999999998
 30
0.0
 11
-0.042835
 21
5.870512999999998
 31
0.0
  0
LINE
  5
7A
330
50
100
AcDbEntity
  8
DAMAN
100
AcDbLine
 10
-0.375
 20
5.96875
 30
0.0
 11
-0.3125
 21
5.96875
 31
0.0
  0
LINE
  5
7B
330
50
100
AcDbEntity
  8
DAMAN
100
AcDbLine
 10
-0.3125
 20
5.654005999999998
 30
0.0
 11
-0.0625
 21
5.654005999999998
 31
0.0
  0
ARC
  5
7C
330
50
100
AcDbEntity
  8
DAMAN
100
AcDbCircle
 10
-0.125
 20
5.11274
 30
0.0
 40
0.125
100
AcDbArc
 50
300.0
 51
60.0
  0
LINE
  5
7D
330
50
100
AcDbEntity
  8
DAMAN
100
AcDbLine
 10
-0.3125
 20
5.220994
 30
0.0
 11
-0.0625
 21
5.220994
 31
0.0
  0
LINE
  5
7E
330
50
100
AcDbEntity
  8
DAMAN
100
AcDbLine
 10
-0.042835
 20
5.004487
 30
0.0
 11
-0.3125
 21
5.004487
 31
0.0
  0
LINE
  5
7F
330
50
100
AcDbEntity
  8
DAMAN
100
AcDbLine
 10
-0.3125
 20
4.90625
 30
0.0
 11
-0.375
 21
4.90625
 31
0.0
  0
LINE
  5
80
330
50
100
AcDbEntity
  8
DAMAN
100
AcDbLine
 10
-0.042835
 20
5.004487
 30
0.0
 11
0.0
 21
5.078679
 31
0.0
  0
CIRCLE
  5
81
330
50
100
AcDbEntity
  8
DAMAN
100
AcDbCircle
 10
0.5
 20
5.4375
 30
0.0
 40
0.53125
  0
CIRCLE
  5
82
330
50
100
AcDbEntity
  8
DAMAN
100
AcDbCircle
 10
0.5
 20
0.5625
 30
0.0
 40
0.53125
  0
LWPOLYLINE
  5
83
330
50
100
AcDbEntity
  8
DAMAN
100
AcDbPolyline
 90
        6
 70
     1
 43
0.0
 10
0.875
 20
5.654005999999998
 10
0.5
 20
5.870512999999998
 10
0.125
 20
5.654005999999998
 10
0.125
 20
5.220994
 10
0.5
 20
5.004487
 10
0.875
 20
5.220994
  0
CIRCLE
  5
8B
330
50
100
AcDbEntity
  8
DAMAN
100
AcDbCircle
 10
0.5
 20
5.4375
 30
0.0
 40
0.375
  0
CIRCLE
  5
8C
330
50
100
AcDbEntity
  8
DAMAN
100
AcDbCircle
 10
0.5
 20
0.5625
 30
0.0
 40
0.375
  0
LWPOLYLINE
  5
8D
330
50
100
AcDbEntity
  8
DAMAN
100
AcDbPolyline
 90
        6
 70
     1
 43
0.0
 10
0.875
 20
0.7790060000000001
 10
0.5
 20
0.9955129999999996
 10
0.125
 20
0.7790060000000001
 10
0.125
 20
0.345994
 10
0.5
 20
0.129487
 10
0.875
 20
0.345994
  0
ENDBLK
  5
95
330
50
100
AcDbEntity
  8
0
100
AcDbBlockEnd
  0
BLOCK
  5
97
330
96
100
AcDbEntity
  8
0
100
AcDbBlockBegin
  2
D07D08MK
 70
     0
 10
0.0
 20
0.0
 30
0.0
  3
D07D08MK
  1

  0
LINE
  5
98
330
96
100
AcDbEntity
  8
SOLID
100
AcDbLine
 10
-11.5
 20
-0.5625
 30
0.0
 11
-11.5
 21
1.0625
 31
0.0
  0
LINE
  5
99
330
96
100
AcDbEntity
  8
SOLID
100
AcDbLine
 10
-11.5
 20
1.0625
 30
0.0
 11
-5.5
 21
1.0625
 31
0.0
  0
LINE
  5
9A
330
96
100
AcDbEntity
  8
SOLID
100
AcDbLine
 10
-5.5
 20
1.0625
 30
0.0
 11
-5.5
 21
-0.5625
 31
0.0
  0
LINE
  5
9B
330
96
100
AcDbEntity
  8
SOLID
100
AcDbLine
 10
-5.5
 20
-0.5625
 30
0.0
 11
-11.5
 21
-0.5625
 31
0.0
  0
LINE
  5
9C
330
96
100
AcDbEntity
  8
SOLID
100
AcDbLine
 10
-5.5
 20
-0.375
 30
0.0
 11
-11.5
 21
-0.375
 31
0.0
  0
CIRCLE
  5
9D
330
96
100
AcDbEntity
  8
SOLID
100
AcDbCircle
 10
-10.9375
 20
0.5
 30
0.0
 40
0.28125
  0
INSERT
  5
9E
330
96
100
AcDbEntity
  8
SOLID
100
AcDbBlockReference
  2
100CROSS
 10
-10.9375
 20
0.5
 30
0.0
 41
0.5625
 42
0.5625
 43
0.5625
  0
INSERT
  5
9F
330
96
100
AcDbEntity
  8
SOLID
100
AcDbBlockReference
  2
100CROSS
 10
-6.0625
 20
0.5
 30
0.0
 41
0.5625
 42
0.5625
 43
0.5625
  0
CIRCLE
  5
A0
330
96
100
AcDbEntity
  8
SOLID
100
AcDbCircle
 10
-6.0625
 20
0.5
 30
0.0
 40
0.28125
  0
CIRCLE
  5
A1
330
96
100
AcDbEntity
  8
SOLID
100
AcDbCircle
 10
-6.0625
 20
4.375
 30
0.0
 40
0.28125
  0
INSERT
  5
A2
330
96
100
AcDbEntity
  8
SOLID
100
AcDbBlockReference
  2
100CROSS
 10
-6.0625
 20
4.375
 30
0.0
 41
-0.5625
 42
0.5625
 43
0.5625
 50
180.0
  0
INSERT
  5
A3
330
96
100
AcDbEntity
  8
SOLID
100
AcDbBlockReference
  2
100CROSS
 10
-10.9375
 20
4.375
 30
0.0
 41
-0.5625
 42
0.5625
 43
0.5625
 50
180.0
  0
CIRCLE
  5
A4
330
96
100
AcDbEntity
  8
SOLID
100
AcDbCircle
 10
-10.9375
 20
4.375
 30
0.0
 40
0.28125
  0
LINE
  5
A5
330
96
100
AcDbEntity
  8
SOLID
100
AcDbLine
 10
-5.5
 20
5.25
 30
0.0
 11
-11.5
 21
5.25
 31
0.0
  0
LINE
  5
A6
330
96
100
AcDbEntity
  8
SOLID
100
AcDbLine
 10
-5.5
 20
5.4375
 30
0.0
 11
-11.5
 21
5.4375
 31
0.0
  0
LINE
  5
A7
330
96
100
AcDbEntity
  8
SOLID
100
AcDbLine
 10
-5.5
 20
3.8125
 30
0.0
 11
-5.5
 21
5.4375
 31
0.0
  0
LINE
  5
A8
330
96
100
AcDbEntity
  8
SOLID
100
AcDbLine
 10
-11.5
 20
3.8125
 30
0.0
 11
-5.5
 21
3.8125
 31
0.0
  0
LINE
  5
A9
330
96
100
AcDbEntity
  8
SOLID
100
AcDbLine
 10
-11.5
 20
5.4375
 30
0.0
 11
-11.5
 21
3.8125
 31
0.0
  0
LINE
  5
AA
330
96
100
AcDbEntity
  8
SOLID
100
AcDbLine
 10
-3.3125
 20
-0.5625
 30
0.0
 11
-3.3125
 21
-0.375
 31
0.0
  0
LINE
  5
AB
330
96
100
AcDbEntity
  8
SOLID
100
AcDbLine
 10
-3.3125
 20
-0.375
 30
0.0
 11
-2.125
 21
-0.375
 31
0.0
  0
LINE
  5
AC
330
96
100
AcDbEntity
  8
SOLID
100
AcDbLine
 10
-1.875
 20
-0.125
 30
0.0
 11
-1.875
 21
1.0625
 31
0.0
  0
LINE
  5
AD
330
96
100
AcDbEntity
  8
SOLID
100
AcDbLine
 10
-1.875
 20
1.0625
 30
0.0
 11
-1.6875
 21
1.0625
 31
0.0
  0
LINE
  5
AE
330
96
100
AcDbEntity
  8
SOLID
100
AcDbLine
 10
-1.6875
 20
1.0625
 30
0.0
 11
-1.6875
 21
-0.125
 31
0.0
  0
LINE
  5
AF
330
96
100
AcDbEntity
  8
SOLID
100
AcDbLine
 10
-2.125
 20
-0.5625
 30
0.0
 11
-3.3125
 21
-0.5625
 31
0.0
  0
ARC
  5
B0
330
96
100
AcDbEntity
  8
SOLID
100
AcDbCircle
 10
-2.125
 20
-0.125
 30
0.0
 40
0.25
100
AcDbArc
 50
270.0
 51
0.0
  0
ARC
  5
B1
330
96
100
AcDbEntity
  8
SOLID
100
AcDbCircle
 10
-2.125
 20
-0.125
 30
0.0
 40
0.4375
100
AcDbArc
 50
270.0
 51
0.0
  0
LWPOLYLINE
  5
B2
330
96
100
AcDbEntity
  8
BORDER
100
AcDbPolyline
 90
        7
 70
     1
 43
0.0
 10
-1.6875
 20
0.0
 10
-1.6875
 20
1.53125
 10
-1.25
 20
1.40625
 10
-0.9375
 20
1.0625
 10
-0.53125
 20
0.78125
 10
-0.3125
 20
0.375
 10
-0.40625
 20
0.0
  0
LINE
  5
BB
330
96
100
AcDbEntity
  8
SOLID
100
AcDbLine
 10
-3.28125
 20
-0.375
 30
0.0
 11
-3.28125
 21
-0.3125
 31
0.0
  0
LINE
  5
BC
330
96
100
AcDbEntity
  8
SOLID
100
AcDbLine
 10
-3.28125
 20
-0.3125
 30
0.0
 11
-2.21875
 21
-0.3125
 31
0.0
  0
LINE
  5
BD
330
96
100
AcDbEntity
  8
SOLID
100
AcDbLine
 10
-2.21875
 20
-0.3125
 30
0.0
 11
-2.21875
 21
-0.375
 31
0.0
  0
LINE
  5
BE
330
96
100
AcDbEntity
  8
SOLID
100
AcDbLine
 10
-3.183013
 20
-0.3125
 30
0.0
 11
-3.183013
 21
-0.042835
 31
0.0
  0
LINE
  5
BF
330
96
100
AcDbEntity
  8
SOLID
100
AcDbLine
 10
-3.108820999999998
 20
0.0
 30
0.0
 11
-2.391179
 21
0.0
 31
0.0
  0
LINE
  5
C0
330
96
100
AcDbEntity
  8
SOLID
100
AcDbLine
 10
-2.316986999999999
 20
-0.042835
 30
0.0
 11
-2.316986999999999
 21
-0.3125
 31
0.0
  0
LINE
  5
C1
330
96
100
AcDbEntity
  8
SOLID
100
AcDbLine
 10
-2.966506
 20
-0.3125
 30
0.0
 11
-2.966506
 21
-0.0625
 31
0.0
  0
LINE
  5
C2
330
96
100
AcDbEntity
  8
SOLID
100
AcDbLine
 10
-2.533493999999999
 20
-0.3125
 30
0.0
 11
-2.533493999999999
 21
-0.0625
 31
0.0
  0
ARC
  5
C3
330
96
100
AcDbEntity
  8
SOLID
100
AcDbCircle
 10
-2.75
 20
-0.40625
 30
0.0
 40
0.40625
100
AcDbArc
 50
57.79577200000001
 51
122.2042279999999
  0
ARC
  5
C4
330
96
100
AcDbEntity
  8
SOLID
100
AcDbCircle
 10
-2.42524
 20
-0.125
 30
0.0
 40
0.125
100
AcDbArc
 50
30.0
 51
150.0
  0
ARC
  5
C5
330
96
100
AcDbEntity
  8
SOLID
100
AcDbCircle
 10
-3.074759999999998
 20
-0.125
 30
0.0
 40
0.125
100
AcDbArc
 50
30.0
 51
150.0
  0
LINE
  5
C6
330
96
100
AcDbEntity
  8
SOLID
100
AcDbLine
 10
-3.183013
 20
-0.042835
 30
0.0
 11
-3.108820999999998
 21
0.0
 31
0.0
  0
LINE
  5
C7
330
96
100
AcDbEntity
  8
SOLID
100
AcDbLine
 10
-2.316986999999999
 20
-0.042835
 30
0.0
 11
-2.391179
 21
0.0
 31
0.0
  0
LINE
  5
C8
330
96
100
AcDbEntity
  8
SOLID
100
AcDbLine
 10
-3.0
 20
-0.5625
 30
0.0
 11
-3.0
 21
-1.28125
 31
0.0
  0
LINE
  5
C9
330
96
100
AcDbEntity
  8
SOLID
100
AcDbLine
 10
-3.0
 20
-1.28125
 30
0.0
 11
-2.96875
 21
-1.3125
 31
0.0
  0
LINE
  5
CA
330
96
100
AcDbEntity
  8
SOLID
100
AcDbLine
 10
-2.96875
 20
-1.3125
 30
0.0
 11
-2.53125
 21
-1.3125
 31
0.0
  0
LINE
  5
CB
330
96
100
AcDbEntity
  8
SOLID
100
AcDbLine
 10
-2.53125
 20
-1.3125
 30
0.0
 11
-2.5
 21
-1.28125
 31
0.0
  0
LINE
  5
CC
330
96
100
AcDbEntity
  8
SOLID
100
AcDbLine
 10
-2.5
 20
-1.28125
 30
0.0
 11
-2.5
 21
-0.5625
 31
0.0
  0
LINE
  5
CD
330
96
100
AcDbEntity
  8
HIDDEN
100
AcDbLine
 10
-2.96875
 20
-0.5625
 30
0.0
 11
-2.96875
 21
-1.3125
 31
0.0
  0
LINE
  5
CE
330
96
100
AcDbEntity
  8
HIDDEN
100
AcDbLine
 10
-2.53125
 20
-0.5625
 30
0.0
 11
-2.53125
 21
-1.3125
 31
0.0
  0
LINE
  5
CF
330
96
100
AcDbEntity
  8
CENTER
100
AcDbLine
 10
-2.75
 20
0.125
 30
0.0
 11
-2.75
 21
-1.40625
 31
0.0
  0
LINE
  5
D0
330
96
100
AcDbEntity
  8
SOLID
100
AcDbLine
 10
-2.207165
 20
0.9330129999999996
 30
0.0
 11
-2.25
 21
0.858821
 31
0.0
  0
LINE
  5
D1
330
96
100
AcDbEntity
  8
SOLID
100
AcDbLine
 10
-2.207165
 20
0.066987
 30
0.0
 11
-2.25
 21
0.141179
 31
0.0
  0
ARC
  5
D2
330
96
100
AcDbEntity
  8
SOLID
100
AcDbCircle
 10
-2.125
 20
0.17524
 30
0.0
 40
0.125
100
AcDbArc
 50
119.9999999999999
 51
239.9999999999999
  0
ARC
  5
D3
330
96
100
AcDbEntity
  8
SOLID
100
AcDbCircle
 10
-2.125
 20
0.82476
 30
0.0
 40
0.125
100
AcDbArc
 50
119.9999999999999
 51
239.9999999999999
  0
ARC
  5
D4
330
96
100
AcDbEntity
  8
SOLID
100
AcDbCircle
 10
-1.84375
 20
0.5
 30
0.0
 40
0.40625
100
AcDbArc
 50
147.795772
 51
212.2042279999999
  0
LINE
  5
D5
330
96
100
AcDbEntity
  8
SOLID
100
AcDbLine
 10
-1.9375
 20
0.7165060000000001
 30
0.0
 11
-2.1875
 21
0.7165060000000001
 31
0.0
  0
LINE
  5
D6
330
96
100
AcDbEntity
  8
SOLID
100
AcDbLine
 10
-1.9375
 20
0.283494
 30
0.0
 11
-2.1875
 21
0.283494
 31
0.0
  0
LINE
  5
D7
330
96
100
AcDbEntity
  8
SOLID
100
AcDbLine
 10
-2.207165
 20
0.9330129999999996
 30
0.0
 11
-1.9375
 21
0.9330129999999996
 31
0.0
  0
LINE
  5
D8
330
96
100
AcDbEntity
  8
SOLID
100
AcDbLine
 10
-2.25
 20
0.141179
 30
0.0
 11
-2.25
 21
0.858821
 31
0.0
  0
LINE
  5
D9
330
96
100
AcDbEntity
  8
SOLID
100
AcDbLine
 10
-1.9375
 20
0.066987
 30
0.0
 11
-2.207165
 21
0.066987
 31
0.0
  0
LINE
  5
DA
330
96
100
AcDbEntity
  8
SOLID
100
AcDbLine
 10
-1.9375
 20
1.03125
 30
0.0
 11
-1.875
 21
1.03125
 31
0.0
  0
LINE
  5
DB
330
96
100
AcDbEntity
  8
SOLID
100
AcDbLine
 10
-1.9375
 20
-0.03125
 30
0.0
 11
-1.9375
 21
1.03125
 31
0.0
  0
LINE
  5
DC
330
96
100
AcDbEntity
  8
SOLID
100
AcDbLine
 10
-1.875
 20
-0.03125
 30
0.0
 11
-1.9375
 21
-0.03125
 31
0.0
  0
LINE
  5
DD
330
96
100
AcDbEntity
  8
CENTER
100
AcDbLine
 10
-2.375
 20
0.5
 30
0.0
 11
-1.03125
 21
0.5
 31
0.0
  0
LINE
  5
DE
330
96
100
AcDbEntity
  8
CDIM
100
AcDbLine
 10
-1.948287999999999
 20
-0.5625
 30
0.0
 11
-0.459075
 21
-0.5625
 31
0.0
  0
LINE
  5
DF
330
96
100
AcDbEntity
  8
CDIM
100
AcDbLine
 10
-0.8125
 20
0.353425
 30
0.0
 11
-0.8125
 21
0.7068500000000002
 31
0.0
  0
LINE
  5
E0
330
96
100
AcDbEntity
  8
CDIM
100
AcDbLine
 10
-0.8125
 20
-0.915925
 30
0.0
 11
-0.8125
 21
-1.269349999999998
 31
0.0
  0
SOLID
  5
E1
330
96
100
AcDbEntity
  8
CDIM
100
AcDbTrace
 10
-0.7535960000000001
 20
0.353425
 30
0.0
 11
-0.871404
 21
0.353425
 31
0.0
 12
-0.8125
 22
0.0
 32
0.0
 13
-0.8125
 23
0.0
 33
0.0
  0
SOLID
  5
E2
330
96
100
AcDbEntity
  8
CDIM
100
AcDbTrace
 10
-0.7535960000000001
 20
-0.915925
 30
0.0
 11
-0.871404
 21
-0.915925
 31
0.0
 12
-0.8125
 22
-0.5625
 32
0.0
 13
-0.8125
 23
-0.5625
 33
0.0
  0
TEXT
  5
E3
330
96
100
AcDbEntity
  8
CDIM
100
AcDbText
 10
-1.418149999999999
 20
-1.897318
 30
0.0
 40
0.395836
  1
0.56
  7
STR
100
AcDbText
  0
LINE
  5
E4
330
96
100
AcDbEntity
  8
CDIM
100
AcDbLine
 10
-3.489212999999999
 20
-0.5625
 30
0.0
 11
-4.540924999999998
 21
-0.5625
 31
0.0
  0
LINE
  5
E5
330
96
100
AcDbEntity
  8
CDIM
100
AcDbLine
 10
-2.051712999999999
 20
1.0625
 30
0.0
 11
-4.540924999999998
 21
1.0625
 31
0.0
  0
LINE
  5
E6
330
96
100
AcDbEntity
  8
CDIM
100
AcDbLine
 10
-4.1875
 20
1.415925
 30
0.0
 11
-4.1875
 21
1.76935
 31
0.0
  0
LINE
  5
E7
330
96
100
AcDbEntity
  8
CDIM
100
AcDbLine
 10
-4.1875
 20
-0.915925
 30
0.0
 11
-4.1875
 21
-1.269349999999998
 31
0.0
  0
SOLID
  5
E8
330
96
100
AcDbEntity
  8
CDIM
100
AcDbTrace
 10
-4.128595999999999
 20
1.415925
 30
0.0
 11
-4.246404
 21
1.415925
 31
0.0
 12
-4.1875
 22
1.0625
 32
0.0
 13
-4.1875
 23
1.0625
 33
0.0
  0
SOLID
  5
E9
330
96
100
AcDbEntity
  8
CDIM
100
AcDbTrace
 10
-4.128595999999999
 20
-0.915925
 30
0.0
 11
-4.246404
 21
-0.915925
 31
0.0
 12
-4.1875
 22
-0.5625
 32
0.0
 13
-4.1875
 23
-0.5625
 33
0.0
  0
TEXT
  5
EA
330
96
100
AcDbEntity
  8
CDIM
100
AcDbText
 10
-4.761899999999998
 20
0.071432
 30
0.0
 40
0.395836
  1
1.63
  7
STR
100
AcDbText
  0
LINE
  5
EB
330
96
100
AcDbEntity
  8
CDIM
100
AcDbLine
 10
-3.3125
 20
-0.198288
 30
0.0
 11
-3.3125
 21
2.634675
 31
0.0
  0
LINE
  5
EC
330
96
100
AcDbEntity
  8
CDIM
100
AcDbLine
 10
-1.6875
 20
1.707963
 30
0.0
 11
-1.6875
 21
2.634675
 31
0.0
  0
LINE
  5
ED
330
96
100
AcDbEntity
  8
CDIM
100
AcDbLine
 10
-1.334074999999999
 20
2.28125
 30
0.0
 11
-0.9806499999999999
 21
2.28125
 31
0.0
  0
LINE
  5
EE
330
96
100
AcDbEntity
  8
CDIM
100
AcDbLine
 10
-3.665925
 20
2.28125
 30
0.0
 11
-4.01935
 21
2.28125
 31
0.0
  0
SOLID
  5
EF
330
96
100
AcDbEntity
  8
CDIM
100
AcDbTrace
 10
-1.334074999999999
 20
2.222345999999999
 30
0.0
 11
-1.334074999999999
 21
2.340154
 31
0.0
 12
-1.6875
 22
2.28125
 32
0.0
 13
-1.6875
 23
2.28125
 33
0.0
  0
SOLID
  5
F0
330
96
100
AcDbEntity
  8
CDIM
100
AcDbTrace
 10
-3.665925
 20
2.222345999999999
 30
0.0
 11
-3.665925
 21
2.340154
 31
0.0
 12
-3.3125
 22
2.28125
 32
0.0
 13
-3.3125
 23
2.28125
 33
0.0
  0
TEXT
  5
F1
330
96
100
AcDbEntity
  8
CDIM
100
AcDbText
 10
-3.064725
 20
2.083331999999999
 30
0.0
 40
0.395836
  1
1.63
  7
STR
100
AcDbText
  0
LINE
  5
F2
330
96
100
AcDbEntity
  8
CDIM
100
AcDbLine
 10
-11.5
 20
1.239212999999999
 30
0.0
 11
-11.5
 21
2.165925
 31
0.0
  0
LINE
  5
F3
330
96
100
AcDbEntity
  8
CDIM
100
AcDbLine
 10
-10.9375
 20
0.895462
 30
0.0
 11
-10.9375
 21
2.165925
 31
0.0
  0
LINE
  5
F4
330
96
100
AcDbEntity
  8
CDIM
100
AcDbLine
 10
-10.584075
 20
1.8125
 30
0.0
 11
-10.23065
 21
1.8125
 31
0.0
  0
LINE
  5
F5
330
96
100
AcDbEntity
  8
CDIM
100
AcDbLine
 10
-11.85342499999999
 20
1.8125
 30
0.0
 11
-12.20685
 21
1.8125
 31
0.0
  0
SOLID
  5
F6
330
96
100
AcDbEntity
  8
CDIM
100
AcDbTrace
 10
-10.584075
 20
1.753595999999999
 30
0.0
 11
-10.584075
 21
1.871404
 31
0.0
 12
-10.9375
 22
1.8125
 32
0.0
 13
-10.9375
 23
1.8125
 33
0.0
  0
SOLID
  5
F7
330
96
100
AcDbEntity
  8
CDIM
100
AcDbTrace
 10
-11.85342499999999
 20
1.753595999999999
 30
0.0
 11
-11.85342499999999
 21
1.871404
 31
0.0
 12
-11.5
 22
1.8125
 32
0.0
 13
-11.5
 23
1.8125
 33
0.0
  0
TEXT
  5
F8
330
96
100
AcDbEntity
  8
CDIM
100
AcDbText
 10
-9.877224999999999
 20
1.614581999999999
 30
0.0
 40
0.395836
  1
0.56
  7
STR
100
AcDbText
  0
LINE
  5
F9
330
96
100
AcDbEntity
  8
CDIM
100
AcDbLine
 10
-10.9375
 20
0.895462
 30
0.0
 11
-10.9375
 21
3.101199999999998
 31
0.0
  0
LINE
  5
FA
330
96
100
AcDbEntity
  8
CDIM
100
AcDbLine
 10
-6.0625
 20
0.895462
 30
0.0
 11
-6.0625
 21
3.101199999999998
 31
0.0
  0
LINE
  5
FB
330
96
100
AcDbEntity
  8
CDIM
100
AcDbLine
 10
-10.584075
 20
2.747774999999998
 30
0.0
 11
-9.456603999999996
 21
2.747774999999998
 31
0.0
  0
LINE
  5
FC
330
96
100
AcDbEntity
  8
CDIM
100
AcDbLine
 10
-6.415924999999998
 20
2.747774999999998
 30
0.0
 11
-7.543396
 21
2.747774999999998
 31
0.0
  0
SOLID
  5
FD
330
96
100
AcDbEntity
  8
CDIM
100
AcDbTrace
 10
-10.584075
 20
2.688870999999998
 30
0.0
 11
-10.584075
 21
2.806678999999998
 31
0.0
 12
-10.9375
 22
2.747774999999998
 32
0.0
 13
-10.9375
 23
2.747774999999998
 33
0.0
  0
SOLID
  5
FE
330
96
100
AcDbEntity
  8
CDIM
100
AcDbTrace
 10
-6.415924999999998
 20
2.688870999999998
 30
0.0
 11
-6.415924999999998
 21
2.806678999999998
 31
0.0
 12
-6.0625
 22
2.747774999999998
 32
0.0
 13
-6.0625
 23
2.747774999999998
 33
0.0
  0
TEXT
  5
FF
330
96
100
AcDbEntity
  8
CDIM
100
AcDbText
 10
-9.103179
 20
2.549856999999998
 30
0.0
 40
0.395836
  1
4.88
  7
STR
100
AcDbText
  0
LINE
  5
100
330
96
100
AcDbEntity
  8
CDIM
100
AcDbLine
 10
-11.5
 20
-0.739213
 30
0.0
 11
-11.5
 21
-1.697175
 31
0.0
  0
LINE
  5
101
330
96
100
AcDbEntity
  8
CDIM
100
AcDbLine
 10
-5.5
 20
-0.739213
 30
0.0
 11
-5.5
 21
-1.697175
 31
0.0
  0
LINE
  5
102
330
96
100
AcDbEntity
  8
CDIM
100
AcDbLine
 10
-11.146575
 20
-1.34375
 30
0.0
 11
-9.456603999999996
 21
-1.34375
 31
0.0
  0
LINE
  5
103
330
96
100
AcDbEntity
  8
CDIM
100
AcDbLine
 10
-5.853424999999998
 20
-1.34375
 30
0.0
 11
-7.543396
 21
-1.34375
 31
0.0
  0
SOLID
  5
104
330
96
100
AcDbEntity
  8
CDIM
100
AcDbTrace
 10
-11.146575
 20
-1.402654
 30
0.0
 11
-11.146575
 21
-1.284845999999999
 31
0.0
 12
-11.5
 22
-1.34375
 32
0.0
 13
-11.5
 23
-1.34375
 33
0.0
  0
SOLID
  5
105
330
96
100
AcDbEntity
  8
CDIM
100
AcDbTrace
 10
-5.853424999999998
 20
-1.402654
 30
0.0
 11
-5.853424999999998
 21
-1.284845999999999
 31
0.0
 12
-5.5
 22
-1.34375
 32
0.0
 13
-5.5
 23
-1.34375
 33
0.0
  0
TEXT
  5
106
330
96
100
AcDbEntity
  8
CDIM
100
AcDbText
 10
-9.103179
 20
-1.541668
 30
0.0
 40
0.395836
  1
6.00
  7
STR
100
AcDbText
  0
LINE
  5
107
330
96
100
AcDbEntity
  8
CDIM
100
AcDbLine
 10
-11.676713
 20
1.0625
 30
0.0
 11
-12.603425
 21
1.0625
 31
0.0
  0
LINE
  5
108
330
96
100
AcDbEntity
  8
CDIM
100
AcDbLine
 10
-11.364213
 20
0.5
 30
0.0
 11
-12.603425
 21
0.5
 31
0.0
  0
LINE
  5
109
330
96
100
AcDbEntity
  8
CDIM
100
AcDbLine
 10
-12.25
 20
0.146575
 30
0.0
 11
-12.25
 21
-0.20685
 31
0.0
  0
LINE
  5
10A
330
96
100
AcDbEntity
  8
CDIM
100
AcDbLine
 10
-12.25
 20
1.415925
 30
0.0
 11
-12.25
 21
1.76935
 31
0.0
  0
SOLID
  5
10B
330
96
100
AcDbEntity
  8
CDIM
100
AcDbTrace
 10
-12.191096
 20
0.146575
 30
0.0
 11
-12.308904
 21
0.146575
 31
0.0
 12
-12.25
 22
0.5
 32
0.0
 13
-12.25
 23
0.5
 33
0.0
  0
SOLID
  5
10C
330
96
100
AcDbEntity
  8
CDIM
100
AcDbTrace
 10
-12.191096
 20
1.415925
 30
0.0
 11
-12.308904
 21
1.415925
 31
0.0
 12
-12.25
 22
1.0625
 32
0.0
 13
-12.25
 23
1.0625
 33
0.0
  0
TEXT
  5
10D
330
96
100
AcDbEntity
  8
CDIM
100
AcDbText
 10
-12.894358
 20
-0.748518
 30
0.0
 40
0.395836
  1
0.56
  7
STR
100
AcDbText
  0
LINE
  5
10E
330
96
100
AcDbEntity
  8
CDIM
100
AcDbLine
 10
-11.676713
 20
3.8125
 30
0.0
 11
-12.603425
 21
3.8125
 31
0.0
  0
LINE
  5
10F
330
96
100
AcDbEntity
  8
CDIM
100
AcDbLine
 10
-11.364213
 20
4.375
 30
0.0
 11
-12.603425
 21
4.375
 31
0.0
  0
LINE
  5
110
330
96
100
AcDbEntity
  8
CDIM
100
AcDbLine
 10
-12.25
 20
4.728424999999998
 30
0.0
 11
-12.25
 21
5.08185
 31
0.0
  0
LINE
  5
111
330
96
100
AcDbEntity
  8
CDIM
100
AcDbLine
 10
-12.25
 20
3.459074999999999
 30
0.0
 11
-12.25
 21
3.105649999999998
 31
0.0
  0
SOLID
  5
112
330
96
100
AcDbEntity
  8
CDIM
100
AcDbTrace
 10
-12.191096
 20
4.728424999999998
 30
0.0
 11
-12.308904
 21
4.728424999999998
 31
0.0
 12
-12.25
 22
4.375
 32
0.0
 13
-12.25
 23
4.375
 33
0.0
  0
SOLID
  5
113
330
96
100
AcDbEntity
  8
CDIM
100
AcDbTrace
 10
-12.191096
 20
3.459074999999999
 30
0.0
 11
-12.308904
 21
3.459074999999999
 31
0.0
 12
-12.25
 22
3.8125
 32
0.0
 13
-12.25
 23
3.8125
 33
0.0
  0
TEXT
  5
114
330
96
100
AcDbEntity
  8
CDIM
100
AcDbText
 10
-12.8869
 20
2.508932
 30
0.0
 40
0.395836
  1
0.56
  7
STR
100
AcDbText
  0
ENDBLK
  5
115
330
96
100
AcDbEntity
  8
0
100
AcDbBlockEnd
  0
BLOCK
  5
117
330
116
100
AcDbEntity
  8
0
100
AcDbBlockBegin
  2
MACL
 70
     0
 10
0.0
 20
0.0
 30
0.0
  3
MACL
  1

  0
LINE
  5
118
330
116
100
AcDbEntity
  8
DAMAN
100
AcDbLine
 10
0.0
 20
7.0
 30
0.0
 11
3.0
 21
7.0
 31
0.0
  0
LINE
  5
119
330
116
100
AcDbEntity
  8
DAMAN
100
AcDbLine
 10
3.0
 20
7.0
 30
0.0
 11
3.0
 21
4.0
 31
0.0
  0
LINE
  5
11A
330
116
100
AcDbEntity
  8
DAMAN
100
AcDbLine
 10
3.0
 20
4.0
 30
0.0
 11
0.0
 21
4.0
 31
0.0
  0
LINE
  5
11B
330
116
100
AcDbEntity
  8
DAMAN
  6
HIDDEN
100
AcDbLine
 10
0.0
 20
4.0
 30
0.0
 11
0.0
 21
7.0
 31
0.0
  0
LINE
  5
11C
330
116
100
AcDbEntity
  8
DAMAN
100
AcDbLine
 10
5.0
 20
7.0
 30
0.0
 11
5.0
 21
4.0
 31
0.0
  0
LINE
  5
11D
330
116
100
AcDbEntity
  8
DAMAN
100
AcDbLine
 10
5.0
 20
4.0
 30
0.0
 11
15.125
 21
4.0
 31
0.0
  0
LINE
  5
11E
330
116
100
AcDbEntity
  8
DAMAN
100
AcDbLine
 10
15.125
 20
4.0
 30
0.0
 11
15.125
 21
7.0
 31
0.0
  0
LINE
  5
11F
330
116
100
AcDbEntity
  8
DAMAN
100
AcDbLine
 10
15.125
 20
7.0
 30
0.0
 11
5.0
 21
7.0
 31
0.0
  0
LINE
  5
120
330
116
100
AcDbEntity
  8
DAMAN
100
AcDbLine
 10
17.125
 20
7.0
 30
0.0
 11
17.125
 21
4.0
 31
0.0
  0
LINE
  5
121
330
116
100
AcDbEntity
  8
DAMAN
100
AcDbLine
 10
17.125
 20
4.0
 30
0.0
 11
20.125
 21
4.0
 31
0.0
  0
LINE
  5
122
330
116
100
AcDbEntity
  8
DAMAN
100
AcDbLine
 10
20.125
 20
7.0
 30
0.0
 11
17.125
 21
7.0
 31
0.0
  0
LINE
  5
123
330
116
100
AcDbEntity
  8
DAMAN
100
AcDbLine
 10
5.0
 20
3.0
 30
0.0
 11
15.125
 21
3.0
 31
0.0
  0
LINE
  5
124
330
116
100
AcDbEntity
  8
DAMAN
100
AcDbLine
 10
15.125
 20
3.0
 30
0.0
 11
15.125
 21
0.0
 31
0.0
  0
LINE
  5
125
330
116
100
AcDbEntity
  8
DAMAN
100
AcDbLine
 10
15.125
 20
0.0
 30
0.0
 11
5.0
 21
0.0
 31
0.0
  0
LINE
  5
126
330
116
100
AcDbEntity
  8
DAMAN
100
AcDbLine
 10
5.0
 20
0.0
 30
0.0
 11
5.0
 21
3.0
 31
0.0
  0
INSERT
  5
128
330
116
100
AcDbEntity
  8
DAMAN
100
AcDbBlockReference
  2
300MKT
 10
0.0
 20
4.0
 30
0.0
  0
LINE
  5
129
330
116
100
AcDbEntity
  8
DAMAN
  6
HIDDEN
100
AcDbLine
 10
20.125
 20
4.0
 30
0.0
 11
20.125
 21
7.0
 31
0.0
  0
INSERT
  5
12A
330
116
100
AcDbEntity
  8
DAMAN
100
AcDbBlockReference
  2
300MKT
 10
20.125
 20
4.0
 30
0.0
 41
-1.0
  0
INSERT
  5
12C
330
116
100
AcDbEntity
  8
DAMAN
100
AcDbBlockReference
  2
D03
 10
5.452999999999998
 20
6.0
 30
0.0
  0
INSERT
  5
12E
330
116
100
AcDbEntity
  8
DAMAN
100
AcDbBlockReference
  2
10SAET
 10
1.5
 20
6.1875
 30
0.0
  0
INSERT
  5
12F
330
116
100
AcDbEntity
  8
DAMAN
100
AcDbBlockReference
  2
10SAET
 10
1.5
 20
4.8125
 30
0.0
  0
INSERT
  5
130
330
116
100
AcDbEntity
  8
DAMAN
100
AcDbBlockReference
  2
10SAET
 10
18.625
 20
6.1875
 30
0.0
 41
-1.0
  0
INSERT
  5
131
330
116
100
AcDbEntity
  8
DAMAN
100
AcDbBlockReference
  2
10SAET
 10
18.625
 20
4.8125
 30
0.0
 41
-1.0
  0
INSERT
  5
133
330
116
100
AcDbEntity
  8
DAMAN
100
AcDbBlockReference
  2
08SAET
 10
6.0625
 20
0.625
 30
0.0
  0
INSERT
  5
134
330
116
100
AcDbEntity
  8
DAMAN
100
AcDbBlockReference
  2
08SAET
 10
6.0625
 20
2.375
 30
0.0
  0
LINE
  5
135
330
116
100
AcDbEntity
  8
DAMAN
100
AcDbLine
 10
16.1245
 20
4.000499999999998
 30
0.0
 11
16.1245
 21
7.000499999999998
 31
0.0
  0
INSERT
  5
136
330
116
100
AcDbEntity
  8
DAMAN
100
AcDbBlockReference
  2
100CROSS
 10
15.812
 20
4.312999999999998
 30
0.0
 41
-0.34
 42
0.34
 43
0.34
 50
270.0
  0
LWPOLYLINE
  5
137
330
116
100
AcDbEntity
  8
DAMAN
100
AcDbPolyline
 90
        6
 70
   129
 43
0.0
 10
15.5625
 20
4.456837999999998
 10
15.5625
 20
4.168162
 10
15.8125
 20
4.023825
 10
16.0625
 20
4.168162
 10
16.0625
 20
4.456837999999998
 10
15.8125
 20
4.601174999999998
  0
CIRCLE
  5
13F
330
116
100
AcDbEntity
  8
DAMAN
100
AcDbCircle
 10
15.81299999999998
 20
4.312999999999998
 30
0.0
 40
0.249501
  0
LINE
  5
140
330
116
100
AcDbEntity
  8
DAMAN
100
AcDbLine
 10
15.6255
 20
6.687999999999998
 30
0.0
 11
15.055419
 21
6.687999999999998
 31
0.0
  0
INSERT
  5
141
330
116
100
AcDbEntity
  8
DAMAN
100
AcDbBlockReference
  2
100CROSS
 10
15.812
 20
6.687999999999998
 30
0.0
 41
-0.34
 42
0.34
 43
0.34
 50
270.0
  0
LWPOLYLINE
  5
142
330
116
100
AcDbEntity
  8
DAMAN
100
AcDbPolyline
 90
        6
 70
   129
 43
0.0
 10
15.5625
 20
6.831838
 10
15.5625
 20
6.543162
 10
15.8125
 20
6.398825
 10
16.0625
 20
6.543162
 10
16.0625
 20
6.831838
 10
15.8125
 20
6.976174999999998
  0
CIRCLE
  5
14A
330
116
100
AcDbEntity
  8
DAMAN
100
AcDbCircle
 10
15.81299999999998
 20
6.687999999999998
 30
0.0
 40
0.249501
  0
LINE
  5
14B
330
116
100
AcDbEntity
  8
DAMAN
100
AcDbLine
 10
15.5005
 20
6.437999999999998
 30
0.0
 11
15.5005
 21
6.937999999999998
 31
0.0
  0
ARC
  5
14C
330
116
100
AcDbEntity
  8
DAMAN
100
AcDbCircle
 10
15.401542
 20
6.471493999999998
 30
0.0
 40
0.098958
100
AcDbArc
 50
313.1735509999998
 51
46.82644899999999
  0
LINE
  5
14D
330
116
100
AcDbEntity
  8
DAMAN
100
AcDbLine
 10
15.2505
 20
6.399325
 30
0.0
 11
15.46925
 21
6.399325
 31
0.0
  0
LINE
  5
14E
330
116
100
AcDbEntity
  8
DAMAN
100
AcDbLine
 10
15.46925
 20
6.399325
 30
0.0
 11
15.5005
 21
6.437999999999998
 31
0.0
  0
LINE
  5
14F
330
116
100
AcDbEntity
  8
DAMAN
100
AcDbLine
 10
16.1245
 20
7.000499999999998
 30
0.0
 11
15.1245
 21
7.000499999999998
 31
0.0
  0
LINE
  5
150
330
116
100
AcDbEntity
  8
DAMAN
100
AcDbLine
 10
15.2505
 20
6.832338
 30
0.0
 11
15.46925
 21
6.832338
 31
0.0
  0
LINE
  5
151
330
116
100
AcDbEntity
  8
DAMAN
100
AcDbLine
 10
15.46925
 20
6.543662
 30
0.0
 11
15.2505
 21
6.543662
 31
0.0
  0
LINE
  5
152
330
116
100
AcDbEntity
  8
DAMAN
100
AcDbLine
 10
15.46925
 20
6.976675
 30
0.0
 11
15.2505
 21
6.976675
 31
0.0
  0
ARC
  5
153
330
116
100
AcDbEntity
  8
DAMAN
100
AcDbCircle
 10
15.151542
 20
6.687999999999998
 30
0.0
 40
0.348958
100
AcDbArc
 50
335.5673019999998
 51
24.432698
  0
ARC
  5
154
330
116
100
AcDbEntity
  8
DAMAN
100
AcDbCircle
 10
15.401542
 20
6.904505999999998
 30
0.0
 40
0.098958
100
AcDbArc
 50
313.1735509999998
 51
46.82644899999999
  0
LINE
  5
155
330
116
100
AcDbEntity
  8
DAMAN
100
AcDbLine
 10
15.46925
 20
6.976675
 30
0.0
 11
15.5005
 21
6.937999999999998
 31
0.0
  0
LINE
  5
156
330
116
100
AcDbEntity
  8
DAMAN
100
AcDbLine
 10
15.6255
 20
4.312999999999998
 30
0.0
 11
15.055419
 21
4.312999999999998
 31
0.0
  0
LINE
  5
157
330
116
100
AcDbEntity
  8
DAMAN
100
AcDbLine
 10
15.5005
 20
4.062999999999998
 30
0.0
 11
15.5005
 21
4.562999999999998
 31
0.0
  0
ARC
  5
158
330
116
100
AcDbEntity
  8
DAMAN
100
AcDbCircle
 10
15.401542
 20
4.529505999999998
 30
0.0
 40
0.098958
100
AcDbArc
 50
313.1735509999998
 51
46.82644899999999
  0
LINE
  5
159
330
116
100
AcDbEntity
  8
DAMAN
100
AcDbLine
 10
15.2505
 20
4.457338
 30
0.0
 11
15.46925
 21
4.457338
 31
0.0
  0
LINE
  5
15A
330
116
100
AcDbEntity
  8
DAMAN
100
AcDbLine
 10
15.2505
 20
4.024325
 30
0.0
 11
15.46925
 21
4.024325
 31
0.0
  0
LINE
  5
15B
330
116
100
AcDbEntity
  8
DAMAN
100
AcDbLine
 10
15.46925
 20
4.168662
 30
0.0
 11
15.2505
 21
4.168662
 31
0.0
  0
ARC
  5
15C
330
116
100
AcDbEntity
  8
DAMAN
100
AcDbCircle
 10
15.401542
 20
4.096493999999998
 30
0.0
 40
0.098958
100
AcDbArc
 50
313.1735509999998
 51
46.82644899999999
  0
LINE
  5
15D
330
116
100
AcDbEntity
  8
DAMAN
100
AcDbLine
 10
15.46925
 20
4.024325
 30
0.0
 11
15.5005
 21
4.062999999999998
 31
0.0
  0
ARC
  5
15E
330
116
100
AcDbEntity
  8
DAMAN
100
AcDbCircle
 10
15.151542
 20
4.312999999999998
 30
0.0
 40
0.348958
100
AcDbArc
 50
335.5673019999998
 51
24.432698
  0
LINE
  5
15F
330
116
100
AcDbEntity
  8
DAMAN
100
AcDbLine
 10
15.46925
 20
4.601675
 30
0.0
 11
15.2505
 21
4.601675
 31
0.0
  0
LINE
  5
160
330
116
100
AcDbEntity
  8
DAMAN
100
AcDbLine
 10
15.46925
 20
4.601675
 30
0.0
 11
15.5005
 21
4.562999999999998
 31
0.0
  0
LINE
  5
161
330
116
100
AcDbEntity
  8
DAMAN
100
AcDbLine
 10
15.2445
 20
7.000499999999998
 30
0.0
 11
15.2445
 21
4.000499999999998
 31
0.0
  0
LINE
  5
162
330
116
100
AcDbEntity
  8
DAMAN
100
AcDbLine
 10
15.1245
 20
4.000499999999998
 30
0.0
 11
16.1245
 21
4.000499999999998
 31
0.0
  0
LINE
  5
163
330
116
100
AcDbEntity
  8
DAMAN
100
AcDbLine
 10
4.880499999999998
 20
7.000499999999998
 30
0.0
 11
4.880499999999998
 21
4.000499999999998
 31
0.0
  0
ARC
  5
164
330
116
100
AcDbEntity
  8
DAMAN
100
AcDbCircle
 10
4.973457999999999
 20
4.312999999999998
 30
0.0
 40
0.348958
100
AcDbArc
 50
155.567302
 51
204.432698
  0
LINE
  5
165
330
116
100
AcDbEntity
  8
DAMAN
100
AcDbLine
 10
4.6245
 20
4.062999999999998
 30
0.0
 11
4.6245
 21
4.562999999999998
 31
0.0
  0
CIRCLE
  5
166
330
116
100
AcDbEntity
  8
DAMAN
100
AcDbCircle
 10
4.312
 20
4.312999999999998
 30
0.0
 40
0.249501
  0
LWPOLYLINE
  5
167
330
116
100
AcDbEntity
  8
DAMAN
100
AcDbPolyline
 90
        6
 70
   129
 43
0.0
 10
4.5625
 20
4.456837999999998
 10
4.5625
 20
4.168162
 10
4.3125
 20
4.023825
 10
4.0625
 20
4.168162
 10
4.0625
 20
4.456837999999998
 10
4.3125
 20
4.601174999999998
  0
INSERT
  5
16F
330
116
100
AcDbEntity
  8
DAMAN
100
AcDbBlockReference
  2
100CROSS
 10
4.312999999999998
 20
4.312999999999998
 30
0.0
 41
0.34
 42
0.34
 43
0.34
 50
90.0
  0
LINE
  5
170
330
116
100
AcDbEntity
  8
DAMAN
100
AcDbLine
 10
4.000499999999998
 20
4.000499999999998
 30
0.0
 11
4.000499999999998
 21
7.000499999999998
 31
0.0
  0
LINE
  5
171
330
116
100
AcDbEntity
  8
DAMAN
100
AcDbLine
 10
4.4995
 20
4.312999999999998
 30
0.0
 11
5.069580999999998
 21
4.312999999999998
 31
0.0
  0
LINE
  5
172
330
116
100
AcDbEntity
  8
DAMAN
100
AcDbLine
 10
5.000499999999998
 20
4.000499999999998
 30
0.0
 11
4.000499999999998
 21
4.000499999999998
 31
0.0
  0
ARC
  5
173
330
116
100
AcDbEntity
  8
DAMAN
100
AcDbCircle
 10
4.723457999999999
 20
4.096493999999998
 30
0.0
 40
0.098958
100
AcDbArc
 50
133.173551
 51
226.826449
  0
LINE
  5
174
330
116
100
AcDbEntity
  8
DAMAN
100
AcDbLine
 10
4.8745
 20
4.024325
 30
0.0
 11
4.65575
 21
4.024325
 31
0.0
  0
LINE
  5
175
330
116
100
AcDbEntity
  8
DAMAN
100
AcDbLine
 10
4.65575
 20
4.024325
 30
0.0
 11
4.6245
 21
4.062999999999998
 31
0.0
  0
LINE
  5
176
330
116
100
AcDbEntity
  8
DAMAN
100
AcDbLine
 10
4.65575
 20
4.168662
 30
0.0
 11
4.8745
 21
4.168662
 31
0.0
  0
LINE
  5
177
330
116
100
AcDbEntity
  8
DAMAN
100
AcDbLine
 10
4.65575
 20
4.601675
 30
0.0
 11
4.8745
 21
4.601675
 31
0.0
  0
LINE
  5
178
330
116
100
AcDbEntity
  8
DAMAN
100
AcDbLine
 10
4.8745
 20
4.457338
 30
0.0
 11
4.65575
 21
4.457338
 31
0.0
  0
LINE
  5
179
330
116
100
AcDbEntity
  8
DAMAN
100
AcDbLine
 10
4.65575
 20
4.601675
 30
0.0
 11
4.6245
 21
4.562999999999998
 31
0.0
  0
ARC
  5
17A
330
116
100
AcDbEntity
  8
DAMAN
100
AcDbCircle
 10
4.723457999999999
 20
4.529505999999998
 30
0.0
 40
0.098958
100
AcDbArc
 50
133.173551
 51
226.826449
  0
LINE
  5
17B
330
116
100
AcDbEntity
  8
DAMAN
100
AcDbLine
 10
4.4995
 20
6.687999999999998
 30
0.0
 11
5.069580999999998
 21
6.687999999999998
 31
0.0
  0
LINE
  5
17C
330
116
100
AcDbEntity
  8
DAMAN
100
AcDbLine
 10
4.000499999999998
 20
7.000499999999998
 30
0.0
 11
5.000499999999998
 21
7.000499999999998
 31
0.0
  0
ARC
  5
17D
330
116
100
AcDbEntity
  8
DAMAN
100
AcDbCircle
 10
4.973457999999999
 20
6.687999999999998
 30
0.0
 40
0.348958
100
AcDbArc
 50
155.567302
 51
204.432698
  0
LINE
  5
17E
330
116
100
AcDbEntity
  8
DAMAN
100
AcDbLine
 10
4.6245
 20
6.437999999999998
 30
0.0
 11
4.6245
 21
6.937999999999998
 31
0.0
  0
CIRCLE
  5
17F
330
116
100
AcDbEntity
  8
DAMAN
100
AcDbCircle
 10
4.312
 20
6.687999999999998
 30
0.0
 40
0.249501
  0
LWPOLYLINE
  5
180
330
116
100
AcDbEntity
  8
DAMAN
100
AcDbPolyline
 90
        6
 70
   129
 43
0.0
 10
4.5625
 20
6.831838
 10
4.5625
 20
6.543162
 10
4.3125
 20
6.398825
 10
4.0625
 20
6.543162
 10
4.0625
 20
6.831838
 10
4.3125
 20
6.976174999999998
  0
INSERT
  5
188
330
116
100
AcDbEntity
  8
DAMAN
100
AcDbBlockReference
  2
100CROSS
 10
4.312999999999998
 20
6.687999999999998
 30
0.0
 41
0.34
 42
0.34
 43
0.34
 50
90.0
  0
LINE
  5
189
330
116
100
AcDbEntity
  8
DAMAN
100
AcDbLine
 10
4.65575
 20
6.543662
 30
0.0
 11
4.8745
 21
6.543662
 31
0.0
  0
LINE
  5
18A
330
116
100
AcDbEntity
  8
DAMAN
100
AcDbLine
 10
4.8745
 20
6.399325
 30
0.0
 11
4.65575
 21
6.399325
 31
0.0
  0
LINE
  5
18B
330
116
100
AcDbEntity
  8
DAMAN
100
AcDbLine
 10
4.65575
 20
6.399325
 30
0.0
 11
4.6245
 21
6.437999999999998
 31
0.0
  0
ARC
  5
18C
330
116
100
AcDbEntity
  8
DAMAN
100
AcDbCircle
 10
4.723457999999999
 20
6.471493999999998
 30
0.0
 40
0.098958
100
AcDbArc
 50
133.173551
 51
226.826449
  0
ARC
  5
18D
330
116
100
AcDbEntity
  8
DAMAN
100
AcDbCircle
 10
4.723457999999999
 20
6.904505999999998
 30
0.0
 40
0.098958
100
AcDbArc
 50
133.173551
 51
226.826449
  0
LINE
  5
18E
330
116
100
AcDbEntity
  8
DAMAN
100
AcDbLine
 10
4.8745
 20
6.832338
 30
0.0
 11
4.65575
 21
6.832338
 31
0.0
  0
LINE
  5
18F
330
116
100
AcDbEntity
  8
DAMAN
100
AcDbLine
 10
4.65575
 20
6.976675
 30
0.0
 11
4.8745
 21
6.976675
 31
0.0
  0
LINE
  5
190
330
116
100
AcDbEntity
  8
DAMAN
100
AcDbLine
 10
4.65575
 20
6.976675
 30
0.0
 11
4.6245
 21
6.937999999999998
 31
0.0
  0
INSERT
  5
192
330
116
100
AcDbEntity
  8
DAMAN
100
AcDbBlockReference
  2
300MKS
 10
5.0
 20
0.0
 30
0.0
  0
INSERT
  5
193
330
116
100
AcDbEntity
  8
DAMAN
100
AcDbBlockReference
  2
300MKS
 10
15.125
 20
0.0
 30
0.0
 41
-1.0
  0
TEXT
  5
194
330
116
100
AcDbEntity
  8
DAMAN
100
AcDbText
 10
6.701777
 20
2.741878999999998
 30
0.0
 40
0.188
  1
B
100
AcDbText
  0
TEXT
  5
195
330
116
100
AcDbEntity
  8
DAMAN
100
AcDbText
 10
6.701777
 20
0.9606899999999999
 30
0.0
 40
0.188
  1
A
100
AcDbText
  0
TEXT
  5
196
330
116
100
AcDbEntity
  8
DAMAN
100
AcDbText
 10
2.104425999999999
 20
6.820938
 30
0.0
 40
0.188
  1
T
 50
270.0
100
AcDbText
  0
TEXT
  5
197
330
116
100
AcDbEntity
  8
DAMAN
100
AcDbText
 10
2.145231
 20
4.291922
 30
0.0
 40
0.188
  1
P
 50
270.0
100
AcDbText
  0
TEXT
  5
198
330
116
100
AcDbEntity
  8
DAMAN
100
AcDbText
 10
17.952566
 20
4.183146999999999
 30
0.0
 40
0.188
  1
P
 50
90.0
100
AcDbText
  0
TEXT
  5
199
330
116
100
AcDbEntity
  8
DAMAN
100
AcDbText
 10
17.952566
 20
6.671372999999999
 30
0.0
 40
0.188
  1
T
 50
90.0
100
AcDbText
  0
INSERT
  5
19A
330
116
100
AcDbEntity
  8
DAMAN
100
AcDbBlockReference
  2
08SAET
 10
14.0625
 20
2.375
 30
0.0
  0
INSERT
  5
19B
330
116
100
AcDbEntity
  8
DAMAN
100
AcDbBlockReference
  2
D03
 10
13.45299999999999
 20
6.0
 30
0.0
  0
TEXT
  5
19C
330
116
100
AcDbEntity
  8
DAMAN
100
AcDbText
 10
14.70177699999999
 20
0.9606899999999999
 30
0.0
 40
0.188
  1
A
100
AcDbText
  0
TEXT
  5
19D
330
116
100
AcDbEntity
  8
DAMAN
100
AcDbText
 10
14.70177699999999
 20
2.741878999999998
 30
0.0
 40
0.188
  1
B
100
AcDbText
  0
INSERT
  5
19E
330
116
100
AcDbEntity
  8
DAMAN
100
AcDbBlockReference
  2
08SAET
 10
14.0625
 20
0.625
 30
0.0
  0
INSERT
  5
1A0
330
116
100
AcDbEntity
  8
DAMAN
100
AcDbBlockReference
  2
06SAET
 10
7.125
 20
1.5
 30
0.0
  0
TEXT
  5
1A1
330
116
100
AcDbEntity
  8
DAMAN
100
AcDbText
 10
7.327452
 20
1.966858
 30
0.0
 40
0.188
  1
GA
100
AcDbText
  0
INSERT
  5
1A2
330
116
100
AcDbEntity
  8
DAMAN
100
AcDbBlockReference
  2
D03
 10
9.452999999999999
 20
6.0
 30
0.0
  0
INSERT
  5
1A3
330
116
100
AcDbEntity
  8
DAMAN
100
AcDbBlockReference
  2
08SAET
 10
10.0625
 20
2.375
 30
0.0
  0
TEXT
  5
1A4
330
116
100
AcDbEntity
  8
DAMAN
100
AcDbText
 10
10.701777
 20
2.741878999999998
 30
0.0
 40
0.188
  1
B
100
AcDbText
  0
INSERT
  5
1A5
330
116
100
AcDbEntity
  8
DAMAN
100
AcDbBlockReference
  2
08SAET
 10
10.0625
 20
0.625
 30
0.0
  0
TEXT
  5
1A6
330
116
100
AcDbEntity
  8
DAMAN
100
AcDbText
 10
10.701777
 20
0.9606899999999999
 30
0.0
 40
0.188
  1
A
100
AcDbText
  0
ENDBLK
  5
1A7
330
116
100
AcDbEntity
  8
0
100
AcDbBlockEnd
  0
BLOCK
  5
1A8
330
127
100
AcDbEntity
  8
0
100
AcDbBlockBegin
  2
300MKT
 70
     0
 10
0.0
 20
0.0
 30
0.0
  3
300MKT
  1

  0
LINE
  5
1A9
330
127
100
AcDbEntity
  8
DAMAN
100
AcDbLine
 10
0.6245000000000001
 20
0.0005
 30
0.0
 11
0.6245000000000001
 21
3.0005
 31
0.0
  0
INSERT
  5
1AA
330
127
100
AcDbEntity
  8
DAMAN
100
AcDbBlockReference
  2
100CROSS
 10
0.312
 20
0.313
 30
0.0
 41
-0.34
 42
0.34
 43
0.34
 50
270.0
  0
LWPOLYLINE
  5
1AB
330
127
100
AcDbEntity
  8
DAMAN
100
AcDbPolyline
 90
        6
 70
   129
 43
0.0
 10
0.0625
 20
0.4568380000000002
 10
0.0625
 20
0.168162
 10
0.3125
 20
0.023825
 10
0.5625
 20
0.168162
 10
0.5625
 20
0.4568380000000002
 10
0.3125
 20
0.6011750000000001
  0
CIRCLE
  5
1B3
330
127
100
AcDbEntity
  8
DAMAN
100
AcDbCircle
 10
0.313
 20
0.313
 30
0.0
 40
0.249501
  0
LINE
  5
1B4
330
127
100
AcDbEntity
  8
DAMAN
100
AcDbLine
 10
-0.84325
 20
2.53175
 30
0.0
 11
-0.3745
 21
2.53175
 31
0.0
  0
LINE
  5
1B5
330
127
100
AcDbEntity
  8
DAMAN
100
AcDbLine
 10
-0.3745
 20
2.84425
 30
0.0
 11
-0.84325
 21
2.84425
 31
0.0
  0
LINE
  5
1B6
330
127
100
AcDbEntity
  8
DAMAN
  6
HIDDEN
100
AcDbLine
 10
-0.8745
 20
2.813
 30
0.0
 11
-0.3745
 21
2.813
 31
0.0
  0
LINE
  5
1B7
330
127
100
AcDbEntity
  8
DAMAN
  6
HIDDEN
100
AcDbLine
 10
-0.3745
 20
2.563
 30
0.0
 11
-0.8745
 21
2.563
 31
0.0
  0
LINE
  5
1B8
330
127
100
AcDbEntity
  8
DAMAN
100
AcDbLine
 10
0.1255
 20
2.688
 30
0.0
 11
-1.03075
 21
2.688
 31
0.0
  0
LINE
  5
1B9
330
127
100
AcDbEntity
  8
DAMAN
100
AcDbLine
 10
-0.84325
 20
2.84425
 30
0.0
 11
-0.84325
 21
2.53175
 31
0.0
  0
LINE
  5
1BA
330
127
100
AcDbEntity
  8
DAMAN
100
AcDbLine
 10
-0.84325
 20
2.84425
 30
0.0
 11
-0.8745
 21
2.813
 31
0.0
  0
LINE
  5
1BB
330
127
100
AcDbEntity
  8
DAMAN
100
AcDbLine
 10
-0.8745
 20
2.563
 30
0.0
 11
-0.84325
 21
2.53175
 31
0.0
  0
LINE
  5
1BC
330
127
100
AcDbEntity
  8
DAMAN
100
AcDbLine
 10
-0.8745
 20
2.813
 30
0.0
 11
-0.8745
 21
2.563
 31
0.0
  0
INSERT
  5
1BD
330
127
100
AcDbEntity
  8
DAMAN
100
AcDbBlockReference
  2
100CROSS
 10
0.312
 20
2.688
 30
0.0
 41
-0.34
 42
0.34
 43
0.34
 50
270.0
  0
LWPOLYLINE
  5
1BE
330
127
100
AcDbEntity
  8
DAMAN
100
AcDbPolyline
 90
        6
 70
   129
 43
0.0
 10
0.0625
 20
2.831838
 10
0.0625
 20
2.543161999999999
 10
0.3125
 20
2.398824999999999
 10
0.5625
 20
2.543161999999999
 10
0.5625
 20
2.831838
 10
0.3125
 20
2.976174999999998
  0
CIRCLE
  5
1C6
330
127
100
AcDbEntity
  8
DAMAN
100
AcDbCircle
 10
0.313
 20
2.688
 30
0.0
 40
0.249501
  0
LINE
  5
1C7
330
127
100
AcDbEntity
  8
DAMAN
100
AcDbLine
 10
0.0005
 20
2.438
 30
0.0
 11
0.0005
 21
2.938
 31
0.0
  0
ARC
  5
1C8
330
127
100
AcDbEntity
  8
DAMAN
100
AcDbCircle
 10
-0.098458
 20
2.471493999999998
 30
0.0
 40
0.098958
100
AcDbArc
 50
313.1735509999998
 51
46.82644899999999
  0
LINE
  5
1C9
330
127
100
AcDbEntity
  8
DAMAN
100
AcDbLine
 10
-0.2495
 20
2.399325
 30
0.0
 11
-0.03075
 21
2.399325
 31
0.0
  0
LINE
  5
1CA
330
127
100
AcDbEntity
  8
DAMAN
100
AcDbLine
 10
-0.03075
 20
2.399325
 30
0.0
 11
0.0005
 21
2.438
 31
0.0
  0
LINE
  5
1CB
330
127
100
AcDbEntity
  8
DAMAN
100
AcDbLine
 10
0.6245000000000001
 20
3.0005
 30
0.0
 11
-0.3755
 21
3.0005
 31
0.0
  0
LINE
  5
1CC
330
127
100
AcDbEntity
  8
DAMAN
100
AcDbLine
 10
-0.2495
 20
2.832338
 30
0.0
 11
-0.03075
 21
2.832338
 31
0.0
  0
LINE
  5
1CD
330
127
100
AcDbEntity
  8
DAMAN
100
AcDbLine
 10
-0.03075
 20
2.543661999999998
 30
0.0
 11
-0.2495
 21
2.543661999999998
 31
0.0
  0
LINE
  5
1CE
330
127
100
AcDbEntity
  8
DAMAN
100
AcDbLine
 10
-0.03075
 20
2.976675
 30
0.0
 11
-0.2495
 21
2.976675
 31
0.0
  0
ARC
  5
1CF
330
127
100
AcDbEntity
  8
DAMAN
100
AcDbCircle
 10
-0.348458
 20
2.688
 30
0.0
 40
0.348958
100
AcDbArc
 50
335.5673019999998
 51
24.432698
  0
ARC
  5
1D0
330
127
100
AcDbEntity
  8
DAMAN
100
AcDbCircle
 10
-0.098458
 20
2.904505999999998
 30
0.0
 40
0.098958
100
AcDbArc
 50
313.1735509999998
 51
46.82644899999999
  0
LINE
  5
1D1
330
127
100
AcDbEntity
  8
DAMAN
100
AcDbLine
 10
-0.03075
 20
2.976675
 30
0.0
 11
0.0005
 21
2.938
 31
0.0
  0
LINE
  5
1D2
330
127
100
AcDbEntity
  8
DAMAN
100
AcDbLine
 10
-0.3745
 20
0.46925
 30
0.0
 11
-0.84325
 21
0.46925
 31
0.0
  0
LINE
  5
1D3
330
127
100
AcDbEntity
  8
DAMAN
  6
HIDDEN
100
AcDbLine
 10
-0.8745
 20
0.4379999999999999
 30
0.0
 11
-0.3745
 21
0.4379999999999999
 31
0.0
  0
LINE
  5
1D4
330
127
100
AcDbEntity
  8
DAMAN
100
AcDbLine
 10
-0.84325
 20
0.15675
 30
0.0
 11
-0.3745
 21
0.15675
 31
0.0
  0
LINE
  5
1D5
330
127
100
AcDbEntity
  8
DAMAN
  6
HIDDEN
100
AcDbLine
 10
-0.3745
 20
0.188
 30
0.0
 11
-0.8745
 21
0.188
 31
0.0
  0
LINE
  5
1D6
330
127
100
AcDbEntity
  8
DAMAN
100
AcDbLine
 10
0.1255
 20
0.313
 30
0.0
 11
-1.03075
 21
0.313
 31
0.0
  0
LINE
  5
1D7
330
127
100
AcDbEntity
  8
DAMAN
100
AcDbLine
 10
-0.84325
 20
0.46925
 30
0.0
 11
-0.84325
 21
0.15675
 31
0.0
  0
LINE
  5
1D8
330
127
100
AcDbEntity
  8
DAMAN
100
AcDbLine
 10
-0.8745
 20
0.188
 30
0.0
 11
-0.84325
 21
0.15675
 31
0.0
  0
LINE
  5
1D9
330
127
100
AcDbEntity
  8
DAMAN
100
AcDbLine
 10
-0.8745
 20
0.4379999999999999
 30
0.0
 11
-0.8745
 21
0.188
 31
0.0
  0
LINE
  5
1DA
330
127
100
AcDbEntity
  8
DAMAN
100
AcDbLine
 10
-0.84325
 20
0.46925
 30
0.0
 11
-0.8745
 21
0.4379999999999999
 31
0.0
  0
LINE
  5
1DB
330
127
100
AcDbEntity
  8
DAMAN
100
AcDbLine
 10
0.0005
 20
0.063
 30
0.0
 11
0.0005
 21
0.5629999999999999
 31
0.0
  0
ARC
  5
1DC
330
127
100
AcDbEntity
  8
DAMAN
100
AcDbCircle
 10
-0.098458
 20
0.5295060000000002
 30
0.0
 40
0.098958
100
AcDbArc
 50
313.1735509999998
 51
46.82644899999999
  0
LINE
  5
1DD
330
127
100
AcDbEntity
  8
DAMAN
100
AcDbLine
 10
-0.2495
 20
0.4573380000000001
 30
0.0
 11
-0.03075
 21
0.4573380000000001
 31
0.0
  0
LINE
  5
1DE
330
127
100
AcDbEntity
  8
DAMAN
100
AcDbLine
 10
-0.2495
 20
0.024325
 30
0.0
 11
-0.03075
 21
0.024325
 31
0.0
  0
LINE
  5
1DF
330
127
100
AcDbEntity
  8
DAMAN
100
AcDbLine
 10
-0.03075
 20
0.168662
 30
0.0
 11
-0.2495
 21
0.168662
 31
0.0
  0
ARC
  5
1E0
330
127
100
AcDbEntity
  8
DAMAN
100
AcDbCircle
 10
-0.098458
 20
0.096494
 30
0.0
 40
0.098958
100
AcDbArc
 50
313.1735509999998
 51
46.82644899999999
  0
LINE
  5
1E1
330
127
100
AcDbEntity
  8
DAMAN
100
AcDbLine
 10
-0.03075
 20
0.024325
 30
0.0
 11
0.0005
 21
0.063
 31
0.0
  0
ARC
  5
1E2
330
127
100
AcDbEntity
  8
DAMAN
100
AcDbCircle
 10
-0.348458
 20
0.313
 30
0.0
 40
0.348958
100
AcDbArc
 50
335.5673019999998
 51
24.432698
  0
LINE
  5
1E3
330
127
100
AcDbEntity
  8
DAMAN
100
AcDbLine
 10
-0.03075
 20
0.601675
 30
0.0
 11
-0.2495
 21
0.601675
 31
0.0
  0
LINE
  5
1E4
330
127
100
AcDbEntity
  8
DAMAN
100
AcDbLine
 10
-0.03075
 20
0.601675
 30
0.0
 11
0.0005
 21
0.5629999999999999
 31
0.0
  0
LINE
  5
1E5
330
127
100
AcDbEntity
  8
DAMAN
100
AcDbLine
 10
-0.2555
 20
3.0005
 30
0.0
 11
-0.2555
 21
0.0005
 31
0.0
  0
LINE
  5
1E6
330
127
100
AcDbEntity
  8
DAMAN
100
AcDbLine
 10
-0.3755
 20
3.0005
 30
0.0
 11
-0.3755
 21
0.0005
 31
0.0
  0
LINE
  5
1E7
330
127
100
AcDbEntity
  8
DAMAN
100
AcDbLine
 10
-0.3755
 20
0.0005
 30
0.0
 11
0.6245000000000001
 21
0.0005
 31
0.0
  0
ENDBLK
  5
1E8
330
127
100
AcDbEntity
  8
0
100
AcDbBlockEnd
  0
BLOCK
  5
1E9
330
12B
100
AcDbEntity
  8
0
100
AcDbBlockBegin
  2
D03
 70
     0
 10
0.0
 20
0.0
 30
0.0
  3
D03
  1

  0
INSERT
  5
1EA
330
12B
100
AcDbEntity
  8
DAMAN
100
AcDbBlockReference
  2
100CROSS
 10
0.61
 20
-1.1875
 30
0.0
 41
0.25
 42
0.25
  0
INSERT
  5
1EB
330
12B
100
AcDbEntity
  8
DAMAN
100
AcDbBlockReference
  2
100CROSS
 10
0.61
 20
-0.5
 30
0.0
 41
0.25
 42
0.25
  0
CIRCLE
  5
1EC
330
12B
100
AcDbEntity
  8
DAMAN
100
AcDbCircle
 10
0.61
 20
-0.5
 30
0.0
 40
0.141125
  0
CIRCLE
  5
1ED
330
12B
100
AcDbEntity
  8
DAMAN
100
AcDbCircle
 10
0.61
 20
-1.1875
 30
0.0
 40
0.141125
  0
INSERT
  5
1EE
330
12B
100
AcDbEntity
  8
DAMAN
100
AcDbBlockReference
  2
100CROSS
 10
0.2035
 20
-0.8440000000000001
 30
0.0
 41
0.25
 42
0.25
  0
CIRCLE
  5
1EF
330
12B
100
AcDbEntity
  8
DAMAN
100
AcDbCircle
 10
0.2035
 20
-0.8440000000000001
 30
0.0
 40
0.141375
  0
INSERT
  5
1F0
330
12B
100
AcDbEntity
  8
DAMAN
100
AcDbBlockReference
  2
100CROSS
 10
-0.03
 20
-1.3
 30
0.0
 41
0.171
 42
0.171
  0
INSERT
  5
1F1
330
12B
100
AcDbEntity
  8
DAMAN
100
AcDbBlockReference
  2
100CROSS
 10
-0.03
 20
-1.594
 30
0.0
 41
0.188
 42
0.188
  0
CIRCLE
  5
1F2
330
12B
100
AcDbEntity
  8
DAMAN
  6
HIDDEN
100
AcDbCircle
 10
-0.03
 20
-1.594
 30
0.0
 40
0.095
  0
CIRCLE
  5
1F3
330
12B
100
AcDbEntity
  8
DAMAN
100
AcDbCircle
 10
-0.03
 20
-1.59375
 30
0.0
 40
0.078
  0
CIRCLE
  5
1F4
330
12B
100
AcDbEntity
  8
DAMAN
100
AcDbCircle
 10
-0.03
 20
-1.3
 30
0.0
 40
0.0855
  0
POINT
  5
1F5
330
12B
100
AcDbEntity
  8
DAMAN
  6
BYBLOCK
 62
     0
100
AcDbPoint
 10
0.20425
 20
-0.75
 30
0.0
  0
POINT
  5
1F6
330
12B
100
AcDbEntity
  8
DAMAN
  6
BYBLOCK
 62
     0
100
AcDbPoint
 10
0.20425
 20
-0.75
 30
0.0
  0
INSERT
  5
1F7
330
12B
100
AcDbEntity
  8
DAMAN
100
AcDbBlockReference
  2
100CROSS
 10
0.0
 20
0.0
 30
0.0
 41
0.188
 42
0.188
  0
CIRCLE
  5
1F8
330
12B
100
AcDbEntity
  8
DAMAN
100
AcDbCircle
 10
0.0
 20
0.0
 30
0.0
 40
0.078
  0
CIRCLE
  5
1F9
330
12B
100
AcDbEntity
  8
DAMAN
  6
HIDDEN
100
AcDbCircle
 10
0.0
 20
0.0
 30
0.0
 40
0.095
  0
INSERT
  5
1FA
330
12B
100
AcDbEntity
  8
DAMAN
100
AcDbBlockReference
  2
100CROSS
 10
1.016
 20
-0.8440000000000001
 30
0.0
 41
0.25
 42
0.25
  0
CIRCLE
  5
1FB
330
12B
100
AcDbEntity
  8
DAMAN
100
AcDbCircle
 10
1.016
 20
-0.8440000000000001
 30
0.0
 40
0.141375
  0
INSERT
  5
1FC
330
12B
100
AcDbEntity
  8
DAMAN
100
AcDbBlockReference
  2
100CROSS
 10
1.25
 20
-1.594
 30
0.0
 41
0.188
 42
0.188
  0
CIRCLE
  5
1FD
330
12B
100
AcDbEntity
  8
DAMAN
  6
HIDDEN
100
AcDbCircle
 10
1.25
 20
-1.594
 30
0.0
 40
0.095
  0
CIRCLE
  5
1FE
330
12B
100
AcDbEntity
  8
DAMAN
100
AcDbCircle
 10
1.25
 20
-1.59375
 30
0.0
 40
0.078
  0
CIRCLE
  5
1FF
330
12B
100
AcDbEntity
  8
DAMAN
100
AcDbCircle
 10
1.219999999999998
 20
0.0
 30
0.0
 40
0.078
  0
INSERT
  5
200
330
12B
100
AcDbEntity
  8
DAMAN
100
AcDbBlockReference
  2
100CROSS
 10
1.219999999999998
 20
0.0
 30
0.0
 41
0.188
 42
0.188
  0
CIRCLE
  5
201
330
12B
100
AcDbEntity
  8
DAMAN
  6
HIDDEN
100
AcDbCircle
 10
1.219999999999998
 20
0.0
 30
0.0
 40
0.095
  0
ENDBLK
  5
202
330
12B
100
AcDbEntity
  8
0
100
AcDbBlockEnd
  0
BLOCK
  5
203
330
12D
100
AcDbEntity
  8
0
100
AcDbBlockBegin
  2
10SAET
 70
     0
 10
0.0
 20
0.0
 30
0.0
  3
10SAET
  1

  0
CIRCLE
  5
204
330
12D
100
AcDbEntity
  8
DAMAN
100
AcDbCircle
 10
0.0
 20
0.0
 30
0.0
 40
0.3439999999999999
  0
INSERT
  5
205
330
12D
100
AcDbEntity
  8
DAMAN
100
AcDbBlockReference
  2
100CROSS
 10
0.0
 20
0.0
 30
0.0
 41
1.199999999999999
 42
1.199999999999999
  0
CIRCLE
  5
206
330
12D
100
AcDbEntity
  8
DAMAN
100
AcDbCircle
 10
0.0
 20
0.0
 30
0.0
 40
0.6875
  0
CIRCLE
  5
207
330
12D
100
AcDbEntity
  8
DAMAN
  6
HIDDEN
100
AcDbCircle
 10
0.0
 20
0.0
 30
0.0
 40
0.4060000000000001
  0
CIRCLE
  5
208
330
12D
100
AcDbEntity
  8
DAMAN
100
AcDbCircle
 10
0.0
 20
0.0
 30
0.0
 40
0.4375
  0
ENDBLK
  5
209
330
12D
100
AcDbEntity
  8
0
100
AcDbBlockEnd
  0
BLOCK
  5
20A
330
132
100
AcDbEntity
  8
0
100
AcDbBlockBegin
  2
08SAET
 70
     0
 10
0.0
 20
0.0
 30
0.0
  3
08SAET
  1

  0
CIRCLE
  5
20B
330
132
100
AcDbEntity
  8
DAMAN
100
AcDbCircle
 10
0.0
 20
0.0
 30
0.0
 40
0.375
  0
CIRCLE
  5
20C
330
132
100
AcDbEntity
  8
DAMAN
100
AcDbCircle
 10
0.0
 20
0.0
 30
0.0
 40
0.3125
  0
CIRCLE
  5
20D
330
132
100
AcDbEntity
  8
DAMAN
  6
HIDDEN
100
AcDbCircle
 10
0.0
 20
0.0
 30
0.0
 40
0.3439999999999999
  0
INSERT
  5
20E
330
132
100
AcDbEntity
  8
DAMAN
100
AcDbBlockReference
  2
100CROSS
 10
0.0
 20
0.0
 30
0.0
 41
0.88
 42
0.88
  0
CIRCLE
  5
20F
330
132
100
AcDbEntity
  8
DAMAN
100
AcDbCircle
 10
0.0
 20
0.0
 30
0.0
 40
0.594
  0
ENDBLK
  5
210
330
132
100
AcDbEntity
  8
0
100
AcDbBlockEnd
  0
BLOCK
  5
211
330
191
100
AcDbEntity
  8
0
100
AcDbBlockBegin
  2
300MKS
 70
     0
 10
0.0
 20
0.0
 30
0.0
  3
300MKS
  1

  0
LINE
  5
212
330
191
100
AcDbEntity
  8
DAMAN
100
AcDbLine
 10
-1.0
 20
-0.375
 30
0.0
 11
-0.25
 21
-0.375
 31
0.0
  0
LINE
  5
213
330
191
100
AcDbEntity
  8
DAMAN
100
AcDbLine
 10
-0.25
 20
-0.25
 30
0.0
 11
-1.0
 21
-0.25
 31
0.0
  0
LINE
  5
214
330
191
100
AcDbEntity
  8
DAMAN
100
AcDbLine
 10
-0.84375
 20
-0.84375
 30
0.0
 11
-0.53125
 21
-0.84375
 31
0.0
  0
LINE
  5
215
330
191
100
AcDbEntity
  8
DAMAN
100
AcDbLine
 10
-0.8125
 20
-0.875
 30
0.0
 11
-0.5625
 21
-0.875
 31
0.0
  0
LINE
  5
216
330
191
100
AcDbEntity
  8
DAMAN
100
AcDbLine
 10
-0.4375
 20
0.0
 30
0.0
 11
-0.9375
 21
0.0
 31
0.0
  0
ARC
  5
217
330
191
100
AcDbEntity
  8
DAMAN
100
AcDbCircle
 10
-0.6875
 20
-0.348958
 30
0.0
 40
0.348958
100
AcDbArc
 50
65.567302
 51
114.4326979999999
  0
LINE
  5
218
330
191
100
AcDbEntity
  8
DAMAN
100
AcDbLine
 10
-0.6875
 20
0.125
 30
0.0
 11
-0.6875
 21
-1.03125
 31
0.0
  0
LINE
  5
219
330
191
100
AcDbEntity
  8
DAMAN
  6
HIDDEN
100
AcDbLine
 10
-0.8125
 20
-0.875
 30
0.0
 11
-0.8125
 21
-0.375
 31
0.0
  0
LINE
  5
21A
330
191
100
AcDbEntity
  8
DAMAN
100
AcDbLine
 10
-0.84375
 20
-0.375
 30
0.0
 11
-0.84375
 21
-0.84375
 31
0.0
  0
LINE
  5
21B
330
191
100
AcDbEntity
  8
DAMAN
100
AcDbLine
 10
-0.84375
 20
-0.84375
 30
0.0
 11
-0.8125
 21
-0.875
 31
0.0
  0
LINE
  5
21C
330
191
100
AcDbEntity
  8
DAMAN
100
AcDbLine
 10
-1.0
 20
-0.25
 30
0.0
 11
-1.0
 21
-0.375
 31
0.0
  0
ARC
  5
21D
330
191
100
AcDbEntity
  8
DAMAN
100
AcDbCircle
 10
-0.904006
 20
-0.098958
 30
0.0
 40
0.098958
100
AcDbArc
 50
43.17355100000001
 51
136.826449
  0
LINE
  5
21E
330
191
100
AcDbEntity
  8
DAMAN
100
AcDbLine
 10
-0.9761749999999999
 20
-0.03125
 30
0.0
 11
-0.9761749999999999
 21
-0.25
 31
0.0
  0
LINE
  5
21F
330
191
100
AcDbEntity
  8
DAMAN
100
AcDbLine
 10
-0.9761749999999999
 20
-0.03125
 30
0.0
 11
-0.9375
 21
0.0
 31
0.0
  0
LINE
  5
220
330
191
100
AcDbEntity
  8
DAMAN
100
AcDbLine
 10
-0.8318379999999997
 20
-0.25
 30
0.0
 11
-0.8318379999999997
 21
-0.03125
 31
0.0
  0
LINE
  5
221
330
191
100
AcDbEntity
  8
DAMAN
100
AcDbLine
 10
0.0
 20
-0.125
 30
0.0
 11
0.0
 21
0.625
 31
0.0
  0
LINE
  5
222
330
191
100
AcDbEntity
  8
DAMAN
100
AcDbLine
 10
-0.125
 20
0.625
 30
0.0
 11
-0.125
 21
-0.125
 31
0.0
  0
LINE
  5
223
330
191
100
AcDbEntity
  8
DAMAN
  6
HIDDEN
100
AcDbLine
 10
-0.5625
 20
-0.375
 30
0.0
 11
-0.5625
 21
-0.875
 31
0.0
  0
LINE
  5
224
330
191
100
AcDbEntity
  8
DAMAN
100
AcDbLine
 10
-0.53125
 20
-0.84375
 30
0.0
 11
-0.53125
 21
-0.375
 31
0.0
  0
LINE
  5
225
330
191
100
AcDbEntity
  8
DAMAN
100
AcDbLine
 10
-0.5625
 20
-0.875
 30
0.0
 11
-0.53125
 21
-0.84375
 31
0.0
  0
ARC
  5
226
330
191
100
AcDbEntity
  8
DAMAN
100
AcDbCircle
 10
-0.25
 20
-0.125
 30
0.0
 40
0.25
100
AcDbArc
 50
270.0
 51
0.0
  0
ARC
  5
227
330
191
100
AcDbEntity
  8
DAMAN
100
AcDbCircle
 10
-0.25
 20
-0.125
 30
0.0
 40
0.125
100
AcDbArc
 50
270.0
 51
0.0
  0
LINE
  5
228
330
191
100
AcDbEntity
  8
DAMAN
100
AcDbLine
 10
-0.5431620000000002
 20
-0.03125
 30
0.0
 11
-0.5431620000000002
 21
-0.25
 31
0.0
  0
LINE
  5
229
330
191
100
AcDbEntity
  8
DAMAN
100
AcDbLine
 10
-0.398825
 20
-0.25
 30
0.0
 11
-0.398825
 21
-0.03125
 31
0.0
  0
ARC
  5
22A
330
191
100
AcDbEntity
  8
DAMAN
100
AcDbCircle
 10
-0.470994
 20
-0.098958
 30
0.0
 40
0.098958
100
AcDbArc
 50
43.17355100000001
 51
136.826449
  0
LINE
  5
22B
330
191
100
AcDbEntity
  8
DAMAN
100
AcDbLine
 10
-0.398825
 20
-0.03125
 30
0.0
 11
-0.4375
 21
0.0
 31
0.0
  0
LINE
  5
22C
330
191
100
AcDbEntity
  8
DAMAN
100
AcDbLine
 10
-0.125
 20
0.168162
 30
0.0
 11
-0.34375
 21
0.168162
 31
0.0
  0
LINE
  5
22D
330
191
100
AcDbEntity
  8
DAMAN
100
AcDbLine
 10
-0.34375
 20
0.023825
 30
0.0
 11
-0.125
 21
0.023825
 31
0.0
  0
LINE
  5
22E
330
191
100
AcDbEntity
  8
DAMAN
100
AcDbLine
 10
-0.34375
 20
0.4568380000000002
 30
0.0
 11
-0.125
 21
0.4568380000000002
 31
0.0
  0
LINE
  5
22F
330
191
100
AcDbEntity
  8
DAMAN
100
AcDbLine
 10
-0.125
 20
0.6011750000000001
 30
0.0
 11
-0.34375
 21
0.6011750000000001
 31
0.0
  0
ARC
  5
230
330
191
100
AcDbEntity
  8
DAMAN
100
AcDbCircle
 10
-0.026042
 20
0.3125
 30
0.0
 40
0.348958
100
AcDbArc
 50
155.567302
 51
204.432698
  0
LINE
  5
231
330
191
100
AcDbEntity
  8
DAMAN
100
AcDbLine
 10
-0.375
 20
0.5625
 30
0.0
 11
-0.375
 21
0.0625
 31
0.0
  0
LINE
  5
232
330
191
100
AcDbEntity
  8
DAMAN
100
AcDbLine
 10
-0.34375
 20
0.023825
 30
0.0
 11
-0.375
 21
0.0625
 31
0.0
  0
ARC
  5
233
330
191
100
AcDbEntity
  8
DAMAN
100
AcDbCircle
 10
-0.276042
 20
0.095994
 30
0.0
 40
0.098958
100
AcDbArc
 50
133.173551
 51
226.826449
  0
LINE
  5
234
330
191
100
AcDbEntity
  8
DAMAN
100
AcDbLine
 10
-0.34375
 20
0.6011750000000001
 30
0.0
 11
-0.375
 21
0.5625
 31
0.0
  0
ARC
  5
235
330
191
100
AcDbEntity
  8
DAMAN
100
AcDbCircle
 10
-0.276042
 20
0.5290060000000001
 30
0.0
 40
0.098958
100
AcDbArc
 50
133.173551
 51
226.826449
  0
LINE
  5
236
330
191
100
AcDbEntity
  8
DAMAN
100
AcDbLine
 10
0.0
 20
0.625
 30
0.0
 11
-0.125
 21
0.625
 31
0.0
  0
LINE
  5
237
330
191
100
AcDbEntity
  8
DAMAN
100
AcDbLine
 10
-0.5
 20
0.3125
 30
0.0
 11
0.375
 21
0.3125
 31
0.0
  0
ENDBLK
  5
238
330
191
100
AcDbEntity
  8
0
100
AcDbBlockEnd
  0
BLOCK
  5
239
330
19F
100
AcDbEntity
  8
0
100
AcDbBlockBegin
  2
06SAET
 70
     0
 10
0.0
 20
0.0
 30
0.0
  3
06SAET
  1

  0
CIRCLE
  5
23A
330
19F
100
AcDbEntity
  8
CSOLID
  6
HIDDEN
100
AcDbCircle
 10
0.0
 20
0.0
 30
0.0
 40
0.281
  0
CIRCLE
  5
23B
330
19F
100
AcDbEntity
  8
CSOLID
100
AcDbCircle
 10
0.0
 20
0.0
 30
0.0
 40
0.308
  0
CIRCLE
  5
23C
330
19F
100
AcDbEntity
  8
CSOLID
100
AcDbCircle
 10
0.0
 20
0.0
 30
0.0
 40
0.25
  0
CIRCLE
  5
23D
330
19F
100
AcDbEntity
  8
CSOLID
100
AcDbCircle
 10
0.0
 20
0.0
 30
0.0
 40
0.4844000000000002
  0
INSERT
  5
23E
330
19F
100
AcDbEntity
  8
DAMAN
100
AcDbBlockReference
  2
100CROSS
 10
0.0
 20
0.0
 30
0.0
 41
0.88
 42
0.88
  0
ENDBLK
  5
23F
330
19F
100
AcDbEntity
  8
0
100
AcDbBlockEnd
  0
BLOCK
  5
241
330
240
100
AcDbEntity
  8
0
100
AcDbBlockBegin
  2
MABL
 70
     0
 10
0.0
 20
0.0
 30
0.0
  3
MABL
  1

  0
LINE
  5
242
330
240
100
AcDbEntity
  8
DAMAN
100
AcDbLine
 10
0.0
 20
7.0
 30
0.0
 11
3.0
 21
7.0
 31
0.0
  0
LINE
  5
243
330
240
100
AcDbEntity
  8
DAMAN
100
AcDbLine
 10
3.0
 20
7.0
 30
0.0
 11
3.0
 21
4.0
 31
0.0
  0
LINE
  5
244
330
240
100
AcDbEntity
  8
DAMAN
100
AcDbLine
 10
3.0
 20
4.0
 30
0.0
 11
0.0
 21
4.0
 31
0.0
  0
LINE
  5
245
330
240
100
AcDbEntity
  8
DAMAN
  6
HIDDEN
100
AcDbLine
 10
0.0
 20
4.0
 30
0.0
 11
0.0
 21
7.0
 31
0.0
  0
LINE
  5
246
330
240
100
AcDbEntity
  8
DAMAN
100
AcDbLine
 10
5.0
 20
7.0
 30
0.0
 11
5.0
 21
4.0
 31
0.0
  0
LINE
  5
247
330
240
100
AcDbEntity
  8
DAMAN
100
AcDbLine
 10
5.0
 20
4.0
 30
0.0
 11
11.125
 21
4.0
 31
0.0
  0
LINE
  5
248
330
240
100
AcDbEntity
  8
DAMAN
100
AcDbLine
 10
11.125
 20
4.0
 30
0.0
 11
11.125
 21
7.0
 31
0.0
  0
LINE
  5
249
330
240
100
AcDbEntity
  8
DAMAN
100
AcDbLine
 10
11.125
 20
7.0
 30
0.0
 11
5.0
 21
7.0
 31
0.0
  0
LINE
  5
24A
330
240
100
AcDbEntity
  8
DAMAN
100
AcDbLine
 10
13.125
 20
7.0
 30
0.0
 11
13.125
 21
4.0
 31
0.0
  0
LINE
  5
24B
330
240
100
AcDbEntity
  8
DAMAN
100
AcDbLine
 10
13.125
 20
4.0
 30
0.0
 11
16.125
 21
4.0
 31
0.0
  0
LINE
  5
24C
330
240
100
AcDbEntity
  8
DAMAN
100
AcDbLine
 10
16.125
 20
7.0
 30
0.0
 11
13.125
 21
7.0
 31
0.0
  0
LINE
  5
24D
330
240
100
AcDbEntity
  8
DAMAN
100
AcDbLine
 10
5.0
 20
3.0
 30
0.0
 11
11.125
 21
3.0
 31
0.0
  0
LINE
  5
24E
330
240
100
AcDbEntity
  8
DAMAN
100
AcDbLine
 10
11.125
 20
3.0
 30
0.0
 11
11.125
 21
0.0
 31
0.0
  0
LINE
  5
24F
330
240
100
AcDbEntity
  8
DAMAN
100
AcDbLine
 10
11.125
 20
0.0
 30
0.0
 11
5.0
 21
0.0
 31
0.0
  0
LINE
  5
250
330
240
100
AcDbEntity
  8
DAMAN
100
AcDbLine
 10
5.0
 20
0.0
 30
0.0
 11
5.0
 21
3.0
 31
0.0
  0
INSERT
  5
251
330
240
100
AcDbEntity
  8
DAMAN
100
AcDbBlockReference
  2
300MKT
 10
0.0
 20
4.0
 30
0.0
  0
LINE
  5
252
330
240
100
AcDbEntity
  8
DAMAN
  6
HIDDEN
100
AcDbLine
 10
16.125
 20
4.0
 30
0.0
 11
16.125
 21
7.0
 31
0.0
  0
INSERT
  5
253
330
240
100
AcDbEntity
  8
DAMAN
100
AcDbBlockReference
  2
300MKT
 10
16.125
 20
4.0
 30
0.0
 41
-1.0
  0
INSERT
  5
254
330
240
100
AcDbEntity
  8
DAMAN
100
AcDbBlockReference
  2
D03
 10
5.452999999999998
 20
6.0
 30
0.0
  0
INSERT
  5
255
330
240
100
AcDbEntity
  8
DAMAN
100
AcDbBlockReference
  2
10SAET
 10
1.5
 20
6.1875
 30
0.0
  0
INSERT
  5
256
330
240
100
AcDbEntity
  8
DAMAN
100
AcDbBlockReference
  2
10SAET
 10
1.5
 20
4.8125
 30
0.0
  0
INSERT
  5
257
330
240
100
AcDbEntity
  8
DAMAN
100
AcDbBlockReference
  2
10SAET
 10
14.625
 20
6.1875
 30
0.0
 41
-1.0
  0
INSERT
  5
258
330
240
100
AcDbEntity
  8
DAMAN
100
AcDbBlockReference
  2
10SAET
 10
14.625
 20
4.8125
 30
0.0
 41
-1.0
  0
INSERT
  5
259
330
240
100
AcDbEntity
  8
DAMAN
100
AcDbBlockReference
  2
08SAET
 10
6.0625
 20
0.625
 30
0.0
  0
INSERT
  5
25A
330
240
100
AcDbEntity
  8
DAMAN
100
AcDbBlockReference
  2
08SAET
 10
6.0625
 20
2.375
 30
0.0
  0
LINE
  5
25B
330
240
100
AcDbEntity
  8
DAMAN
100
AcDbLine
 10
12.1245
 20
4.000499999999998
 30
0.0
 11
12.1245
 21
7.000499999999998
 31
0.0
  0
INSERT
  5
25C
330
240
100
AcDbEntity
  8
DAMAN
100
AcDbBlockReference
  2
100CROSS
 10
11.812
 20
4.312999999999998
 30
0.0
 41
-0.34
 42
0.34
 43
0.34
 50
270.0
  0
LWPOLYLINE
  5
25D
330
240
100
AcDbEntity
  8
DAMAN
100
AcDbPolyline
 90
        6
 70
   129
 43
0.0
 10
11.5625
 20
4.456837999999998
 10
11.5625
 20
4.168162
 10
11.8125
 20
4.023825
 10
12.0625
 20
4.168162
 10
12.0625
 20
4.456837999999998
 10
11.8125
 20
4.601174999999998
  0
CIRCLE
  5
265
330
240
100
AcDbEntity
  8
DAMAN
100
AcDbCircle
 10
11.813
 20
4.312999999999998
 30
0.0
 40
0.249501
  0
LINE
  5
266
330
240
100
AcDbEntity
  8
DAMAN
100
AcDbLine
 10
11.6255
 20
6.687999999999998
 30
0.0
 11
11.055419
 21
6.687999999999998
 31
0.0
  0
INSERT
  5
267
330
240
100
AcDbEntity
  8
DAMAN
100
AcDbBlockReference
  2
100CROSS
 10
11.812
 20
6.687999999999998
 30
0.0
 41
-0.34
 42
0.34
 43
0.34
 50
270.0
  0
LWPOLYLINE
  5
268
330
240
100
AcDbEntity
  8
DAMAN
100
AcDbPolyline
 90
        6
 70
   129
 43
0.0
 10
11.5625
 20
6.831838
 10
11.5625
 20
6.543162
 10
11.8125
 20
6.398825
 10
12.0625
 20
6.543162
 10
12.0625
 20
6.831838
 10
11.8125
 20
6.976174999999998
  0
CIRCLE
  5
270
330
240
100
AcDbEntity
  8
DAMAN
100
AcDbCircle
 10
11.813
 20
6.687999999999998
 30
0.0
 40
0.249501
  0
LINE
  5
271
330
240
100
AcDbEntity
  8
DAMAN
100
AcDbLine
 10
11.5005
 20
6.437999999999998
 30
0.0
 11
11.5005
 21
6.937999999999998
 31
0.0
  0
ARC
  5
272
330
240
100
AcDbEntity
  8
DAMAN
100
AcDbCircle
 10
11.401542
 20
6.471493999999998
 30
0.0
 40
0.098958
100
AcDbArc
 50
313.1735509999998
 51
46.82644899999999
  0
LINE
  5
273
330
240
100
AcDbEntity
  8
DAMAN
100
AcDbLine
 10
11.2505
 20
6.399325
 30
0.0
 11
11.46925
 21
6.399325
 31
0.0
  0
LINE
  5
274
330
240
100
AcDbEntity
  8
DAMAN
100
AcDbLine
 10
11.46925
 20
6.399325
 30
0.0
 11
11.5005
 21
6.437999999999998
 31
0.0
  0
LINE
  5
275
330
240
100
AcDbEntity
  8
DAMAN
100
AcDbLine
 10
12.1245
 20
7.000499999999998
 30
0.0
 11
11.12449999999999
 21
7.000499999999998
 31
0.0
  0
LINE
  5
276
330
240
100
AcDbEntity
  8
DAMAN
100
AcDbLine
 10
11.2505
 20
6.832338
 30
0.0
 11
11.46925
 21
6.832338
 31
0.0
  0
LINE
  5
277
330
240
100
AcDbEntity
  8
DAMAN
100
AcDbLine
 10
11.46925
 20
6.543662
 30
0.0
 11
11.2505
 21
6.543662
 31
0.0
  0
LINE
  5
278
330
240
100
AcDbEntity
  8
DAMAN
100
AcDbLine
 10
11.46925
 20
6.976675
 30
0.0
 11
11.2505
 21
6.976675
 31
0.0
  0
ARC
  5
279
330
240
100
AcDbEntity
  8
DAMAN
100
AcDbCircle
 10
11.15154199999998
 20
6.687999999999998
 30
0.0
 40
0.348958
100
AcDbArc
 50
335.5673019999998
 51
24.432698
  0
ARC
  5
27A
330
240
100
AcDbEntity
  8
DAMAN
100
AcDbCircle
 10
11.401542
 20
6.904505999999998
 30
0.0
 40
0.098958
100
AcDbArc
 50
313.1735509999998
 51
46.82644899999999
  0
LINE
  5
27B
330
240
100
AcDbEntity
  8
DAMAN
100
AcDbLine
 10
11.46925
 20
6.976675
 30
0.0
 11
11.5005
 21
6.937999999999998
 31
0.0
  0
LINE
  5
27C
330
240
100
AcDbEntity
  8
DAMAN
100
AcDbLine
 10
11.6255
 20
4.312999999999998
 30
0.0
 11
11.055419
 21
4.312999999999998
 31
0.0
  0
LINE
  5
27D
330
240
100
AcDbEntity
  8
DAMAN
100
AcDbLine
 10
11.5005
 20
4.062999999999998
 30
0.0
 11
11.5005
 21
4.562999999999998
 31
0.0
  0
ARC
  5
27E
330
240
100
AcDbEntity
  8
DAMAN
100
AcDbCircle
 10
11.401542
 20
4.529505999999998
 30
0.0
 40
0.098958
100
AcDbArc
 50
313.1735509999998
 51
46.82644899999999
  0
LINE
  5
27F
330
240
100
AcDbEntity
  8
DAMAN
100
AcDbLine
 10
11.2505
 20
4.457338
 30
0.0
 11
11.46925
 21
4.457338
 31
0.0
  0
LINE
  5
280
330
240
100
AcDbEntity
  8
DAMAN
100
AcDbLine
 10
11.2505
 20
4.024325
 30
0.0
 11
11.46925
 21
4.024325
 31
0.0
  0
LINE
  5
281
330
240
100
AcDbEntity
  8
DAMAN
100
AcDbLine
 10
11.46925
 20
4.168662
 30
0.0
 11
11.2505
 21
4.168662
 31
0.0
  0
ARC
  5
282
330
240
100
AcDbEntity
  8
DAMAN
100
AcDbCircle
 10
11.401542
 20
4.096493999999998
 30
0.0
 40
0.098958
100
AcDbArc
 50
313.1735509999998
 51
46.82644899999999
  0
LINE
  5
283
330
240
100
AcDbEntity
  8
DAMAN
100
AcDbLine
 10
11.46925
 20
4.024325
 30
0.0
 11
11.5005
 21
4.062999999999998
 31
0.0
  0
ARC
  5
284
330
240
100
AcDbEntity
  8
DAMAN
100
AcDbCircle
 10
11.15154199999998
 20
4.312999999999998
 30
0.0
 40
0.348958
100
AcDbArc
 50
335.5673019999998
 51
24.432698
  0
LINE
  5
285
330
240
100
AcDbEntity
  8
DAMAN
100
AcDbLine
 10
11.46925
 20
4.601675
 30
0.0
 11
11.2505
 21
4.601675
 31
0.0
  0
LINE
  5
286
330
240
100
AcDbEntity
  8
DAMAN
100
AcDbLine
 10
11.46925
 20
4.601675
 30
0.0
 11
11.5005
 21
4.562999999999998
 31
0.0
  0
LINE
  5
287
330
240
100
AcDbEntity
  8
DAMAN
100
AcDbLine
 10
11.2445
 20
7.000499999999998
 30
0.0
 11
11.2445
 21
4.000499999999998
 31
0.0
  0
LINE
  5
288
330
240
100
AcDbEntity
  8
DAMAN
100
AcDbLine
 10
11.12449999999999
 20
4.000499999999998
 30
0.0
 11
12.1245
 21
4.000499999999998
 31
0.0
  0
LINE
  5
289
330
240
100
AcDbEntity
  8
DAMAN
100
AcDbLine
 10
4.880499999999998
 20
7.000499999999998
 30
0.0
 11
4.880499999999998
 21
4.000499999999998
 31
0.0
  0
ARC
  5
28A
330
240
100
AcDbEntity
  8
DAMAN
100
AcDbCircle
 10
4.973457999999999
 20
4.312999999999998
 30
0.0
 40
0.348958
100
AcDbArc
 50
155.567302
 51
204.432698
  0
LINE
  5
28B
330
240
100
AcDbEntity
  8
DAMAN
100
AcDbLine
 10
4.6245
 20
4.062999999999998
 30
0.0
 11
4.6245
 21
4.562999999999998
 31
0.0
  0
CIRCLE
  5
28C
330
240
100
AcDbEntity
  8
DAMAN
100
AcDbCircle
 10
4.312
 20
4.312999999999998
 30
0.0
 40
0.249501
  0
LWPOLYLINE
  5
28D
330
240
100
AcDbEntity
  8
DAMAN
100
AcDbPolyline
 90
        6
 70
   129
 43
0.0
 10
4.5625
 20
4.456837999999998
 10
4.5625
 20
4.168162
 10
4.3125
 20
4.023825
 10
4.0625
 20
4.168162
 10
4.0625
 20
4.456837999999998
 10
4.3125
 20
4.601174999999998
  0
INSERT
  5
295
330
240
100
AcDbEntity
  8
DAMAN
100
AcDbBlockReference
  2
100CROSS
 10
4.312999999999998
 20
4.312999999999998
 30
0.0
 41
0.34
 42
0.34
 43
0.34
 50
90.0
  0
LINE
  5
296
330
240
100
AcDbEntity
  8
DAMAN
100
AcDbLine
 10
4.000499999999998
 20
4.000499999999998
 30
0.0
 11
4.000499999999998
 21
7.000499999999998
 31
0.0
  0
LINE
  5
297
330
240
100
AcDbEntity
  8
DAMAN
100
AcDbLine
 10
4.4995
 20
4.312999999999998
 30
0.0
 11
5.069580999999998
 21
4.312999999999998
 31
0.0
  0
LINE
  5
298
330
240
100
AcDbEntity
  8
DAMAN
100
AcDbLine
 10
5.000499999999998
 20
4.000499999999998
 30
0.0
 11
4.000499999999998
 21
4.000499999999998
 31
0.0
  0
ARC
  5
299
330
240
100
AcDbEntity
  8
DAMAN
100
AcDbCircle
 10
4.723457999999999
 20
4.096493999999998
 30
0.0
 40
0.098958
100
AcDbArc
 50
133.173551
 51
226.826449
  0
LINE
  5
29A
330
240
100
AcDbEntity
  8
DAMAN
100
AcDbLine
 10
4.8745
 20
4.024325
 30
0.0
 11
4.65575
 21
4.024325
 31
0.0
  0
LINE
  5
29B
330
240
100
AcDbEntity
  8
DAMAN
100
AcDbLine
 10
4.65575
 20
4.024325
 30
0.0
 11
4.6245
 21
4.062999999999998
 31
0.0
  0
LINE
  5
29C
330
240
100
AcDbEntity
  8
DAMAN
100
AcDbLine
 10
4.65575
 20
4.168662
 30
0.0
 11
4.8745
 21
4.168662
 31
0.0
  0
LINE
  5
29D
330
240
100
AcDbEntity
  8
DAMAN
100
AcDbLine
 10
4.65575
 20
4.601675
 30
0.0
 11
4.8745
 21
4.601675
 31
0.0
  0
LINE
  5
29E
330
240
100
AcDbEntity
  8
DAMAN
100
AcDbLine
 10
4.8745
 20
4.457338
 30
0.0
 11
4.65575
 21
4.457338
 31
0.0
  0
LINE
  5
29F
330
240
100
AcDbEntity
  8
DAMAN
100
AcDbLine
 10
4.65575
 20
4.601675
 30
0.0
 11
4.6245
 21
4.562999999999998
 31
0.0
  0
ARC
  5
2A0
330
240
100
AcDbEntity
  8
DAMAN
100
AcDbCircle
 10
4.723457999999999
 20
4.529505999999998
 30
0.0
 40
0.098958
100
AcDbArc
 50
133.173551
 51
226.826449
  0
LINE
  5
2A1
330
240
100
AcDbEntity
  8
DAMAN
100
AcDbLine
 10
4.4995
 20
6.687999999999998
 30
0.0
 11
5.069580999999998
 21
6.687999999999998
 31
0.0
  0
LINE
  5
2A2
330
240
100
AcDbEntity
  8
DAMAN
100
AcDbLine
 10
4.000499999999998
 20
7.000499999999998
 30
0.0
 11
5.000499999999998
 21
7.000499999999998
 31
0.0
  0
ARC
  5
2A3
330
240
100
AcDbEntity
  8
DAMAN
100
AcDbCircle
 10
4.973457999999999
 20
6.687999999999998
 30
0.0
 40
0.348958
100
AcDbArc
 50
155.567302
 51
204.432698
  0
LINE
  5
2A4
330
240
100
AcDbEntity
  8
DAMAN
100
AcDbLine
 10
4.6245
 20
6.437999999999998
 30
0.0
 11
4.6245
 21
6.937999999999998
 31
0.0
  0
CIRCLE
  5
2A5
330
240
100
AcDbEntity
  8
DAMAN
100
AcDbCircle
 10
4.312
 20
6.687999999999998
 30
0.0
 40
0.249501
  0
LWPOLYLINE
  5
2A6
330
240
100
AcDbEntity
  8
DAMAN
100
AcDbPolyline
 90
        6
 70
   129
 43
0.0
 10
4.5625
 20
6.831838
 10
4.5625
 20
6.543162
 10
4.3125
 20
6.398825
 10
4.0625
 20
6.543162
 10
4.0625
 20
6.831838
 10
4.3125
 20
6.976174999999998
  0
INSERT
  5
2AE
330
240
100
AcDbEntity
  8
DAMAN
100
AcDbBlockReference
  2
100CROSS
 10
4.312999999999998
 20
6.687999999999998
 30
0.0
 41
0.34
 42
0.34
 43
0.34
 50
90.0
  0
LINE
  5
2AF
330
240
100
AcDbEntity
  8
DAMAN
100
AcDbLine
 10
4.65575
 20
6.543662
 30
0.0
 11
4.8745
 21
6.543662
 31
0.0
  0
LINE
  5
2B0
330
240
100
AcDbEntity
  8
DAMAN
100
AcDbLine
 10
4.8745
 20
6.399325
 30
0.0
 11
4.65575
 21
6.399325
 31
0.0
  0
LINE
  5
2B1
330
240
100
AcDbEntity
  8
DAMAN
100
AcDbLine
 10
4.65575
 20
6.399325
 30
0.0
 11
4.6245
 21
6.437999999999998
 31
0.0
  0
ARC
  5
2B2
330
240
100
AcDbEntity
  8
DAMAN
100
AcDbCircle
 10
4.723457999999999
 20
6.471493999999998
 30
0.0
 40
0.098958
100
AcDbArc
 50
133.173551
 51
226.826449
  0
ARC
  5
2B3
330
240
100
AcDbEntity
  8
DAMAN
100
AcDbCircle
 10
4.723457999999999
 20
6.904505999999998
 30
0.0
 40
0.098958
100
AcDbArc
 50
133.173551
 51
226.826449
  0
LINE
  5
2B4
330
240
100
AcDbEntity
  8
DAMAN
100
AcDbLine
 10
4.8745
 20
6.832338
 30
0.0
 11
4.65575
 21
6.832338
 31
0.0
  0
LINE
  5
2B5
330
240
100
AcDbEntity
  8
DAMAN
100
AcDbLine
 10
4.65575
 20
6.976675
 30
0.0
 11
4.8745
 21
6.976675
 31
0.0
  0
LINE
  5
2B6
330
240
100
AcDbEntity
  8
DAMAN
100
AcDbLine
 10
4.65575
 20
6.976675
 30
0.0
 11
4.6245
 21
6.937999999999998
 31
0.0
  0
INSERT
  5
2B7
330
240
100
AcDbEntity
  8
DAMAN
100
AcDbBlockReference
  2
300MKS
 10
5.0
 20
0.0
 30
0.0
  0
INSERT
  5
2B8
330
240
100
AcDbEntity
  8
DAMAN
100
AcDbBlockReference
  2
300MKS
 10
11.125
 20
0.0
 30
0.0
 41
-1.0
  0
TEXT
  5
2B9
330
240
100
AcDbEntity
  8
DAMAN
100
AcDbText
 10
6.701777
 20
2.741878999999998
 30
0.0
 40
0.188
  1
B
100
AcDbText
  0
TEXT
  5
2BA
330
240
100
AcDbEntity
  8
DAMAN
100
AcDbText
 10
6.701777
 20
0.9606899999999999
 30
0.0
 40
0.188
  1
A
100
AcDbText
  0
TEXT
  5
2BB
330
240
100
AcDbEntity
  8
DAMAN
100
AcDbText
 10
2.104425999999999
 20
6.820938
 30
0.0
 40
0.188
  1
T
 50
270.0
100
AcDbText
  0
TEXT
  5
2BC
330
240
100
AcDbEntity
  8
DAMAN
100
AcDbText
 10
2.145231
 20
4.291922
 30
0.0
 40
0.188
  1
P
 50
270.0
100
AcDbText
  0
TEXT
  5
2BD
330
240
100
AcDbEntity
  8
DAMAN
100
AcDbText
 10
13.952566
 20
4.183146999999999
 30
0.0
 40
0.188
  1
P
 50
90.0
100
AcDbText
  0
TEXT
  5
2BE
330
240
100
AcDbEntity
  8
DAMAN
100
AcDbText
 10
13.952566
 20
6.671372999999999
 30
0.0
 40
0.188
  1
T
 50
90.0
100
AcDbText
  0
INSERT
  5
2BF
330
240
100
AcDbEntity
  8
DAMAN
100
AcDbBlockReference
  2
06SAET
 10
7.125
 20
1.5
 30
0.0
  0
TEXT
  5
2C0
330
240
100
AcDbEntity
  8
DAMAN
100
AcDbText
 10
7.327452
 20
1.966858
 30
0.0
 40
0.188
  1
GA
100
AcDbText
  0
INSERT
  5
2C1
330
240
100
AcDbEntity
  8
DAMAN
100
AcDbBlockReference
  2
D03
 10
9.452999999999999
 20
6.0
 30
0.0
  0
INSERT
  5
2C2
330
240
100
AcDbEntity
  8
DAMAN
100
AcDbBlockReference
  2
08SAET
 10
10.0625
 20
2.375
 30
0.0
  0
TEXT
  5
2C3
330
240
100
AcDbEntity
  8
DAMAN
100
AcDbText
 10
10.701777
 20
2.741878999999998
 30
0.0
 40
0.188
  1
B
100
AcDbText
  0
INSERT
  5
2C4
330
240
100
AcDbEntity
  8
DAMAN
100
AcDbBlockReference
  2
08SAET
 10
10.0625
 20
0.625
 30
0.0
  0
TEXT
  5
2C5
330
240
100
AcDbEntity
  8
DAMAN
100
AcDbText
 10
10.701777
 20
0.9606899999999999
 30
0.0
 40
0.188
  1
A
100
AcDbText
  0
ENDBLK
  5
2C6
330
240
100
AcDbEntity
  8
0
100
AcDbBlockEnd
  0
BLOCK
  5
2C8
330
2C7
100
AcDbEntity
  8
0
100
AcDbBlockBegin
  2
600MK
 70
     0
 10
0.0
 20
0.0
 30
0.0
  3
600MK
  1

  0
LINE
  5
2C9
330
2C7
100
AcDbEntity
  8
DAMAN
100
AcDbLine
 10
0.59375
 20
1.5625
 30
0.0
 11
0.59375
 21
3.1875
 31
0.0
  0
LINE
  5
2CA
330
2C7
100
AcDbEntity
  8
DAMAN
100
AcDbLine
 10
0.59375
 20
3.1875
 30
0.0
 11
6.59375
 21
3.1875
 31
0.0
  0
LINE
  5
2CB
330
2C7
100
AcDbEntity
  8
DAMAN
100
AcDbLine
 10
6.59375
 20
3.1875
 30
0.0
 11
6.59375
 21
1.5625
 31
0.0
  0
LINE
  5
2CC
330
2C7
100
AcDbEntity
  8
DAMAN
100
AcDbLine
 10
6.59375
 20
1.5625
 30
0.0
 11
0.59375
 21
1.5625
 31
0.0
  0
LINE
  5
2CD
330
2C7
100
AcDbEntity
  8
DAMAN
100
AcDbLine
 10
6.59375
 20
1.75
 30
0.0
 11
0.59375
 21
1.75
 31
0.0
  0
CIRCLE
  5
2CE
330
2C7
100
AcDbEntity
  8
DAMAN
100
AcDbCircle
 10
1.15625
 20
2.625
 30
0.0
 40
0.28125
  0
INSERT
  5
2CF
330
2C7
100
AcDbEntity
  8
DAMAN
100
AcDbBlockReference
  2
100CROSS
 10
1.15625
 20
2.625
 30
0.0
 41
0.5625
 42
0.5625
 43
0.5625
  0
INSERT
  5
2D0
330
2C7
100
AcDbEntity
  8
DAMAN
100
AcDbBlockReference
  2
100CROSS
 10
6.03125
 20
2.625
 30
0.0
 41
0.5625
 42
0.5625
 43
0.5625
  0
CIRCLE
  5
2D1
330
2C7
100
AcDbEntity
  8
DAMAN
100
AcDbCircle
 10
6.03125
 20
2.625
 30
0.0
 40
0.28125
  0
CIRCLE
  5
2D2
330
2C7
100
AcDbEntity
  8
DAMAN
100
AcDbCircle
 10
6.03125
 20
6.5
 30
0.0
 40
0.28125
  0
INSERT
  5
2D3
330
2C7
100
AcDbEntity
  8
DAMAN
100
AcDbBlockReference
  2
100CROSS
 10
6.03125
 20
6.5
 30
0.0
 41
-0.5625
 42
0.5625
 43
0.5625
 50
180.0
  0
INSERT
  5
2D4
330
2C7
100
AcDbEntity
  8
DAMAN
100
AcDbBlockReference
  2
100CROSS
 10
1.15625
 20
6.5
 30
0.0
 41
-0.5625
 42
0.5625
 43
0.5625
 50
180.0
  0
CIRCLE
  5
2D5
330
2C7
100
AcDbEntity
  8
DAMAN
100
AcDbCircle
 10
1.15625
 20
6.5
 30
0.0
 40
0.28125
  0
LINE
  5
2D6
330
2C7
100
AcDbEntity
  8
DAMAN
100
AcDbLine
 10
6.59375
 20
7.375
 30
0.0
 11
0.59375
 21
7.375
 31
0.0
  0
LINE
  5
2D7
330
2C7
100
AcDbEntity
  8
DAMAN
100
AcDbLine
 10
6.59375
 20
7.5625
 30
0.0
 11
0.59375
 21
7.5625
 31
0.0
  0
LINE
  5
2D8
330
2C7
100
AcDbEntity
  8
DAMAN
100
AcDbLine
 10
6.59375
 20
5.9375
 30
0.0
 11
6.59375
 21
7.5625
 31
0.0
  0
LINE
  5
2D9
330
2C7
100
AcDbEntity
  8
DAMAN
100
AcDbLine
 10
0.59375
 20
5.9375
 30
0.0
 11
6.59375
 21
5.9375
 31
0.0
  0
LINE
  5
2DA
330
2C7
100
AcDbEntity
  8
DAMAN
100
AcDbLine
 10
0.59375
 20
7.5625
 30
0.0
 11
0.59375
 21
5.9375
 31
0.0
  0
LINE
  5
2DB
330
2C7
100
AcDbEntity
  8
DAMAN
100
AcDbLine
 10
8.78125
 20
1.5625
 30
0.0
 11
8.78125
 21
1.75
 31
0.0
  0
LINE
  5
2DC
330
2C7
100
AcDbEntity
  8
DAMAN
100
AcDbLine
 10
8.78125
 20
1.75
 30
0.0
 11
9.96875
 21
1.75
 31
0.0
  0
LINE
  5
2DD
330
2C7
100
AcDbEntity
  8
DAMAN
100
AcDbLine
 10
10.21875
 20
2.0
 30
0.0
 11
10.21875
 21
3.1875
 31
0.0
  0
LINE
  5
2DE
330
2C7
100
AcDbEntity
  8
DAMAN
100
AcDbLine
 10
10.21875
 20
3.1875
 30
0.0
 11
10.40625
 21
3.1875
 31
0.0
  0
LINE
  5
2DF
330
2C7
100
AcDbEntity
  8
DAMAN
100
AcDbLine
 10
10.40625
 20
3.1875
 30
0.0
 11
10.40625
 21
2.0
 31
0.0
  0
LINE
  5
2E0
330
2C7
100
AcDbEntity
  8
DAMAN
100
AcDbLine
 10
9.96875
 20
1.5625
 30
0.0
 11
8.78125
 21
1.5625
 31
0.0
  0
ARC
  5
2E1
330
2C7
100
AcDbEntity
  8
DAMAN
100
AcDbCircle
 10
9.96875
 20
2.0
 30
0.0
 40
0.25
100
AcDbArc
 50
270.0
 51
0.0
  0
ARC
  5
2E2
330
2C7
100
AcDbEntity
  8
DAMAN
100
AcDbCircle
 10
9.96875
 20
2.0
 30
0.0
 40
0.4375
100
AcDbArc
 50
270.0
 51
0.0
  0
LINE
  5
2E3
330
2C7
100
AcDbEntity
  8
DAMAN
100
AcDbLine
 10
8.8125
 20
1.75
 30
0.0
 11
8.8125
 21
1.8125
 31
0.0
  0
LINE
  5
2E4
330
2C7
100
AcDbEntity
  8
DAMAN
100
AcDbLine
 10
8.8125
 20
1.8125
 30
0.0
 11
9.875
 21
1.8125
 31
0.0
  0
LINE
  5
2E5
330
2C7
100
AcDbEntity
  8
DAMAN
100
AcDbLine
 10
9.875
 20
1.8125
 30
0.0
 11
9.875
 21
1.75
 31
0.0
  0
LINE
  5
2E6
330
2C7
100
AcDbEntity
  8
DAMAN
100
AcDbLine
 10
8.910736999999997
 20
1.8125
 30
0.0
 11
8.910736999999997
 21
2.082165
 31
0.0
  0
LINE
  5
2E7
330
2C7
100
AcDbEntity
  8
DAMAN
100
AcDbLine
 10
8.984928999999997
 20
2.125
 30
0.0
 11
9.702571
 21
2.125
 31
0.0
  0
LINE
  5
2E8
330
2C7
100
AcDbEntity
  8
DAMAN
100
AcDbLine
 10
9.776763
 20
2.082165
 30
0.0
 11
9.776763
 21
1.8125
 31
0.0
  0
LINE
  5
2E9
330
2C7
100
AcDbEntity
  8
DAMAN
100
AcDbLine
 10
9.127243999999999
 20
1.8125
 30
0.0
 11
9.127243999999999
 21
2.0625
 31
0.0
  0
LINE
  5
2EA
330
2C7
100
AcDbEntity
  8
DAMAN
100
AcDbLine
 10
9.560255999999997
 20
1.8125
 30
0.0
 11
9.560255999999997
 21
2.0625
 31
0.0
  0
ARC
  5
2EB
330
2C7
100
AcDbEntity
  8
DAMAN
100
AcDbCircle
 10
9.34375
 20
1.71875
 30
0.0
 40
0.40625
100
AcDbArc
 50
57.79577200000001
 51
122.2042279999999
  0
ARC
  5
2EC
330
2C7
100
AcDbEntity
  8
DAMAN
100
AcDbCircle
 10
9.668509999999999
 20
2.0
 30
0.0
 40
0.125
100
AcDbArc
 50
30.0
 51
150.0
  0
ARC
  5
2ED
330
2C7
100
AcDbEntity
  8
DAMAN
100
AcDbCircle
 10
9.018989999999996
 20
2.0
 30
0.0
 40
0.125
100
AcDbArc
 50
30.0
 51
150.0
  0
LINE
  5
2EE
330
2C7
100
AcDbEntity
  8
DAMAN
100
AcDbLine
 10
8.910736999999997
 20
2.082165
 30
0.0
 11
8.984928999999997
 21
2.125
 31
0.0
  0
LINE
  5
2EF
330
2C7
100
AcDbEntity
  8
DAMAN
100
AcDbLine
 10
9.776763
 20
2.082165
 30
0.0
 11
9.702571
 21
2.125
 31
0.0
  0
LINE
  5
2F0
330
2C7
100
AcDbEntity
  8
DAMAN
100
AcDbLine
 10
9.09375
 20
1.5625
 30
0.0
 11
9.09375
 21
0.84375
 31
0.0
  0
LINE
  5
2F1
330
2C7
100
AcDbEntity
  8
DAMAN
100
AcDbLine
 10
9.09375
 20
0.84375
 30
0.0
 11
9.125
 21
0.8125
 31
0.0
  0
LINE
  5
2F2
330
2C7
100
AcDbEntity
  8
DAMAN
100
AcDbLine
 10
9.125
 20
0.8125
 30
0.0
 11
9.5625
 21
0.8125
 31
0.0
  0
LINE
  5
2F3
330
2C7
100
AcDbEntity
  8
DAMAN
100
AcDbLine
 10
9.5625
 20
0.8125
 30
0.0
 11
9.59375
 21
0.84375
 31
0.0
  0
LINE
  5
2F4
330
2C7
100
AcDbEntity
  8
DAMAN
100
AcDbLine
 10
9.59375
 20
0.84375
 30
0.0
 11
9.59375
 21
1.5625
 31
0.0
  0
LINE
  5
2F5
330
2C7
100
AcDbEntity
  8
DAMAN
100
AcDbLine
 10
9.125
 20
1.5625
 30
0.0
 11
9.125
 21
0.8125
 31
0.0
  0
LINE
  5
2F6
330
2C7
100
AcDbEntity
  8
DAMAN
100
AcDbLine
 10
9.5625
 20
1.5625
 30
0.0
 11
9.5625
 21
0.8125
 31
0.0
  0
LINE
  5
2F7
330
2C7
100
AcDbEntity
  8
DAMAN
100
AcDbLine
 10
9.34375
 20
2.25
 30
0.0
 11
9.34375
 21
0.71875
 31
0.0
  0
LINE
  5
2F8
330
2C7
100
AcDbEntity
  8
DAMAN
100
AcDbLine
 10
9.886585
 20
3.058013
 30
0.0
 11
9.84375
 21
2.983820999999998
 31
0.0
  0
LINE
  5
2F9
330
2C7
100
AcDbEntity
  8
DAMAN
100
AcDbLine
 10
9.886585
 20
2.191986999999999
 30
0.0
 11
9.84375
 21
2.266179
 31
0.0
  0
ARC
  5
2FA
330
2C7
100
AcDbEntity
  8
DAMAN
100
AcDbCircle
 10
9.96875
 20
2.30024
 30
0.0
 40
0.125
100
AcDbArc
 50
119.9999999999999
 51
239.9999999999999
  0
ARC
  5
2FB
330
2C7
100
AcDbEntity
  8
DAMAN
100
AcDbCircle
 10
9.96875
 20
2.949759999999998
 30
0.0
 40
0.125
100
AcDbArc
 50
119.9999999999999
 51
239.9999999999999
  0
ARC
  5
2FC
330
2C7
100
AcDbEntity
  8
DAMAN
100
AcDbCircle
 10
10.25
 20
2.625
 30
0.0
 40
0.40625
100
AcDbArc
 50
147.795772
 51
212.2042279999999
  0
LINE
  5
2FD
330
2C7
100
AcDbEntity
  8
DAMAN
100
AcDbLine
 10
10.15625
 20
2.841506
 30
0.0
 11
9.90625
 21
2.841506
 31
0.0
  0
LINE
  5
2FE
330
2C7
100
AcDbEntity
  8
DAMAN
100
AcDbLine
 10
10.15625
 20
2.408493999999999
 30
0.0
 11
9.90625
 21
2.408493999999999
 31
0.0
  0
LINE
  5
2FF
330
2C7
100
AcDbEntity
  8
DAMAN
100
AcDbLine
 10
9.886585
 20
3.058013
 30
0.0
 11
10.15625
 21
3.058013
 31
0.0
  0
LINE
  5
300
330
2C7
100
AcDbEntity
  8
DAMAN
100
AcDbLine
 10
9.84375
 20
2.266179
 30
0.0
 11
9.84375
 21
2.983820999999998
 31
0.0
  0
LINE
  5
301
330
2C7
100
AcDbEntity
  8
DAMAN
100
AcDbLine
 10
10.15625
 20
2.191986999999999
 30
0.0
 11
9.886585
 21
2.191986999999999
 31
0.0
  0
LINE
  5
302
330
2C7
100
AcDbEntity
  8
DAMAN
100
AcDbLine
 10
10.15625
 20
3.15625
 30
0.0
 11
10.21875
 21
3.15625
 31
0.0
  0
LINE
  5
303
330
2C7
100
AcDbEntity
  8
DAMAN
100
AcDbLine
 10
10.15625
 20
2.09375
 30
0.0
 11
10.15625
 21
3.15625
 31
0.0
  0
LINE
  5
304
330
2C7
100
AcDbEntity
  8
DAMAN
100
AcDbLine
 10
10.21875
 20
2.09375
 30
0.0
 11
10.15625
 21
2.09375
 31
0.0
  0
ENDBLK
  5
305
330
2C7
100
AcDbEntity
  8
0
100
AcDbBlockEnd
  0
BLOCK
  5
307
330
306
100
AcDbEntity
  8
0
100
AcDbBlockBegin
  2
600MKS
 70
     0
 10
0.0
 20
0.0
 30
0.0
  3
600MKS
  1

  0
LINE
  5
308
330
306
100
AcDbEntity
  8
DAMAN
100
AcDbLine
 10
-1.625
 20
-0.5625
 30
0.0
 11
-1.625
 21
-0.375
 31
0.0
  0
LINE
  5
309
330
306
100
AcDbEntity
  8
DAMAN
100
AcDbLine
 10
-1.625
 20
-0.375
 30
0.0
 11
-0.4375
 21
-0.375
 31
0.0
  0
LINE
  5
30A
330
306
100
AcDbEntity
  8
DAMAN
100
AcDbLine
 10
-0.1875
 20
-0.125
 30
0.0
 11
-0.1875
 21
1.0625
 31
0.0
  0
LINE
  5
30B
330
306
100
AcDbEntity
  8
DAMAN
100
AcDbLine
 10
-0.1875
 20
1.0625
 30
0.0
 11
0.0
 21
1.0625
 31
0.0
  0
LINE
  5
30C
330
306
100
AcDbEntity
  8
DAMAN
100
AcDbLine
 10
0.0
 20
1.0625
 30
0.0
 11
0.0
 21
-0.125
 31
0.0
  0
LINE
  5
30D
330
306
100
AcDbEntity
  8
DAMAN
100
AcDbLine
 10
-0.4375
 20
-0.5625
 30
0.0
 11
-1.625
 21
-0.5625
 31
0.0
  0
ARC
  5
30E
330
306
100
AcDbEntity
  8
DAMAN
100
AcDbCircle
 10
-0.4375
 20
-0.125
 30
0.0
 40
0.25
100
AcDbArc
 50
270.0
 51
0.0
  0
ARC
  5
30F
330
306
100
AcDbEntity
  8
DAMAN
100
AcDbCircle
 10
-0.4375
 20
-0.125
 30
0.0
 40
0.4375
100
AcDbArc
 50
270.0
 51
0.0
  0
LINE
  5
310
330
306
100
AcDbEntity
  8
DAMAN
100
AcDbLine
 10
-1.59375
 20
-0.375
 30
0.0
 11
-1.59375
 21
-0.3125
 31
0.0
  0
LINE
  5
311
330
306
100
AcDbEntity
  8
DAMAN
100
AcDbLine
 10
-1.59375
 20
-0.3125
 30
0.0
 11
-0.53125
 21
-0.3125
 31
0.0
  0
LINE
  5
312
330
306
100
AcDbEntity
  8
DAMAN
100
AcDbLine
 10
-0.53125
 20
-0.3125
 30
0.0
 11
-0.53125
 21
-0.375
 31
0.0
  0
LINE
  5
313
330
306
100
AcDbEntity
  8
DAMAN
100
AcDbLine
 10
-1.495512999999999
 20
-0.3125
 30
0.0
 11
-1.495512999999999
 21
-0.042835
 31
0.0
  0
LINE
  5
314
330
306
100
AcDbEntity
  8
DAMAN
100
AcDbLine
 10
-1.421320999999999
 20
0.0
 30
0.0
 11
-0.703679
 21
0.0
 31
0.0
  0
LINE
  5
315
330
306
100
AcDbEntity
  8
DAMAN
100
AcDbLine
 10
-0.6294870000000002
 20
-0.042835
 30
0.0
 11
-0.6294870000000002
 21
-0.3125
 31
0.0
  0
LINE
  5
316
330
306
100
AcDbEntity
  8
DAMAN
100
AcDbLine
 10
-1.279005999999998
 20
-0.3125
 30
0.0
 11
-1.279005999999998
 21
-0.0625
 31
0.0
  0
LINE
  5
317
330
306
100
AcDbEntity
  8
DAMAN
100
AcDbLine
 10
-0.8459939999999999
 20
-0.3125
 30
0.0
 11
-0.8459939999999999
 21
-0.0625
 31
0.0
  0
ARC
  5
318
330
306
100
AcDbEntity
  8
DAMAN
100
AcDbCircle
 10
-1.0625
 20
-0.40625
 30
0.0
 40
0.40625
100
AcDbArc
 50
57.79577200000001
 51
122.2042279999999
  0
ARC
  5
319
330
306
100
AcDbEntity
  8
DAMAN
100
AcDbCircle
 10
-0.73774
 20
-0.125
 30
0.0
 40
0.125
100
AcDbArc
 50
30.0
 51
150.0
  0
ARC
  5
31A
330
306
100
AcDbEntity
  8
DAMAN
100
AcDbCircle
 10
-1.387259999999999
 20
-0.125
 30
0.0
 40
0.125
100
AcDbArc
 50
30.0
 51
150.0
  0
LINE
  5
31B
330
306
100
AcDbEntity
  8
DAMAN
100
AcDbLine
 10
-1.495512999999999
 20
-0.042835
 30
0.0
 11
-1.421320999999999
 21
0.0
 31
0.0
  0
LINE
  5
31C
330
306
100
AcDbEntity
  8
DAMAN
100
AcDbLine
 10
-0.6294870000000002
 20
-0.042835
 30
0.0
 11
-0.703679
 21
0.0
 31
0.0
  0
LINE
  5
31D
330
306
100
AcDbEntity
  8
DAMAN
100
AcDbLine
 10
-1.3125
 20
-0.5625
 30
0.0
 11
-1.3125
 21
-1.28125
 31
0.0
  0
LINE
  5
31E
330
306
100
AcDbEntity
  8
DAMAN
100
AcDbLine
 10
-1.3125
 20
-1.28125
 30
0.0
 11
-1.28125
 21
-1.3125
 31
0.0
  0
LINE
  5
31F
330
306
100
AcDbEntity
  8
DAMAN
100
AcDbLine
 10
-1.28125
 20
-1.3125
 30
0.0
 11
-0.84375
 21
-1.3125
 31
0.0
  0
LINE
  5
320
330
306
100
AcDbEntity
  8
DAMAN
100
AcDbLine
 10
-0.84375
 20
-1.3125
 30
0.0
 11
-0.8125
 21
-1.28125
 31
0.0
  0
LINE
  5
321
330
306
100
AcDbEntity
  8
DAMAN
100
AcDbLine
 10
-0.8125
 20
-1.28125
 30
0.0
 11
-0.8125
 21
-0.5625
 31
0.0
  0
LINE
  5
322
330
306
100
AcDbEntity
  8
DAMAN
100
AcDbLine
 10
-1.28125
 20
-0.5625
 30
0.0
 11
-1.28125
 21
-1.3125
 31
0.0
  0
LINE
  5
323
330
306
100
AcDbEntity
  8
DAMAN
100
AcDbLine
 10
-0.84375
 20
-0.5625
 30
0.0
 11
-0.84375
 21
-1.3125
 31
0.0
  0
LINE
  5
324
330
306
100
AcDbEntity
  8
DAMAN
100
AcDbLine
 10
-1.0625
 20
0.125
 30
0.0
 11
-1.0625
 21
-1.40625
 31
0.0
  0
LINE
  5
325
330
306
100
AcDbEntity
  8
DAMAN
100
AcDbLine
 10
-0.5196649999999999
 20
0.9330129999999996
 30
0.0
 11
-0.5625
 21
0.858821
 31
0.0
  0
LINE
  5
326
330
306
100
AcDbEntity
  8
DAMAN
100
AcDbLine
 10
-0.5196649999999999
 20
0.066987
 30
0.0
 11
-0.5625
 21
0.141179
 31
0.0
  0
ARC
  5
327
330
306
100
AcDbEntity
  8
DAMAN
100
AcDbCircle
 10
-0.4375
 20
0.17524
 30
0.0
 40
0.125
100
AcDbArc
 50
119.9999999999999
 51
239.9999999999999
  0
ARC
  5
328
330
306
100
AcDbEntity
  8
DAMAN
100
AcDbCircle
 10
-0.4375
 20
0.82476
 30
0.0
 40
0.125
100
AcDbArc
 50
119.9999999999999
 51
239.9999999999999
  0
ARC
  5
329
330
306
100
AcDbEntity
  8
DAMAN
100
AcDbCircle
 10
-0.15625
 20
0.5
 30
0.0
 40
0.40625
100
AcDbArc
 50
147.795772
 51
212.2042279999999
  0
LINE
  5
32A
330
306
100
AcDbEntity
  8
DAMAN
100
AcDbLine
 10
-0.25
 20
0.7165060000000001
 30
0.0
 11
-0.5
 21
0.7165060000000001
 31
0.0
  0
LINE
  5
32B
330
306
100
AcDbEntity
  8
DAMAN
100
AcDbLine
 10
-0.25
 20
0.283494
 30
0.0
 11
-0.5
 21
0.283494
 31
0.0
  0
LINE
  5
32C
330
306
100
AcDbEntity
  8
DAMAN
100
AcDbLine
 10
-0.5196649999999999
 20
0.9330129999999996
 30
0.0
 11
-0.25
 21
0.9330129999999996
 31
0.0
  0
LINE
  5
32D
330
306
100
AcDbEntity
  8
DAMAN
100
AcDbLine
 10
-0.5625
 20
0.141179
 30
0.0
 11
-0.5625
 21
0.858821
 31
0.0
  0
LINE
  5
32E
330
306
100
AcDbEntity
  8
DAMAN
100
AcDbLine
 10
-0.25
 20
0.066987
 30
0.0
 11
-0.5196649999999999
 21
0.066987
 31
0.0
  0
LINE
  5
32F
330
306
100
AcDbEntity
  8
DAMAN
100
AcDbLine
 10
-0.25
 20
1.03125
 30
0.0
 11
-0.1875
 21
1.03125
 31
0.0
  0
LINE
  5
330
330
306
100
AcDbEntity
  8
DAMAN
100
AcDbLine
 10
-0.25
 20
-0.03125
 30
0.0
 11
-0.25
 21
1.03125
 31
0.0
  0
LINE
  5
331
330
306
100
AcDbEntity
  8
DAMAN
100
AcDbLine
 10
-0.1875
 20
-0.03125
 30
0.0
 11
-0.25
 21
-0.03125
 31
0.0
  0
ENDBLK
  5
332
330
306
100
AcDbEntity
  8
0
100
AcDbBlockEnd
  0
BLOCK
  5
334
330
333
100
AcDbEntity
  8
0
100
AcDbBlockBegin
  2
D08NOX
 70
     0
 10
0.0
 20
0.0
 30
0.0
  3
D08NOX
  1

  0
INSERT
  5
335
330
333
100
AcDbEntity
  8
DAMAN
100
AcDbBlockReference
  2
100CROSS
 10
2.875
 20
-4.437999999999998
 30
0.0
 41
0.4375
 42
0.4375
 43
0.4375
  0
INSERT
  5
336
330
333
100
AcDbEntity
  8
DAMAN
100
AcDbBlockReference
  2
100CROSS
 10
3.625
 20
-5.125
 30
0.0
 41
0.6
 42
0.6
 43
0.6
  0
CIRCLE
  5
337
330
333
100
AcDbEntity
  8
DAMAN
100
AcDbCircle
 10
2.875
 20
-4.437999999999998
 30
0.0
 40
0.2189999999999999
  0
INSERT
  5
338
330
333
100
AcDbEntity
  8
DAMAN
100
AcDbBlockReference
  2
100CROSS
 10
0.6875
 20
-3.96875
 30
0.0
 41
1.03
 42
1.03
  0
INSERT
  5
339
330
333
100
AcDbEntity
  8
DAMAN
100
AcDbBlockReference
  2
100CROSS
 10
0.6875
 20
-2.09375
 30
0.0
 41
1.03
 42
1.03
  0
CIRCLE
  5
33A
330
333
100
AcDbEntity
  8
DAMAN
100
AcDbCircle
 10
2.938
 20
-1.155999999999999
 30
0.0
 40
0.453
  0
INSERT
  5
33B
330
333
100
AcDbEntity
  8
DAMAN
100
AcDbBlockReference
  2
100CROSS
 10
2.9375
 20
-1.15625
 30
0.0
 41
1.03
 42
1.03
  0
CIRCLE
  5
33C
330
333
100
AcDbEntity
  8
DAMAN
100
AcDbCircle
 10
2.938
 20
-3.031
 30
0.0
 40
0.453
  0
INSERT
  5
33D
330
333
100
AcDbEntity
  8
DAMAN
100
AcDbBlockReference
  2
100CROSS
 10
2.9375
 20
-3.03125
 30
0.0
 41
1.03
 42
1.03
  0
INSERT
  5
33E
330
333
100
AcDbEntity
  8
DAMAN
100
AcDbBlockReference
  2
100CROSS
 10
3.625
 20
-2.09375
 30
0.0
 41
0.6
 42
0.6
 43
0.6
  0
CIRCLE
  5
33F
330
333
100
AcDbEntity
  8
DAMAN
100
AcDbCircle
 10
3.811999999999999
 20
-3.718249999999998
 30
0.0
 40
0.1405
  0
INSERT
  5
340
330
333
100
AcDbEntity
  8
DAMAN
100
AcDbBlockReference
  2
100CROSS
 10
3.811999999999999
 20
-3.718249999999998
 30
0.0
 41
0.25
 42
0.25
  0
INSERT
  5
341
330
333
100
AcDbEntity
  8
DAMAN
100
AcDbBlockReference
  2
100CROSS
 10
3.625
 20
0.0
 30
0.0
 41
0.6
 42
0.6
 43
0.6
  0
CIRCLE
  5
342
330
333
100
AcDbEntity
  8
DAMAN
100
AcDbCircle
 10
0.6879999999999999
 20
-3.9685
 30
0.0
 40
0.453
  0
INSERT
  5
343
330
333
100
AcDbEntity
  8
DAMAN
100
AcDbBlockReference
  2
100CROSS
 10
0.0
 20
-5.125
 30
0.0
 41
0.6
 42
0.6
 43
0.6
  0
CIRCLE
  5
344
330
333
100
AcDbEntity
  8
DAMAN
100
AcDbCircle
 10
0.6879999999999999
 20
-2.0935
 30
0.0
 40
0.453
  0
INSERT
  5
345
330
333
100
AcDbEntity
  8
DAMAN
100
AcDbBlockReference
  2
100CROSS
 10
0.0
 20
-3.03125
 30
0.0
 41
0.6
 42
0.6
 43
0.6
  0
INSERT
  5
346
330
333
100
AcDbEntity
  8
DAMAN
100
AcDbBlockReference
  2
100CROSS
 10
0.0
 20
0.0
 30
0.0
 41
0.6
 42
0.6
 43
0.6
  0
INSERT
  5
347
330
333
100
AcDbEntity
  8
DAMAN
100
AcDbBlockReference
  2
100CROSS
 10
0.0
 20
-1.15625
 30
0.0
 41
0.25
 42
0.25
  0
CIRCLE
  5
348
330
333
100
AcDbEntity
  8
DAMAN
100
AcDbCircle
 10
0.0
 20
-1.15625
 30
0.0
 40
0.1405
  0
CIRCLE
  5
349
330
333
100
AcDbEntity
  8
DAMAN
100
AcDbCircle
 10
0.0
 20
0.0
 30
0.0
 40
0.234
  0
CIRCLE
  5
34A
330
333
100
AcDbEntity
  8
DAMAN
  6
HIDDEN
100
AcDbCircle
 10
0.0
 20
0.0
 30
0.0
 40
0.25
  0
CIRCLE
  5
34B
330
333
100
AcDbEntity
  8
DAMAN
  6
HIDDEN
100
AcDbCircle
 10
3.625
 20
0.0
 30
0.0
 40
0.25
  0
CIRCLE
  5
34C
330
333
100
AcDbEntity
  8
DAMAN
100
AcDbCircle
 10
3.625
 20
0.0
 30
0.0
 40
0.234
  0
CIRCLE
  5
34D
330
333
100
AcDbEntity
  8
DAMAN
  6
HIDDEN
100
AcDbCircle
 10
3.625
 20
-2.09375
 30
0.0
 40
0.25
  0
CIRCLE
  5
34E
330
333
100
AcDbEntity
  8
DAMAN
100
AcDbCircle
 10
3.625
 20
-2.09375
 30
0.0
 40
0.234
  0
CIRCLE
  5
34F
330
333
100
AcDbEntity
  8
DAMAN
  6
HIDDEN
100
AcDbCircle
 10
0.0
 20
-3.03125
 30
0.0
 40
0.25
  0
CIRCLE
  5
350
330
333
100
AcDbEntity
  8
DAMAN
100
AcDbCircle
 10
0.0
 20
-3.03125
 30
0.0
 40
0.234
  0
CIRCLE
  5
351
330
333
100
AcDbEntity
  8
DAMAN
  6
HIDDEN
100
AcDbCircle
 10
0.0
 20
-5.125
 30
0.0
 40
0.25
  0
CIRCLE
  5
352
330
333
100
AcDbEntity
  8
DAMAN
100
AcDbCircle
 10
0.0
 20
-5.125
 30
0.0
 40
0.234
  0
CIRCLE
  5
353
330
333
100
AcDbEntity
  8
DAMAN
  6
HIDDEN
100
AcDbCircle
 10
3.625
 20
-5.125
 30
0.0
 40
0.25
  0
CIRCLE
  5
354
330
333
100
AcDbEntity
  8
DAMAN
100
AcDbCircle
 10
3.625
 20
-5.125
 30
0.0
 40
0.234
  0
ENDBLK
  5
355
330
333
100
AcDbEntity
  8
0
100
AcDbBlockEnd
  0
BLOCK
  5
357
330
356
100
AcDbEntity
  8
0
100
AcDbBlockBegin
  2
D08
 70
     0
 10
0.0
 20
0.0
 30
0.0
  3
D08
  1

  0
INSERT
  5
358
330
356
100
AcDbEntity
  8
DAMAN
100
AcDbBlockReference
  2
100CROSS
 10
2.875
 20
-4.437999999999998
 30
0.0
 41
0.4375
 42
0.4375
 43
0.4375
  0
INSERT
  5
359
330
356
100
AcDbEntity
  8
DAMAN
100
AcDbBlockReference
  2
100CROSS
 10
1.8125
 20
-4.900591
 30
0.0
 41
0.25
 42
0.25
 43
0.25
  0
CIRCLE
  5
35A
330
356
100
AcDbEntity
  8
DAMAN
100
AcDbCircle
 10
1.8125
 20
-4.900591
 30
0.0
 40
0.09845
  0
CIRCLE
  5
35B
330
356
100
AcDbEntity
  8
DAMAN
100
AcDbCircle
 10
3.625
 20
-5.125
 30
0.0
 40
0.2655
  0
INSERT
  5
35C
330
356
100
AcDbEntity
  8
DAMAN
100
AcDbBlockReference
  2
100CROSS
 10
3.625
 20
-5.125
 30
0.0
 41
0.6
 42
0.6
 43
0.6
  0
CIRCLE
  5
35D
330
356
100
AcDbEntity
  8
DAMAN
100
AcDbCircle
 10
2.875
 20
-4.437999999999998
 30
0.0
 40
0.2189999999999999
  0
INSERT
  5
35E
330
356
100
AcDbEntity
  8
DAMAN
100
AcDbBlockReference
  2
100CROSS
 10
0.6875
 20
-3.96875
 30
0.0
 41
1.03
 42
1.03
  0
INSERT
  5
35F
330
356
100
AcDbEntity
  8
DAMAN
100
AcDbBlockReference
  2
100CROSS
 10
1.8125
 20
-0.224409
 30
0.0
 41
0.25
 42
0.25
 43
0.25
  0
CIRCLE
  5
360
330
356
100
AcDbEntity
  8
DAMAN
100
AcDbCircle
 10
1.8125
 20
-0.224409
 30
0.0
 40
0.09845
  0
INSERT
  5
361
330
356
100
AcDbEntity
  8
DAMAN
100
AcDbBlockReference
  2
100CROSS
 10
0.6875
 20
-2.09375
 30
0.0
 41
1.03
 42
1.03
  0
CIRCLE
  5
362
330
356
100
AcDbEntity
  8
DAMAN
100
AcDbCircle
 10
2.938
 20
-1.155999999999999
 30
0.0
 40
0.453
  0
INSERT
  5
363
330
356
100
AcDbEntity
  8
DAMAN
100
AcDbBlockReference
  2
100CROSS
 10
2.9375
 20
-1.15625
 30
0.0
 41
1.03
 42
1.03
  0
CIRCLE
  5
364
330
356
100
AcDbEntity
  8
DAMAN
100
AcDbCircle
 10
3.625
 20
-2.09375
 30
0.0
 40
0.2655
  0
CIRCLE
  5
365
330
356
100
AcDbEntity
  8
DAMAN
100
AcDbCircle
 10
2.938
 20
-3.031
 30
0.0
 40
0.453
  0
INSERT
  5
366
330
356
100
AcDbEntity
  8
DAMAN
100
AcDbBlockReference
  2
100CROSS
 10
2.9375
 20
-3.03125
 30
0.0
 41
1.03
 42
1.03
  0
INSERT
  5
367
330
356
100
AcDbEntity
  8
DAMAN
100
AcDbBlockReference
  2
100CROSS
 10
3.625
 20
-2.09375
 30
0.0
 41
0.6
 42
0.6
 43
0.6
  0
CIRCLE
  5
368
330
356
100
AcDbEntity
  8
DAMAN
100
AcDbCircle
 10
3.811999999999999
 20
-3.718249999999998
 30
0.0
 40
0.1405
  0
INSERT
  5
369
330
356
100
AcDbEntity
  8
DAMAN
100
AcDbBlockReference
  2
100CROSS
 10
3.811999999999999
 20
-3.718249999999998
 30
0.0
 41
0.25
 42
0.25
  0
CIRCLE
  5
36A
330
356
100
AcDbEntity
  8
DAMAN
100
AcDbCircle
 10
3.625
 20
0.0
 30
0.0
 40
0.2655
  0
INSERT
  5
36B
330
356
100
AcDbEntity
  8
DAMAN
100
AcDbBlockReference
  2
100CROSS
 10
3.625
 20
0.0
 30
0.0
 41
0.6
 42
0.6
 43
0.6
  0
CIRCLE
  5
36C
330
356
100
AcDbEntity
  8
DAMAN
100
AcDbCircle
 10
0.6879999999999999
 20
-3.9685
 30
0.0
 40
0.453
  0
INSERT
  5
36D
330
356
100
AcDbEntity
  8
DAMAN
100
AcDbBlockReference
  2
100CROSS
 10
0.0
 20
-5.125
 30
0.0
 41
0.6
 42
0.6
 43
0.6
  0
CIRCLE
  5
36E
330
356
100
AcDbEntity
  8
DAMAN
100
AcDbCircle
 10
0.0
 20
-5.125
 30
0.0
 40
0.2655
  0
CIRCLE
  5
36F
330
356
100
AcDbEntity
  8
DAMAN
100
AcDbCircle
 10
0.6879999999999999
 20
-2.0935
 30
0.0
 40
0.453
  0
INSERT
  5
370
330
356
100
AcDbEntity
  8
DAMAN
100
AcDbBlockReference
  2
100CROSS
 10
0.0
 20
-3.03125
 30
0.0
 41
0.6
 42
0.6
 43
0.6
  0
CIRCLE
  5
371
330
356
100
AcDbEntity
  8
DAMAN
100
AcDbCircle
 10
0.0
 20
-3.03125
 30
0.0
 40
0.2655
  0
INSERT
  5
372
330
356
100
AcDbEntity
  8
DAMAN
100
AcDbBlockReference
  2
100CROSS
 10
0.0
 20
0.0
 30
0.0
 41
0.6
 42
0.6
 43
0.6
  0
INSERT
  5
373
330
356
100
AcDbEntity
  8
DAMAN
100
AcDbBlockReference
  2
100CROSS
 10
0.0
 20
-1.15625
 30
0.0
 41
0.25
 42
0.25
  0
CIRCLE
  5
374
330
356
100
AcDbEntity
  8
DAMAN
100
AcDbCircle
 10
0.0
 20
-1.15625
 30
0.0
 40
0.1405
  0
CIRCLE
  5
375
330
356
100
AcDbEntity
  8
DAMAN
100
AcDbCircle
 10
0.0
 20
0.0
 30
0.0
 40
0.2655
  0
INSERT
  5
376
330
356
100
AcDbEntity
  8
DAMAN
100
AcDbBlockReference
  2
100CROSS
 10
0.75
 20
-0.6879999999999999
 30
0.0
 41
0.4375
 42
0.4375
 43
0.4375
  0
CIRCLE
  5
377
330
356
100
AcDbEntity
  8
DAMAN
100
AcDbCircle
 10
0.75
 20
-0.6879999999999999
 30
0.0
 40
0.2189999999999999
  0
ENDBLK
  5
378
330
356
100
AcDbEntity
  8
0
100
AcDbBlockEnd
  0
BLOCK
  5
37A
330
379
100
AcDbEntity
  8
0
100
AcDbBlockBegin
  2
038NPTFT
 70
     0
 10
0.0
 20
0.0
 30
0.0
  3
038NPTFT
  1

  0
INSERT
  5
37C
330
379
100
AcDbEntity
  8
DAMAN
100
AcDbBlockReference
  2
375NPTFT
 10
0.0
 20
0.0
 30
0.0
  0
ENDBLK
  5
37D
330
379
100
AcDbEntity
  8
0
100
AcDbBlockEnd
  0
BLOCK
  5
37E
330
37B
100
AcDbEntity
  8
0
100
AcDbBlockBegin
  2
375NPTFT
 70
     0
 10
0.0
 20
0.0
 30
0.0
  3
375NPTFT
  1

  0
INSERT
  5
37F
330
37B
100
AcDbEntity
  8
DAMAN
100
AcDbBlockReference
  2
100CROSS
 10
0.0
 20
0.0
 30
0.0
 41
0.6800000000000001
 42
0.6800000000000001
  0
CIRCLE
  5
380
330
37B
100
AcDbEntity
  8
DAMAN
100
AcDbCircle
 10
0.0
 20
0.0
 30
0.0
 40
0.3125
  0
CIRCLE
  5
381
330
37B
100
AcDbEntity
  8
DAMAN
100
AcDbCircle
 10
0.0
 20
0.0
 30
0.0
 40
0.281
  0
CIRCLE
  5
382
330
37B
100
AcDbEntity
  8
DAMAN
100
AcDbCircle
 10
0.0
 20
0.0
 30
0.0
 40
0.3439999999999999
  0
ENDBLK
  5
383
330
37B
100
AcDbEntity
  8
0
100
AcDbBlockEnd
  0
BLOCK
  5
385
330
384
100
AcDbEntity
  8
0
100
AcDbBlockBegin
  2
025NPTFT
 70
     0
 10
0.0
 20
0.0
 30
0.0
  3
025NPTFT
  1

  0
INSERT
  5
387
330
384
100
AcDbEntity
  8
DAMAN
100
AcDbBlockReference
  2
250NPTFT
 10
0.0
 20
0.0
 30
0.0
  0
ENDBLK
  5
388
330
384
100
AcDbEntity
  8
0
100
AcDbBlockEnd
  0
BLOCK
  5
389
330
386
100
AcDbEntity
  8
0
100
AcDbBlockBegin
  2
250NPTFT
 70
     0
 10
0.0
 20
0.0
 30
0.0
  3
250NPTFT
  1

  0
CIRCLE
  5
38A
330
386
100
AcDbEntity
  8
DAMAN
100
AcDbCircle
 10
0.0
 20
0.0
 30
0.0
 40
0.273
  0
CIRCLE
  5
38B
330
386
100
AcDbEntity
  8
DAMAN
100
AcDbCircle
 10
0.0
 20
0.0
 30
0.0
 40
0.211
  0
INSERT
  5
38C
330
386
100
AcDbEntity
  8
DAMAN
100
AcDbBlockReference
  2
100CROSS
 10
0.0
 20
0.0
 30
0.0
 41
0.4220000000000001
 42
0.4220000000000001
  0
CIRCLE
  5
38D
330
386
100
AcDbEntity
  8
DAMAN
100
AcDbCircle
 10
0.0
 20
0.0
 30
0.0
 40
0.242251
  0
POINT
  5
38E
330
386
100
AcDbEntity
  8
CHIDDEN
100
AcDbPoint
 10
-0.087928
 20
0.191806
 30
0.0
  0
POINT
  5
38F
330
386
100
AcDbEntity
  8
CHIDDEN
100
AcDbPoint
 10
-0.137717
 20
-0.15986
 30
0.0
  0
POINT
  5
390
330
386
100
AcDbEntity
  8
CHIDDEN
100
AcDbPoint
 10
0.202707
 20
-0.058572
 30
0.0
  0
ENDBLK
  5
391
330
386
100
AcDbEntity
  8
0
100
AcDbBlockEnd
  0
ENDSEC
  0
SECTION
  2
ENTITIES
  0
LINE
  5
392
330
1E
100
AcDbEntity
  8
DAMAN
100
AcDbLine
 10
1.0
 20
1.0
 30
0.0
 11
5.75
 21
1.0
 31
0.0
  0
LINE
  5
393
330
1E
100
AcDbEntity
  8
DAMAN
100
AcDbLine
 10
5.75
 20
1.0
 30
0.0
 11
5.75
 21
7.25
 31
0.0
  0
LINE
  5
394
330
1E
100
AcDbEntity
  8
DAMAN
100
AcDbLine
 10
5.75
 20
7.25
 30
0.0
 11
1.0
 21
7.25
 31
0.0
  0
LINE
  5
395
330
1E
100
AcDbEntity
  8
DAMAN
  6
HIDDEN
100
AcDbLine
 10
1.0
 20
7.25
 30
0.0
 11
1.0
 21
1.0
 31
0.0
  0
INSERT
  5
396
330
1E
100
AcDbEntity
  8
DAMAN
100
AcDbBlockReference
  2
125NPTFT
 10
3.375
 20
5.953999999999998
 30
0.0
  0
INSERT
  5
397
330
1E
100
AcDbEntity
  8
DAMAN
100
AcDbBlockReference
  2
100NPTFT
 10
3.375
 20
3.223999999999999
 30
0.0
  0
INSERT
  5
398
330
1E
100
AcDbEntity
  8
DAMAN
100
AcDbBlockReference
  2
600MKT
 10
1.0
 20
1.125
 30
0.0
  0
LINE
  5
399
330
1E
100
AcDbEntity
  8
DAMAN
100
AcDbLine
 10
23.5
 20
1.0
 30
0.0
 11
23.5
 21
7.25
 31
0.0
  0
LINE
  5
39A
330
1E
100
AcDbEntity
  8
DAMAN
100
AcDbLine
 10
7.75
 20
1.0
 30
0.0
 11
23.5
 21
1.0
 31
0.0
  0
LINE
  5
39B
330
1E
100
AcDbEntity
  8
DAMAN
100
AcDbLine
 10
23.5
 20
7.25
 30
0.0
 11
7.75
 21
7.25
 31
0.0
  0
LINE
  5
39C
330
1E
100
AcDbEntity
  8
DAMAN
100
AcDbLine
 10
7.75
 20
7.25
 30
0.0
 11
7.75
 21
1.0
 31
0.0
  0
LINE
  5
39D
330
1E
100
AcDbEntity
  8
DAMAN
100
AcDbLine
 10
7.75
 20
1.0
 30
0.0
 11
7.75
 21
7.25
 31
0.0
  0
LINE
  5
39E
330
1E
100
AcDbEntity
  8
DAMAN
100
AcDbLine
 10
7.75
 20
7.25
 30
0.0
 11
23.5
 21
7.25
 31
0.0
  0
TEXT
  5
39F
330
1E
100
AcDbEntity
  8
DAMAN
100
AcDbText
 10
4.65625
 20
6.78125
 30
0.0
 40
0.25
  1
T
 50
270.0
100
AcDbText
  0
TEXT
  5
3A0
330
1E
100
AcDbEntity
  8
DAMAN
100
AcDbText
 10
4.65625
 20
2.65625
 30
0.0
 40
0.25
  1
P
 50
270.0
100
AcDbText
  0
LINE
  5
3A1
330
1E
100
AcDbEntity
  8
DAMAN
  6
HIDDEN
100
AcDbLine
 10
30.25
 20
7.25
 30
0.0
 11
30.25
 21
1.0
 31
0.0
  0
INSERT
  5
3A2
330
1E
100
AcDbEntity
  8
DAMAN
100
AcDbBlockReference
  2
600MKT
 10
30.25
 20
1.125
 30
0.0
 41
-1.0
  0
LINE
  5
3A3
330
1E
100
AcDbEntity
  8
DAMAN
100
AcDbLine
 10
25.49999999999998
 20
1.0
 30
0.0
 11
25.49999999999998
 21
7.25
 31
0.0
  0
LINE
  5
3A4
330
1E
100
AcDbEntity
  8
DAMAN
100
AcDbLine
 10
30.25
 20
1.0
 30
0.0
 11
25.49999999999998
 21
1.0
 31
0.0
  0
INSERT
  5
3A5
330
1E
100
AcDbEntity
  8
DAMAN
100
AcDbBlockReference
  2
100NPTFT
 10
27.875
 20
3.223999999999999
 30
0.0
 41
-1.0
  0
LINE
  5
3A6
330
1E
100
AcDbEntity
  8
DAMAN
100
AcDbLine
 10
25.49999999999998
 20
7.25
 30
0.0
 11
30.25
 21
7.25
 31
0.0
  0
INSERT
  5
3A7
330
1E
100
AcDbEntity
  8
DAMAN
100
AcDbBlockReference
  2
125NPTFT
 10
27.875
 20
5.953999999999998
 30
0.0
 41
-1.0
  0
TEXT
  5
3A8
330
1E
100
AcDbEntity
  8
DAMAN
100
AcDbText
 10
26.59374999999998
 20
6.78125
 30
0.0
 40
0.25
  1
T
 50
90.0
 71
     2
100
AcDbText
  0
LINE
  5
3A9
330
1E
100
AcDbEntity
  8
DAMAN
100
AcDbLine
 10
23.5
 20
7.125
 30
0.0
 11
25.125
 21
7.125
 31
0.0
  0
LINE
  5
3AA
330
1E
100
AcDbEntity
  8
DAMAN
100
AcDbLine
 10
25.125
 20
7.125
 30
0.0
 11
25.125
 21
1.125
 31
0.0
  0
LINE
  5
3AB
330
1E
100
AcDbEntity
  8
DAMAN
100
AcDbLine
 10
25.125
 20
1.125
 30
0.0
 11
23.5
 21
1.125
 31
0.0
  0
LINE
  5
3AC
330
1E
100
AcDbEntity
  8
DAMAN
100
AcDbLine
 10
23.5
 20
1.125
 30
0.0
 11
23.5
 21
7.125
 31
0.0
  0
LINE
  5
3AD
330
1E
100
AcDbEntity
  8
DAMAN
100
AcDbLine
 10
23.68749999999999
 20
1.125
 30
0.0
 11
23.68749999999999
 21
7.125
 31
0.0
  0
LINE
  5
3AE
330
1E
100
AcDbEntity
  8
DAMAN
100
AcDbLine
 10
23.68749999999999
 20
2.21875
 30
0.0
 11
23.75
 21
2.21875
 31
0.0
  0
LINE
  5
3AF
330
1E
100
AcDbEntity
  8
DAMAN
100
AcDbLine
 10
23.75
 20
2.21875
 30
0.0
 11
23.75
 21
1.15625
 31
0.0
  0
LINE
  5
3B0
330
1E
100
AcDbEntity
  8
DAMAN
100
AcDbLine
 10
23.75
 20
1.15625
 30
0.0
 11
23.68749999999999
 21
1.15625
 31
0.0
  0
LINE
  5
3B1
330
1E
100
AcDbEntity
  8
DAMAN
100
AcDbLine
 10
23.75
 20
2.120513
 30
0.0
 11
24.01966499999999
 21
2.120513
 31
0.0
  0
LINE
  5
3B2
330
1E
100
AcDbEntity
  8
DAMAN
100
AcDbLine
 10
24.0625
 20
2.046320999999998
 30
0.0
 11
24.0625
 21
1.328679
 31
0.0
  0
LINE
  5
3B3
330
1E
100
AcDbEntity
  8
DAMAN
100
AcDbLine
 10
24.01966499999999
 20
1.254487
 30
0.0
 11
23.75
 21
1.254487
 31
0.0
  0
LINE
  5
3B4
330
1E
100
AcDbEntity
  8
DAMAN
100
AcDbLine
 10
23.75
 20
1.904006
 30
0.0
 11
24.0
 21
1.904006
 31
0.0
  0
LINE
  5
3B5
330
1E
100
AcDbEntity
  8
DAMAN
100
AcDbLine
 10
23.75
 20
1.470994
 30
0.0
 11
24.0
 21
1.470994
 31
0.0
  0
ARC
  5
3B6
330
1E
100
AcDbEntity
  8
DAMAN
100
AcDbCircle
 10
23.65625
 20
1.6875
 30
0.0
 40
0.40625
100
AcDbArc
 50
327.7957719999998
 51
32.204228
  0
ARC
  5
3B7
330
1E
100
AcDbEntity
  8
DAMAN
100
AcDbCircle
 10
23.9375
 20
1.36274
 30
0.0
 40
0.125
100
AcDbArc
 50
300.0
 51
60.0
  0
ARC
  5
3B8
330
1E
100
AcDbEntity
  8
DAMAN
100
AcDbCircle
 10
23.9375
 20
2.012259999999999
 30
0.0
 40
0.125
100
AcDbArc
 50
300.0
 51
60.0
  0
LINE
  5
3B9
330
1E
100
AcDbEntity
  8
DAMAN
100
AcDbLine
 10
24.01966499999999
 20
2.120513
 30
0.0
 11
24.0625
 21
2.046320999999998
 31
0.0
  0
LINE
  5
3BA
330
1E
100
AcDbEntity
  8
DAMAN
100
AcDbLine
 10
24.01966499999999
 20
1.254487
 30
0.0
 11
24.0625
 21
1.328679
 31
0.0
  0
ARC
  5
3BB
330
1E
100
AcDbEntity
  8
DAMAN
100
AcDbCircle
 10
23.65625
 20
6.5625
 30
0.0
 40
0.40625
100
AcDbArc
 50
327.7957719999998
 51
32.204228
  0
LINE
  5
3BC
330
1E
100
AcDbEntity
  8
DAMAN
100
AcDbLine
 10
23.75
 20
7.09375
 30
0.0
 11
23.75
 21
6.03125
 31
0.0
  0
LINE
  5
3BD
330
1E
100
AcDbEntity
  8
DAMAN
100
AcDbLine
 10
24.0625
 20
6.921321
 30
0.0
 11
24.0625
 21
6.203679
 31
0.0
  0
ARC
  5
3BE
330
1E
100
AcDbEntity
  8
DAMAN
100
AcDbCircle
 10
23.9375
 20
6.88726
 30
0.0
 40
0.125
100
AcDbArc
 50
300.0
 51
60.0
  0
LINE
  5
3BF
330
1E
100
AcDbEntity
  8
DAMAN
100
AcDbLine
 10
24.01966499999999
 20
6.995513
 30
0.0
 11
24.0625
 21
6.921321
 31
0.0
  0
LINE
  5
3C0
330
1E
100
AcDbEntity
  8
DAMAN
100
AcDbLine
 10
23.75
 20
6.995513
 30
0.0
 11
24.01966499999999
 21
6.995513
 31
0.0
  0
LINE
  5
3C1
330
1E
100
AcDbEntity
  8
DAMAN
100
AcDbLine
 10
23.68749999999999
 20
7.09375
 30
0.0
 11
23.75
 21
7.09375
 31
0.0
  0
LINE
  5
3C2
330
1E
100
AcDbEntity
  8
DAMAN
100
AcDbLine
 10
23.75
 20
6.779005999999998
 30
0.0
 11
24.0
 21
6.779005999999998
 31
0.0
  0
ARC
  5
3C3
330
1E
100
AcDbEntity
  8
DAMAN
100
AcDbCircle
 10
23.9375
 20
6.23774
 30
0.0
 40
0.125
100
AcDbArc
 50
300.0
 51
60.0
  0
LINE
  5
3C4
330
1E
100
AcDbEntity
  8
DAMAN
100
AcDbLine
 10
23.75
 20
6.345994
 30
0.0
 11
24.0
 21
6.345994
 31
0.0
  0
LINE
  5
3C5
330
1E
100
AcDbEntity
  8
DAMAN
100
AcDbLine
 10
24.01966499999999
 20
6.129487
 30
0.0
 11
23.75
 21
6.129487
 31
0.0
  0
LINE
  5
3C6
330
1E
100
AcDbEntity
  8
DAMAN
100
AcDbLine
 10
23.75
 20
6.03125
 30
0.0
 11
23.68749999999999
 21
6.03125
 31
0.0
  0
LINE
  5
3C7
330
1E
100
AcDbEntity
  8
DAMAN
100
AcDbLine
 10
24.01966499999999
 20
6.129487
 30
0.0
 11
24.0625
 21
6.203679
 31
0.0
  0
CIRCLE
  5
3C8
330
1E
100
AcDbEntity
  8
DAMAN
100
AcDbCircle
 10
24.5625
 20
6.5625
 30
0.0
 40
0.53125
  0
CIRCLE
  5
3C9
330
1E
100
AcDbEntity
  8
DAMAN
100
AcDbCircle
 10
24.5625
 20
1.6875
 30
0.0
 40
0.53125
  0
LWPOLYLINE
  5
3CA
330
1E
100
AcDbEntity
  8
DAMAN
100
AcDbPolyline
 90
        6
 70
     1
 43
0.0
 10
24.9375
 20
6.779005999999998
 10
24.5625
 20
6.995513
 10
24.1875
 20
6.779005999999998
 10
24.1875
 20
6.345994
 10
24.5625
 20
6.129487
 10
24.9375
 20
6.345994
  0
CIRCLE
  5
3D2
330
1E
100
AcDbEntity
  8
DAMAN
100
AcDbCircle
 10
24.5625
 20
6.5625
 30
0.0
 40
0.375
  0
CIRCLE
  5
3D3
330
1E
100
AcDbEntity
  8
DAMAN
100
AcDbCircle
 10
24.5625
 20
1.6875
 30
0.0
 40
0.375
  0
LWPOLYLINE
  5
3D4
330
1E
100
AcDbEntity
  8
DAMAN
100
AcDbPolyline
 90
        6
 70
     1
 43
0.0
 10
24.9375
 20
1.904006
 10
24.5625
 20
2.120513
 10
24.1875
 20
1.904006
 10
24.1875
 20
1.470994
 10
24.5625
 20
1.254487
 10
24.9375
 20
1.470994
  0
LINE
  5
3DC
330
1E
100
AcDbEntity
  8
DAMAN
100
AcDbLine
 10
7.75
 20
1.125
 30
0.0
 11
6.125
 21
1.125
 31
0.0
  0
LINE
  5
3DD
330
1E
100
AcDbEntity
  8
DAMAN
100
AcDbLine
 10
6.125
 20
1.125
 30
0.0
 11
6.125
 21
7.125
 31
0.0
  0
LINE
  5
3DE
330
1E
100
AcDbEntity
  8
DAMAN
100
AcDbLine
 10
6.125
 20
7.125
 30
0.0
 11
7.75
 21
7.125
 31
0.0
  0
LINE
  5
3DF
330
1E
100
AcDbEntity
  8
DAMAN
100
AcDbLine
 10
7.75
 20
7.125
 30
0.0
 11
7.75
 21
1.125
 31
0.0
  0
LINE
  5
3E0
330
1E
100
AcDbEntity
  8
DAMAN
100
AcDbLine
 10
7.5625
 20
7.125
 30
0.0
 11
7.5625
 21
1.125
 31
0.0
  0
LINE
  5
3E1
330
1E
100
AcDbEntity
  8
DAMAN
100
AcDbLine
 10
7.5625
 20
6.03125
 30
0.0
 11
7.5
 21
6.03125
 31
0.0
  0
LINE
  5
3E2
330
1E
100
AcDbEntity
  8
DAMAN
100
AcDbLine
 10
7.5
 20
6.03125
 30
0.0
 11
7.5
 21
7.09375
 31
0.0
  0
LINE
  5
3E3
330
1E
100
AcDbEntity
  8
DAMAN
100
AcDbLine
 10
7.5
 20
7.09375
 30
0.0
 11
7.5625
 21
7.09375
 31
0.0
  0
LINE
  5
3E4
330
1E
100
AcDbEntity
  8
DAMAN
100
AcDbLine
 10
7.5
 20
6.129487
 30
0.0
 11
7.230335
 21
6.129487
 31
0.0
  0
LINE
  5
3E5
330
1E
100
AcDbEntity
  8
DAMAN
100
AcDbLine
 10
7.1875
 20
6.203679
 30
0.0
 11
7.1875
 21
6.921321
 31
0.0
  0
LINE
  5
3E6
330
1E
100
AcDbEntity
  8
DAMAN
100
AcDbLine
 10
7.230335
 20
6.995513
 30
0.0
 11
7.5
 21
6.995513
 31
0.0
  0
LINE
  5
3E7
330
1E
100
AcDbEntity
  8
DAMAN
100
AcDbLine
 10
7.5
 20
6.345994
 30
0.0
 11
7.25
 21
6.345994
 31
0.0
  0
LINE
  5
3E8
330
1E
100
AcDbEntity
  8
DAMAN
100
AcDbLine
 10
7.5
 20
6.779005999999998
 30
0.0
 11
7.25
 21
6.779005999999998
 31
0.0
  0
ARC
  5
3E9
330
1E
100
AcDbEntity
  8
DAMAN
100
AcDbCircle
 10
7.59375
 20
6.5625
 30
0.0
 40
0.40625
100
AcDbArc
 50
147.795772
 51
212.2042279999999
  0
ARC
  5
3EA
330
1E
100
AcDbEntity
  8
DAMAN
100
AcDbCircle
 10
7.3125
 20
6.88726
 30
0.0
 40
0.125
100
AcDbArc
 50
119.9999999999999
 51
239.9999999999999
  0
ARC
  5
3EB
330
1E
100
AcDbEntity
  8
DAMAN
100
AcDbCircle
 10
7.3125
 20
6.23774
 30
0.0
 40
0.125
100
AcDbArc
 50
119.9999999999999
 51
239.9999999999999
  0
LINE
  5
3EC
330
1E
100
AcDbEntity
  8
DAMAN
100
AcDbLine
 10
7.230335
 20
6.129487
 30
0.0
 11
7.1875
 21
6.203679
 31
0.0
  0
LINE
  5
3ED
330
1E
100
AcDbEntity
  8
DAMAN
100
AcDbLine
 10
7.230335
 20
6.995513
 30
0.0
 11
7.1875
 21
6.921321
 31
0.0
  0
ARC
  5
3EE
330
1E
100
AcDbEntity
  8
DAMAN
100
AcDbCircle
 10
7.59375
 20
1.6875
 30
0.0
 40
0.40625
100
AcDbArc
 50
147.795772
 51
212.2042279999999
  0
LINE
  5
3EF
330
1E
100
AcDbEntity
  8
DAMAN
100
AcDbLine
 10
7.5
 20
1.15625
 30
0.0
 11
7.5
 21
2.21875
 31
0.0
  0
LINE
  5
3F0
330
1E
100
AcDbEntity
  8
DAMAN
100
AcDbLine
 10
7.1875
 20
1.328679
 30
0.0
 11
7.1875
 21
2.046320999999998
 31
0.0
  0
ARC
  5
3F1
330
1E
100
AcDbEntity
  8
DAMAN
100
AcDbCircle
 10
7.3125
 20
1.36274
 30
0.0
 40
0.125
100
AcDbArc
 50
119.9999999999999
 51
239.9999999999999
  0
LINE
  5
3F2
330
1E
100
AcDbEntity
  8
DAMAN
100
AcDbLine
 10
7.230335
 20
1.254487
 30
0.0
 11
7.1875
 21
1.328679
 31
0.0
  0
LINE
  5
3F3
330
1E
100
AcDbEntity
  8
DAMAN
100
AcDbLine
 10
7.5
 20
1.254487
 30
0.0
 11
7.230335
 21
1.254487
 31
0.0
  0
LINE
  5
3F4
330
1E
100
AcDbEntity
  8
DAMAN
100
AcDbLine
 10
7.5625
 20
1.15625
 30
0.0
 11
7.5
 21
1.15625
 31
0.0
  0
LINE
  5
3F5
330
1E
100
AcDbEntity
  8
DAMAN
100
AcDbLine
 10
7.5
 20
1.470994
 30
0.0
 11
7.25
 21
1.470994
 31
0.0
  0
ARC
  5
3F6
330
1E
100
AcDbEntity
  8
DAMAN
100
AcDbCircle
 10
7.3125
 20
2.012259999999999
 30
0.0
 40
0.125
100
AcDbArc
 50
119.9999999999999
 51
239.9999999999999
  0
LINE
  5
3F7
330
1E
100
AcDbEntity
  8
DAMAN
100
AcDbLine
 10
7.5
 20
1.904006
 30
0.0
 11
7.25
 21
1.904006
 31
0.0
  0
LINE
  5
3F8
330
1E
100
AcDbEntity
  8
DAMAN
100
AcDbLine
 10
7.230335
 20
2.120513
 30
0.0
 11
7.5
 21
2.120513
 31
0.0
  0
LINE
  5
3F9
330
1E
100
AcDbEntity
  8
DAMAN
100
AcDbLine
 10
7.5
 20
2.21875
 30
0.0
 11
7.5625
 21
2.21875
 31
0.0
  0
LINE
  5
3FA
330
1E
100
AcDbEntity
  8
DAMAN
100
AcDbLine
 10
7.230335
 20
2.120513
 30
0.0
 11
7.1875
 21
2.046320999999998
 31
0.0
  0
CIRCLE
  5
3FB
330
1E
100
AcDbEntity
  8
DAMAN
100
AcDbCircle
 10
6.6875
 20
1.6875
 30
0.0
 40
0.53125
  0
CIRCLE
  5
3FC
330
1E
100
AcDbEntity
  8
DAMAN
100
AcDbCircle
 10
6.6875
 20
6.5625
 30
0.0
 40
0.53125
  0
LWPOLYLINE
  5
3FD
330
1E
100
AcDbEntity
  8
DAMAN
100
AcDbPolyline
 90
        6
 70
     1
 43
0.0
 10
6.3125
 20
1.470994
 10
6.6875
 20
1.254487
 10
7.0625
 20
1.470994
 10
7.0625
 20
1.904006
 10
6.6875
 20
2.120513
 10
6.3125
 20
1.904006
  0
CIRCLE
  5
405
330
1E
100
AcDbEntity
  8
DAMAN
100
AcDbCircle
 10
6.6875
 20
1.6875
 30
0.0
 40
0.375
  0
CIRCLE
  5
406
330
1E
100
AcDbEntity
  8
DAMAN
100
AcDbCircle
 10
6.6875
 20
6.5625
 30
0.0
 40
0.375
  0
LWPOLYLINE
  5
407
330
1E
100
AcDbEntity
  8
DAMAN
100
AcDbPolyline
 90
        6
 70
     1
 43
0.0
 10
6.3125
 20
6.345994
 10
6.6875
 20
6.129487
 10
7.0625
 20
6.345994
 10
7.0625
 20
6.779005999999998
 10
6.6875
 20
6.995513
 10
6.3125
 20
6.779005999999998
  0
TEXT
  5
40F
330
1E
100
AcDbEntity
  8
DAMAN
100
AcDbText
 10
26.43749999999998
 20
2.53125
 30
0.0
 40
0.25
  1
P
 50
90.0
100
AcDbText
  0
LINE
  5
410
330
1E
100
AcDbEntity
  8
DAMAN
100
AcDbLine
 10
7.75
 20
-5.25
 30
0.0
 11
23.5
 21
-5.25
 31
0.0
  0
LINE
  5
411
330
1E
100
AcDbEntity
  8
DAMAN
100
AcDbLine
 10
7.75
 20
-0.5
 30
0.0
 11
7.75
 21
-5.125
 31
0.0
  0
LINE
  5
412
330
1E
100
AcDbEntity
  8
DAMAN
100
AcDbLine
 10
23.5
 20
-5.125
 30
0.0
 11
23.5
 21
-0.5
 31
0.0
  0
LINE
  5
413
330
1E
100
AcDbEntity
  8
DAMAN
100
AcDbLine
 10
23.5
 20
-5.25
 30
0.0
 11
23.5
 21
-0.5
 31
0.0
  0
LINE
  5
414
330
1E
100
AcDbEntity
  8
DAMAN
100
AcDbLine
 10
23.75
 20
-5.09375
 30
0.0
 11
23.68749999999999
 21
-5.09375
 31
0.0
  0
LINE
  5
415
330
1E
100
AcDbEntity
  8
DAMAN
100
AcDbLine
 10
7.75
 20
-5.25
 30
0.0
 11
7.75
 21
-0.5
 31
0.0
  0
LINE
  5
416
330
1E
100
AcDbEntity
  8
DAMAN
100
AcDbLine
 10
7.75
 20
-0.5
 30
0.0
 11
7.75
 21
-5.25
 31
0.0
  0
LINE
  5
417
330
1E
100
AcDbEntity
  8
DAMAN
100
AcDbLine
 10
7.75
 20
-0.5
 30
0.0
 11
23.5
 21
-0.5
 31
0.0
  0
INSERT
  5
418
330
1E
100
AcDbEntity
  8
DAMAN
100
AcDbBlockReference
  2
600MKS
 10
7.75
 20
-5.25
 30
0.0
  0
INSERT
  5
419
330
1E
100
AcDbEntity
  8
DAMAN
100
AcDbBlockReference
  2
600MKS
 10
23.5
 20
-5.25
 30
0.0
 41
-1.0
  0
INSERT
  5
41A
330
1E
100
AcDbEntity
  8
DAMAN
100
AcDbBlockReference
  2
D08NOX
 10
8.562999999999997
 20
6.562999999999998
 30
0.0
  0
INSERT
  5
41B
330
1E
100
AcDbEntity
  8
DAMAN
100
AcDbBlockReference
  2
100NPTFT
 10
9.75
 20
-4.1875
 30
0.0
  0
INSERT
  5
41C
330
1E
100
AcDbEntity
  8
DAMAN
100
AcDbBlockReference
  2
100NPTFT
 10
9.75
 20
-1.5625
 30
0.0
  0
INSERT
  5
41D
330
1E
100
AcDbEntity
  8
DAMAN
100
AcDbBlockReference
  2
038NPTFT
 10
8.625
 20
-2.875
 30
0.0
  0
TEXT
  5
41E
330
1E
100
AcDbEntity
  8
DAMAN
100
AcDbText
 10
9.4375
 20
-2.90625
 30
0.0
 40
0.188
  1
DAMAN ****
100
AcDbText
  0
TEXT
  5
41F
330
1E
100
AcDbEntity
  8
DAMAN
100
AcDbText
 10
10.84375
 20
-1.15625
 30
0.0
 40
0.25
  1
B
100
AcDbText
  0
TEXT
  5
420
330
1E
100
AcDbEntity
  8
DAMAN
100
AcDbText
 10
10.8125
 20
-3.78125
 30
0.0
 40
0.25
  1
A
100
AcDbText
  0
TEXT
  5
421
330
1E
100
AcDbEntity
  8
DAMAN
100
AcDbText
 10
9.0
 20
-2.53125
 30
0.0
 40
0.25
  1
Y
100
AcDbText
  0
INSERT
  5
422
330
1E
100
AcDbEntity
  8
DAMAN
100
AcDbBlockReference
  2
D08NOX
 10
19.06299999999998
 20
6.562999999999998
 30
0.0
  0
INSERT
  5
423
330
1E
100
AcDbEntity
  8
DAMAN
100
AcDbBlockReference
  2
100NPTFT
 10
20.24999999999999
 20
-1.5625
 30
0.0
  0
TEXT
  5
424
330
1E
100
AcDbEntity
  8
DAMAN
100
AcDbText
 10
21.34374999999999
 20
-1.15625
 30
0.0
 40
0.25
  1
B
100
AcDbText
  0
INSERT
  5
425
330
1E
100
AcDbEntity
  8
DAMAN
100
AcDbBlockReference
  2
100NPTFT
 10
20.24999999999999
 20
-4.1875
 30
0.0
  0
TEXT
  5
426
330
1E
100
AcDbEntity
  8
DAMAN
100
AcDbText
 10
21.3125
 20
-3.78125
 30
0.0
 40
0.25
  1
A
100
AcDbText
  0
INSERT
  5
427
330
1E
100
AcDbEntity
  8
DAMAN
100
AcDbBlockReference
  2
025NPTFT
 10
12.375
 20
-3.5
 30
0.0
  0
TEXT
  5
428
330
1E
100
AcDbEntity
  8
DAMAN
100
AcDbText
 10
12.71875
 20
-3.1875
 30
0.0
 40
0.25
  1
GA
100
AcDbText
  0
INSERT
  5
455
330
1E
100
AcDbEntity
  8
DAMAN
100
AcDbBlockReference
  2
D08NOX
 10
13.81299999999998
 20
6.562999999999998
 30
0.0
  0
TEXT
  5
456
330
1E
100
AcDbEntity
  8
DAMAN
100
AcDbText
 10
16.09375
 20
-1.15625
 30
0.0
 40
0.25
  1
B
100
AcDbText
  0
TEXT
  5
457
330
1E
100
AcDbEntity
  8
DAMAN
100
AcDbText
 10
16.0625
 20
-3.78125
 30
0.0
 40
0.25
  1
A
100
AcDbText
  0
INSERT
  5
458
330
1E
100
AcDbEntity
  8
DAMAN
100
AcDbBlockReference
  2
100NPTFT
 10
15.0
 20
-4.1875
 30
0.0
  0
INSERT
  5
459
330
1E
100
AcDbEntity
  8
DAMAN
100
AcDbBlockReference
  2
100NPTFT
 10
15.0
 20
-1.5625
 30
0.0
  0
ENDSEC
  0
SECTION
  2
OBJECTS
  0
DICTIONARY
  5
C
330
0
100
AcDbDictionary
  3
ACAD_GROUP
350
D
  3
ACAD_LAYOUT
350
19
  3
ACAD_MLINESTYLE
350
16
  3
ACAD_PLOTSETTINGS
350
18
  3
ACAD_PLOTSTYLENAME
350
E
  3
ACDBHEADERROUNDTRIPXREC
350
45B
  0
DICTIONARY
  5
44D
330
1E
100
AcDbDictionary
280
     1
  3
ACAD_LAYOUTSELFREF
360
47C
  0
DICTIONARY
  5
44B
330
1A
100
AcDbDictionary
280
     1
  3
ACAD_LAYOUTSELFREF
360
47B
  0
DICTIONARY
  5
D
102
{ACAD_REACTORS
330
C
102
}
330
C
100
AcDbDictionary
  0
DICTIONARY
  5
19
102
{ACAD_REACTORS
330
C
102
}
330
C
100
AcDbDictionary
  0
DICTIONARY
  5
16
102
{ACAD_REACTORS
330
C
102
}
330
C
100
AcDbDictionary
  3
STANDARD
350
17
  0
DICTIONARY
  5
18
102
{ACAD_REACTORS
330
C
102
}
330
C
100
AcDbDictionary
  0
ACDBDICTIONARYWDFLT
  5
E
102
{ACAD_REACTORS
330
C
102
}
330
C
100
AcDbDictionary
281
     1
  3
Normal
350
F
100
AcDbDictionaryWithDefault
340
F
  0
DICTIONARY
  5
45B
102
{ACAD_REACTORS
330
C
102
}
330
C
100
AcDbDictionary
  3
CEPSNTYPE
350
465
  3
FINGERPRINTGUID
350
466
  3
HYPERLINKBASE
350
45E
  3
INSUNITS
350
464
  3
LAYOUTDICT
350
460
  3
LWETCUNION
350
463
  3
PLOTSETDICT
350
461
  3
PLOTSTYLNAMDICT
350
462
  3
PSVPSCALE
350
468
  3
PUCSBASE
350
46B
  3
PUCSORGBACK
350
471
  3
PUCSORGBOTTOM
350
46D
  3
PUCSORGFRONT
350
470
  3
PUCSORGLEFT
350
46E
  3
PUCSORGRIGHT
350
46F
  3
PUCSORGTOP
350
46C
  3
PUCSORTHOREF
350
469
  3
PUCSORTHOVIEW
350
46A
  3
STYLESHEET
350
45F
  3
TSTACKALIGN
350
45C
  3
TSTACKSIZE
350
45D
  3
UCSBASE
350
474
  3
UCSORGBACK
350
47A
  3
UCSORGBOTTOM
350
476
  3
UCSORGFRONT
350
479
  3
UCSORGLEFT
350
477
  3
UCSORGRIGHT
350
478
  3
UCSORGTOP
350
475
  3
UCSORTHOREF
350
472
  3
UCSORTHOVIEW
350
473
  3
VERSIONGUID
350
467
  0
XRECORD
  5
47C
102
{ACAD_REACTORS
330
44D
102
}
330
44D
100
AcDbXrecord
340
1E
  0
XRECORD
  5
47B
102
{ACAD_REACTORS
330
44B
102
}
330
44B
100
AcDbXrecord
340
1A
  0
MLINESTYLE
  5
17
102
{ACAD_REACTORS
330
16
102
}
330
16
100
AcDbMlineStyle
  2
STANDARD
 70
     0
  3

 62
   256
 51
90.0
 52
90.0
 71
     2
 49
0.5
 62
   256
  6
BYLAYER
 49
-0.5
 62
   256
  6
BYLAYER
  0
ACDBPLACEHOLDER
  5
F
102
{ACAD_REACTORS
330
E
102
}
330
E
100
AcDbPlaceHolder
280
     0
  0
XRECORD
  5
465
102
{ACAD_REACTORS
330
45B
102
}
330
45B
100
AcDbXrecord
 90
        0
  0
XRECORD
  5
466
102
{ACAD_REACTORS
330
45B
102
}
330
45B
100
AcDbXrecord
  1
{7BF4B9AA-CB92-4059-A393-580CA7CF1C24}
  0
XRECORD
  5
45E
102
{ACAD_REACTORS
330
45B
102
}
330
45B
100
AcDbXrecord
  1

  0
XRECORD
  5
464
102
{ACAD_REACTORS
330
45B
102
}
330
45B
100
AcDbXrecord
 90
        0
  0
XRECORD
  5
460
102
{ACAD_REACTORS
330
45B
102
}
330
45B
100
AcDbXrecord
340
19
  0
XRECORD
  5
463
102
{ACAD_REACTORS
330
45B
102
}
330
45B
100
AcDbXrecord
 90
    10781
  0
XRECORD
  5
461
102
{ACAD_REACTORS
330
45B
102
}
330
45B
100
AcDbXrecord
340
18
  0
XRECORD
  5
462
102
{ACAD_REACTORS
330
45B
102
}
330
45B
100
AcDbXrecord
340
E
  0
XRECORD
  5
468
102
{ACAD_REACTORS
330
45B
102
}
330
45B
100
AcDbXrecord
 40
0.0
  0
XRECORD
  5
46B
102
{ACAD_REACTORS
330
45B
102
}
330
45B
100
AcDbXrecord
340
0
  0
XRECORD
  5
471
102
{ACAD_REACTORS
330
45B
102
}
330
45B
100
AcDbXrecord
 10
0.0
 20
0.0
 30
0.0
  0
XRECORD
  5
46D
102
{ACAD_REACTORS
330
45B
102
}
330
45B
100
AcDbXrecord
 10
0.0
 20
0.0
 30
0.0
  0
XRECORD
  5
470
102
{ACAD_REACTORS
330
45B
102
}
330
45B
100
AcDbXrecord
 10
0.0
 20
0.0
 30
0.0
  0
XRECORD
  5
46E
102
{ACAD_REACTORS
330
45B
102
}
330
45B
100
AcDbXrecord
 10
0.0
 20
0.0
 30
0.0
  0
XRECORD
  5
46F
102
{ACAD_REACTORS
330
45B
102
}
330
45B
100
AcDbXrecord
 10
0.0
 20
0.0
 30
0.0
  0
XRECORD
  5
46C
102
{ACAD_REACTORS
330
45B
102
}
330
45B
100
AcDbXrecord
 10
0.0
 20
0.0
 30
0.0
  0
XRECORD
  5
469
102
{ACAD_REACTORS
330
45B
102
}
330
45B
100
AcDbXrecord
340
0
  0
XRECORD
  5
46A
102
{ACAD_REACTORS
330
45B
102
}
330
45B
100
AcDbXrecord
 70
     0
  0
XRECORD
  5
45F
102
{ACAD_REACTORS
330
45B
102
}
330
45B
100
AcDbXrecord
  1

  0
XRECORD
  5
45C
102
{ACAD_REACTORS
330
45B
102
}
330
45B
100
AcDbXrecord
 90
        1
  0
XRECORD
  5
45D
102
{ACAD_REACTORS
330
45B
102
}
330
45B
100
AcDbXrecord
 90
       70
  0
XRECORD
  5
474
102
{ACAD_REACTORS
330
45B
102
}
330
45B
100
AcDbXrecord
340
0
  0
XRECORD
  5
47A
102
{ACAD_REACTORS
330
45B
102
}
330
45B
100
AcDbXrecord
 10
0.0
 20
0.0
 30
0.0
  0
XRECORD
  5
476
102
{ACAD_REACTORS
330
45B
102
}
330
45B
100
AcDbXrecord
 10
0.0
 20
0.0
 30
0.0
  0
XRECORD
  5
479
102
{ACAD_REACTORS
330
45B
102
}
330
45B
100
AcDbXrecord
 10
0.0
 20
0.0
 30
0.0
  0
XRECORD
  5
477
102
{ACAD_REACTORS
330
45B
102
}
330
45B
100
AcDbXrecord
 10
0.0
 20
0.0
 30
0.0
  0
XRECORD
  5
478
102
{ACAD_REACTORS
330
45B
102
}
330
45B
100
AcDbXrecord
 10
0.0
 20
0.0
 30
0.0
  0
XRECORD
  5
475
102
{ACAD_REACTORS
330
45B
102
}
330
45B
100
AcDbXrecord
 10
0.0
 20
0.0
 30
0.0
  0
XRECORD
  5
472
102
{ACAD_REACTORS
330
45B
102
}
330
45B
100
AcDbXrecord
340
0
  0
XRECORD
  5
473
102
{ACAD_REACTORS
330
45B
102
}
330
45B
100
AcDbXrecord
 70
     0
  0
XRECORD
  5
467
102
{ACAD_REACTORS
330
45B
102
}
330
45B
100
AcDbXrecord
  1
{1580DA3D-CAC2-45CE-806E-A87E5DF32658}
  0
ENDSEC
  0
EOF
