  0
SECTION
  2
HEADER
  9
$ACADVER
  1
AC1009
  9
$INSBASE
 10
0.0
 20
0.0
 30
0.0
  9
$EXTMIN
 10
-1.40625
 20
-0.40625
 30
0.0
  9
$EXTMAX
 10
34.15625
 20
15.0935
 30
0.0
  9
$LIMMIN
 10
0.0
 20
0.0
  9
$LIMMAX
 10
12.0
 20
9.0
  9
$ORTHOMODE
 70
     0
  9
$REGENMODE
 70
     1
  9
$FILLMODE
 70
     1
  9
$QTEXTMODE
 70
     0
  9
$MIRRTEXT
 70
     1
  9
$DRAGMODE
 70
     2
  9
$LTSCALE
 40
1.0
  9
$OSMODE
 70
     0
  9
$ATTMODE
 70
     1
  9
$TEXTSIZE
 40
0.2
  9
$TRACEWID
 40
0.05
  9
$TEXTSTYLE
  7
STANDARD
  9
$CLAYER
  8
DAMAN
  9
$CELTYPE
  6
BYLAYER
  9
$CECOLOR
 62
   256
  9
$DIMSCALE
 40
1.0
  9
$DIMASZ
 40
0.18
  9
$DIMEXO
 40
0.0625
  9
$DIMDLI
 40
0.38
  9
$DIMRND
 40
0.0
  9
$DIMDLE
 40
0.0
  9
$DIMEXE
 40
0.18
  9
$DIMTP
 40
0.0
  9
$DIMTM
 40
0.0
  9
$DIMTXT
 40
0.18
  9
$DIMCEN
 40
0.09
  9
$DIMTSZ
 40
0.0
  9
$DIMTOL
 70
     0
  9
$DIMLIM
 70
     0
  9
$DIMTIH
 70
     1
  9
$DIMTOH
 70
     1
  9
$DIMSE1
 70
     0
  9
$DIMSE2
 70
     0
  9
$DIMTAD
 70
     0
  9
$DIMZIN
 70
     0
  9
$DIMBLK
  1

  9
$DIMASO
 70
     1
  9
$DIMSHO
 70
     1
  9
$DIMPOST
  1

  9
$DIMAPOST
  1

  9
$DIMALT
 70
     0
  9
$DIMALTD
 70
     2
  9
$DIMALTF
 40
25.4
  9
$DIMLFAC
 40
1.0
  9
$DIMTOFL
 70
     0
  9
$DIMTVP
 40
0.0
  9
$DIMTIX
 70
     0
  9
$DIMSOXD
 70
     0
  9
$DIMSAH
 70
     0
  9
$DIMBLK1
  1

  9
$DIMBLK2
  1

  9
$DIMSTYLE
  2
*UNNAMED
  9
$DIMCLRD
 70
     0
  9
$DIMCLRE
 70
     0
  9
$DIMCLRT
 70
     0
  9
$DIMTFAC
 40
1.0
  9
$DIMGAP
 40
0.09
  9
$LUNITS
 70
     2
  9
$LUPREC
 70
     4
  9
$SKETCHINC
 40
0.1
  9
$FILLETRAD
 40
0.0
  9
$AUNITS
 70
     0
  9
$AUPREC
 70
     0
  9
$MENU
  1
tom
  9
$ELEVATION
 40
0.0
  9
$PELEVATION
 40
0.0
  9
$THICKNESS
 40
0.0
  9
$LIMCHECK
 70
     0
  9
$BLIPMODE
 70
     1
  9
$CHAMFERA
 40
0.0
  9
$CHAMFERB
 40
0.0
  9
$SKPOLY
 70
     0
  9
$TDCREATE
 40
2449783.387831203
  9
$TDUPDATE
 40
2449783.492547638
  9
$TDINDWG
 40
0.0702090162
  9
$TDUSRTIMER
 40
0.0702090162
  9
$USRTIMER
 70
     1
  9
$ANGBASE
 50
0.0
  9
$ANGDIR
 70
     0
  9
$PDMODE
 70
     0
  9
$PDSIZE
 40
0.0
  9
$PLINEWID
 40
0.0
  9
$COORDS
 70
     1
  9
$SPLFRAME
 70
     0
  9
$SPLINETYPE
 70
     6
  9
$SPLINESEGS
 70
     8
  9
$ATTDIA
 70
     0
  9
$ATTREQ
 70
     1
  9
$HANDLING
 70
     0
  9
$HANDSEED
  5
0
  9
$SURFTAB1
 70
     6
  9
$SURFTAB2
 70
     6
  9
$SURFTYPE
 70
     6
  9
$SURFU
 70
     6
  9
$SURFV
 70
     6
  9
$UCSNAME
  2

  9
$UCSORG
 10
0.0
 20
0.0
 30
0.0
  9
$UCSXDIR
 10
1.0
 20
0.0
 30
0.0
  9
$UCSYDIR
 10
0.0
 20
1.0
 30
0.0
  9
$PUCSNAME
  2

  9
$PUCSORG
 10
0.0
 20
0.0
 30
0.0
  9
$PUCSXDIR
 10
1.0
 20
0.0
 30
0.0
  9
$PUCSYDIR
 10
0.0
 20
1.0
 30
0.0
  9
$USERI1
 70
     0
  9
$USERI2
 70
     0
  9
$USERI3
 70
     0
  9
$USERI4
 70
     0
  9
$USERI5
 70
     0
  9
$USERR1
 40
0.0
  9
$USERR2
 40
0.0
  9
$USERR3
 40
0.0
  9
$USERR4
 40
0.0
  9
$USERR5
 40
0.0
  9
$WORLDVIEW
 70
     1
  9
$SHADEDGE
 70
     3
  9
$SHADEDIF
 70
    70
  9
$TILEMODE
 70
     1
  9
$MAXACTVP
 70
    16
  9
$PINSBASE
 10
0.0
 20
0.0
 30
0.0
  9
$PLIMCHECK
 70
     0
  9
$PEXTMIN
 10
1.000000E+20
 20
1.000000E+20
 30
1.000000E+20
  9
$PEXTMAX
 10
-1.000000E+20
 20
-1.000000E+20
 30
-1.000000E+20
  9
$PLIMMIN
 10
0.0
 20
0.0
  9
$PLIMMAX
 10
12.0
 20
9.0
  9
$UNITMODE
 70
     0
  9
$VISRETAIN
 70
     0
  9
$PLINEGEN
 70
     0
  9
$PSLTSCALE
 70
     1
  9
$TREEDEPTH
 70
  3020
  9
$DWGCODEPAGE
  3
ascii
  0
ENDSEC
  0
SECTION
  2
TABLES
  0
TABLE
  2
VPORT
 70
     2
  0
VPORT
  2
*ACTIVE
 70
     0
 10
0.0
 20
0.0
 11
1.0
 21
1.0
 12
16.375
 22
12.613994
 13
0.0
 23
0.0
 14
0.03125
 24
0.03125
 15
0.0
 25
0.0
 16
0.0
 26
0.0
 36
1.0
 17
0.0
 27
0.0
 37
0.0
 40
26.040487
 41
1.365662
 42
50.0
 43
0.0
 44
0.0
 50
0.0
 51
0.0
 71
     0
 72
   100
 73
     1
 74
     1
 75
     1
 76
     0
 77
     0
 78
     0
  0
ENDTAB
  0
TABLE
  2
LTYPE
 70
     6
  0
LTYPE
  2
CONTINUOUS
 70
    64
  3
Solid line
 72
    65
 73
     0
 40
0.0
  0
LTYPE
  2
HIDDEN
 70
    64
  3
_ _ _ _ _ _ _ _ _ _ _ _ _ _ _ _ _ _ _ _ _ _ _
 72
    65
 73
     2
 40
0.375
 49
0.25
 49
-0.125
  0
LTYPE
  2
CENTER
 70
    64
  3
____ _ ____ _ ____ _ ____ _ ____ _ ____ _ ____
 72
    65
 73
     4
 40
2.0
 49
1.25
 49
-0.25
 49
0.25
 49
-0.25
  0
LTYPE
  2
PHANTOM
 70
    64
  3
_____ _ _ _____ _ _ _____ _ _ _____ _ _ ____
 72
    65
 73
     6
 40
2.5
 49
1.25
 49
-0.25
 49
0.25
 49
-0.25
 49
0.25
 49
-0.25
  0
LTYPE
  2
DOT
 70
     0
  3
. . . . . . . . . . . . . . . . . . . . . . . .
 72
    65
 73
     2
 40
0.25
 49
0.0
 49
-0.25
  0
LTYPE
  2
DASHED
 70
    64
  3
__ __ __ __ __ __ __ __ __ __ __ __ __ __ __ __
 72
    65
 73
     2
 40
0.75
 49
0.5
 49
-0.25
  0
ENDTAB
  0
TABLE
  2
LAYER
 70
    11
  0
LAYER
  2
0
 70
    64
 62
     7
  6
CONTINUOUS
  0
LAYER
  2
DAMAN
 70
    64
 62
     5
  6
CONTINUOUS
  0
LAYER
  2
BORDER
 70
    64
 62
     7
  6
CONTINUOUS
  0
LAYER
  2
CSOLID
 70
    64
 62
     3
  6
CONTINUOUS
  0
LAYER
  2
CHIDDEN
 70
    64
 62
     3
  6
HIDDEN
  0
LAYER
  2
CCENTER
 70
    64
 62
     4
  6
CENTER
  0
LAYER
  2
PHANTOM
 70
    64
 62
     1
  6
PHANTOM
  0
LAYER
  2
SOLID
 70
    64
 62
     4
  6
CONTINUOUS
  0
LAYER
  2
CDIM
 70
    64
 62
     2
  6
CONTINUOUS
  0
LAYER
  2
CENTER
 70
    64
 62
     4
  6
CENTER
  0
LAYER
  2
HIDDEN
 70
    64
 62
     6
  6
HIDDEN
  0
ENDTAB
  0
TABLE
  2
STYLE
 70
     2
  0
STYLE
  2
STANDARD
 70
    64
 40
0.0
 41
1.0
 50
0.0
 71
     0
 42
0.2
  3
txt
  4

  0
STYLE
  2
STR
 70
    64
 40
0.0
 41
1.0
 50
0.0
 71
     0
 42
0.2
  3
SIMPLEX
  4

  0
ENDTAB
  0
TABLE
  2
VIEW
 70
     0
  0
ENDTAB
  0
TABLE
  2
UCS
 70
     0
  0
ENDTAB
  0
TABLE
  2
APPID
 70
     1
  0
APPID
  2
ACAD
 70
    64
  0
ENDTAB
  0
TABLE
  2
DIMSTYLE
 70
     0
  0
ENDTAB
  0
ENDSEC
  0
SECTION
  2
BLOCKS
  0
BLOCK
  8
0
  2
24SAET
 70
    64
 10
0.0
 20
0.0
 30
0.0
  3
24SAET
  0
INSERT
  8
DAMAN
  2
100CROSS
 10
0.0
 20
0.0
 30
0.0
 41
2.0
 42
2.0
 43
0.0
  0
CIRCLE
  8
DAMAN
 10
0.0
 20
0.0
 30
0.0
 40
1.281
  0
CIRCLE
  8
DAMAN
 10
0.0
 20
0.0
 30
0.0
 40
0.895
  0
CIRCLE
  8
DAMAN
 10
0.0
 20
0.0
 30
0.0
 40
0.875
  0
CIRCLE
  8
DAMAN
 10
0.0
 20
0.0
 30
0.0
 40
0.9375
  0
ENDBLK
  8
0
  0
BLOCK
  8
0
  2
188SAET
 70
     0
 10
0.0
 20
0.0
 30
0.0
  3
188SAET
  0
INSERT
  8
CCENTER
  2
100CROSS
 10
0.0
 20
0.0
 30
0.0
 41
2.0
 42
2.0
 43
0.0
  0
CIRCLE
  8
CSOLID
 10
0.0
 20
0.0
 30
0.0
 40
1.281
  0
CIRCLE
  8
CSOLID
 10
0.0
 20
0.0
 30
0.0
 40
0.895
  0
CIRCLE
  8
CSOLID
 10
0.0
 20
0.0
 30
0.0
 40
0.875
  0
CIRCLE
  8
CHIDDEN
 10
0.0
 20
0.0
 30
0.0
 40
0.9375
  0
CIRCLE
  8
PHANTOM
 10
0.0
 20
0.0
 30
0.0
 40
1.225
  0
ENDBLK
  8
0
  0
BLOCK
  8
0
  2
100CROSS
 70
    64
 10
5.625
 20
4.59375
 30
0.0
  3
100CROSS
  0
INSERT
  8
0
  2
050CROSS
 10
5.625
 20
4.59375
 30
0.0
 43
0.0
  0
ENDBLK
  8
0
  0
BLOCK
  8
0
  2
050CROSS
 70
    64
 10
5.0
 20
5.0
 30
0.0
  3
050CROSS
  0
LINE
  8
0
 10
5.0
 20
5.28125
 30
0.0
 11
5.0
 21
5.78125
 31
0.0
  0
LINE
  8
0
 10
5.0
 20
4.875
 30
0.0
 11
5.0
 21
5.125
 31
0.0
  0
LINE
  8
0
 10
5.0
 20
4.15625
 30
0.0
 11
5.0
 21
4.71875
 31
0.0
  0
LINE
  8
0
 10
5.25
 20
5.0
 30
0.0
 11
5.8125
 21
5.0
 31
0.0
  0
LINE
  8
0
 10
4.90625
 20
5.0
 30
0.0
 11
5.09375
 21
5.0
 31
0.0
  0
LINE
  8
0
 10
4.1875
 20
5.0
 30
0.0
 11
4.75
 21
5.0
 31
0.0
  0
ENDBLK
  8
0
  0
BLOCK
  8
0
  2
20SAET
 70
    64
 10
0.0
 20
0.0
 30
0.0
  3
20SAET
  0
INSERT
  8
DAMAN
  2
100CROSS
 10
0.0
 20
0.0
 30
0.0
 41
1.7
 42
1.7
 43
0.0
  0
CIRCLE
  8
DAMAN
 10
0.0
 20
0.0
 30
0.0
 40
0.8125
  0
CIRCLE
  8
DAMAN
 10
0.0
 20
0.0
 30
0.0
 40
1.125
  0
CIRCLE
  8
DAMAN
 10
0.0
 20
0.0
 30
0.0
 40
0.75
  0
ENDBLK
  8
0
  0
BLOCK
  8
0
  2
162SAET
 70
     0
 10
0.0
 20
0.0
 30
0.0
  3
162SAET
  0
INSERT
  8
CCENTER
  2
100CROSS
 10
0.0
 20
0.0
 30
0.0
 41
1.7
 42
1.7
 43
0.0
  0
CIRCLE
  8
CHIDDEN
 10
0.0
 20
0.0
 30
0.0
 40
0.8125
  0
CIRCLE
  8
CSOLID
 10
0.0
 20
0.0
 30
0.0
 40
1.125
  0
CIRCLE
  8
CSOLID
 10
0.0
 20
0.0
 30
0.0
 40
0.75
  0
CIRCLE
  8
PHANTOM
 10
0.0
 20
0.0
 30
0.0
 40
1.085
  0
ENDBLK
  8
0
  0
BLOCK
  8
0
  2
700MKT
 70
    64
 10
0.0
 20
0.0
 30
0.0
  3
700MKT
  0
LINE
  8
DAMAN
 10
-1.0625
 20
6.3125
 30
0.0
 11
0.5625
 21
6.3125
 31
0.0
  0
LINE
  8
DAMAN
 10
0.5625
 20
6.3125
 30
0.0
 11
0.5625
 21
-0.6875
 31
0.0
  0
LINE
  8
DAMAN
 10
0.5625
 20
-0.6875
 30
0.0
 11
-1.0625
 21
-0.6875
 31
0.0
  0
LINE
  8
DAMAN
 10
-1.0625
 20
-0.6875
 30
0.0
 11
-1.0625
 21
6.3125
 31
0.0
  0
LINE
  8
DAMAN
 10
-0.875
 20
-0.6875
 30
0.0
 11
-0.875
 21
6.3125
 31
0.0
  0
LINE
  8
DAMAN
 10
-0.875
 20
0.53125
 30
0.0
 11
-0.8125
 21
0.53125
 31
0.0
  0
LINE
  8
DAMAN
 10
-0.8125
 20
0.53125
 30
0.0
 11
-0.8125
 21
-0.53125
 31
0.0
  0
LINE
  8
DAMAN
 10
-0.8125
 20
-0.53125
 30
0.0
 11
-0.875
 21
-0.53125
 31
0.0
  0
LINE
  8
DAMAN
 10
-0.8125
 20
0.433013
 30
0.0
 11
-0.542835
 21
0.433013
 31
0.0
  0
LINE
  8
DAMAN
 10
-0.5
 20
0.358821
 30
0.0
 11
-0.5
 21
-0.358821
 31
0.0
  0
LINE
  8
DAMAN
 10
-0.542835
 20
-0.433013
 30
0.0
 11
-0.8125
 21
-0.433013
 31
0.0
  0
LINE
  8
DAMAN
 10
-0.8125
 20
0.216506
 30
0.0
 11
-0.5625
 21
0.216506
 31
0.0
  0
LINE
  8
DAMAN
 10
-0.8125
 20
-0.216506
 30
0.0
 11
-0.5625
 21
-0.216506
 31
0.0
  0
ARC
  8
DAMAN
 10
-0.90625
 20
0.0
 30
0.0
 40
0.40625
 50
327.795772
 51
32.204228
  0
ARC
  8
DAMAN
 10
-0.625
 20
-0.32476
 30
0.0
 40
0.125
 50
300.0
 51
60.0
  0
ARC
  8
DAMAN
 10
-0.625
 20
0.32476
 30
0.0
 40
0.125
 50
300.0
 51
60.0
  0
LINE
  8
DAMAN
 10
-0.542835
 20
0.433013
 30
0.0
 11
-0.5
 21
0.358821
 31
0.0
  0
LINE
  8
DAMAN
 10
-0.542835
 20
-0.433013
 30
0.0
 11
-0.5
 21
-0.358821
 31
0.0
  0
LINE
  8
DAMAN
 10
-1.0625
 20
0.25
 30
0.0
 11
-1.78125
 21
0.25
 31
0.0
  0
LINE
  8
DAMAN
 10
-1.78125
 20
0.25
 30
0.0
 11
-1.8125
 21
0.21875
 31
0.0
  0
LINE
  8
DAMAN
 10
-1.8125
 20
0.21875
 30
0.0
 11
-1.8125
 21
-0.21875
 31
0.0
  0
LINE
  8
DAMAN
 10
-1.8125
 20
-0.21875
 30
0.0
 11
-1.78125
 21
-0.25
 31
0.0
  0
LINE
  8
DAMAN
 10
-1.78125
 20
-0.25
 30
0.0
 11
-1.0625
 21
-0.25
 31
0.0
  0
LINE
  8
DAMAN
 10
-1.0625
 20
0.21875
 30
0.0
 11
-1.8125
 21
0.21875
 31
0.0
  0
LINE
  8
DAMAN
 10
-1.0625
 20
-0.21875
 30
0.0
 11
-1.8125
 21
-0.21875
 31
0.0
  0
LINE
  8
DAMAN
 10
-0.375
 20
0.0
 30
0.0
 11
-1.90625
 21
0.0
 31
0.0
  0
LINE
  8
DAMAN
 10
-0.375
 20
5.625
 30
0.0
 11
-1.90625
 21
5.625
 31
0.0
  0
LINE
  8
DAMAN
 10
-1.0625
 20
5.40625
 30
0.0
 11
-1.8125
 21
5.40625
 31
0.0
  0
LINE
  8
DAMAN
 10
-1.78125
 20
5.375
 30
0.0
 11
-1.0625
 21
5.375
 31
0.0
  0
LINE
  8
DAMAN
 10
-1.0625
 20
5.84375
 30
0.0
 11
-1.8125
 21
5.84375
 31
0.0
  0
LINE
  8
DAMAN
 10
-1.0625
 20
5.875
 30
0.0
 11
-1.78125
 21
5.875
 31
0.0
  0
LINE
  8
DAMAN
 10
-1.8125
 20
5.84375
 30
0.0
 11
-1.8125
 21
5.40625
 31
0.0
  0
LINE
  8
DAMAN
 10
-1.78125
 20
5.875
 30
0.0
 11
-1.8125
 21
5.84375
 31
0.0
  0
LINE
  8
DAMAN
 10
-1.8125
 20
5.40625
 30
0.0
 11
-1.78125
 21
5.375
 31
0.0
  0
ARC
  8
DAMAN
 10
-0.90625
 20
5.625
 30
0.0
 40
0.40625
 50
327.795772
 51
32.204228
  0
LINE
  8
DAMAN
 10
-0.8125
 20
6.15625
 30
0.0
 11
-0.8125
 21
5.09375
 31
0.0
  0
LINE
  8
DAMAN
 10
-0.5
 20
5.983821
 30
0.0
 11
-0.5
 21
5.266179
 31
0.0
  0
ARC
  8
DAMAN
 10
-0.625
 20
5.94976
 30
0.0
 40
0.125
 50
300.0
 51
60.0
  0
LINE
  8
DAMAN
 10
-0.542835
 20
6.058013
 30
0.0
 11
-0.5
 21
5.983821
 31
0.0
  0
LINE
  8
DAMAN
 10
-0.8125
 20
6.058013
 30
0.0
 11
-0.542835
 21
6.058013
 31
0.0
  0
LINE
  8
DAMAN
 10
-0.875
 20
6.15625
 30
0.0
 11
-0.8125
 21
6.15625
 31
0.0
  0
LINE
  8
DAMAN
 10
-0.8125
 20
5.841506
 30
0.0
 11
-0.5625
 21
5.841506
 31
0.0
  0
ARC
  8
DAMAN
 10
-0.625
 20
5.30024
 30
0.0
 40
0.125
 50
300.0
 51
60.0
  0
LINE
  8
DAMAN
 10
-0.8125
 20
5.408494
 30
0.0
 11
-0.5625
 21
5.408494
 31
0.0
  0
LINE
  8
DAMAN
 10
-0.542835
 20
5.191987
 30
0.0
 11
-0.8125
 21
5.191987
 31
0.0
  0
LINE
  8
DAMAN
 10
-0.8125
 20
5.09375
 30
0.0
 11
-0.875
 21
5.09375
 31
0.0
  0
LINE
  8
DAMAN
 10
-0.542835
 20
5.191987
 30
0.0
 11
-0.5
 21
5.266179
 31
0.0
  0
CIRCLE
  8
DAMAN
 10
0.0
 20
5.625
 30
0.0
 40
0.53125
  0
CIRCLE
  8
DAMAN
 10
0.0
 20
0.0
 30
0.0
 40
0.53125
  0
POLYLINE
  8
DAMAN
 66
     1
 10
0.0
 20
0.0
 30
0.0
 70
     1
  0
VERTEX
  8
DAMAN
 10
0.375
 20
5.841506
 30
0.0
  0
VERTEX
  8
DAMAN
 10
0.0
 20
6.058013
 30
0.0
  0
VERTEX
  8
DAMAN
 10
-0.375
 20
5.841506
 30
0.0
  0
VERTEX
  8
DAMAN
 10
-0.375
 20
5.408494
 30
0.0
  0
VERTEX
  8
DAMAN
 10
0.0
 20
5.191987
 30
0.0
  0
VERTEX
  8
DAMAN
 10
0.375
 20
5.408494
 30
0.0
  0
SEQEND
  8
DAMAN
  0
CIRCLE
  8
DAMAN
 10
0.0
 20
5.625
 30
0.0
 40
0.375
  0
CIRCLE
  8
DAMAN
 10
0.0
 20
0.0
 30
0.0
 40
0.375
  0
POLYLINE
  8
DAMAN
 66
     1
 10
0.0
 20
0.0
 30
0.0
 70
     1
  0
VERTEX
  8
DAMAN
 10
0.375
 20
0.216506
 30
0.0
  0
VERTEX
  8
DAMAN
 10
0.0
 20
0.433013
 30
0.0
  0
VERTEX
  8
DAMAN
 10
-0.375
 20
0.216506
 30
0.0
  0
VERTEX
  8
DAMAN
 10
-0.375
 20
-0.216506
 30
0.0
  0
VERTEX
  8
DAMAN
 10
0.0
 20
-0.433013
 30
0.0
  0
VERTEX
  8
DAMAN
 10
0.375
 20
-0.216506
 30
0.0
  0
SEQEND
  8
DAMAN
  0
INSERT
  8
DAMAN
  2
100CROSS
 10
0.0
 20
5.625
 30
0.0
 41
0.8
 42
0.8
 43
0.0
  0
INSERT
  8
DAMAN
  2
100CROSS
 10
0.0
 20
0.0
 30
0.0
 41
0.8
 42
0.8
 43
0.0
  0
ENDBLK
  8
0
  0
BLOCK
  8
0
  2
600MK
 70
     0
 10
0.0
 20
0.0
 30
0.0
  3
600MK
  0
LINE
  8
DAMAN
 10
0.59375
 20
1.5625
 30
0.0
 11
0.59375
 21
3.1875
 31
0.0
  0
LINE
  8
DAMAN
 10
0.59375
 20
3.1875
 30
0.0
 11
6.59375
 21
3.1875
 31
0.0
  0
LINE
  8
DAMAN
 10
6.59375
 20
3.1875
 30
0.0
 11
6.59375
 21
1.5625
 31
0.0
  0
LINE
  8
DAMAN
 10
6.59375
 20
1.5625
 30
0.0
 11
0.59375
 21
1.5625
 31
0.0
  0
LINE
  8
DAMAN
 10
6.59375
 20
1.75
 30
0.0
 11
0.59375
 21
1.75
 31
0.0
  0
CIRCLE
  8
DAMAN
 10
1.15625
 20
2.625
 30
0.0
 40
0.28125
  0
INSERT
  8
DAMAN
  2
100CROSS
 10
1.15625
 20
2.625
 30
0.0
 41
0.5625
 42
0.5625
 43
0.5625
  0
INSERT
  8
DAMAN
  2
100CROSS
 10
6.03125
 20
2.625
 30
0.0
 41
0.5625
 42
0.5625
 43
0.5625
  0
CIRCLE
  8
DAMAN
 10
6.03125
 20
2.625
 30
0.0
 40
0.28125
  0
CIRCLE
  8
DAMAN
 10
6.03125
 20
6.5
 30
0.0
 40
0.28125
  0
INSERT
  8
DAMAN
  2
100CROSS
 10
6.03125
 20
6.5
 30
0.0
 41
-0.5625
 42
0.5625
 50
180.0
 43
0.5625
  0
INSERT
  8
DAMAN
  2
100CROSS
 10
1.15625
 20
6.5
 30
0.0
 41
-0.5625
 42
0.5625
 50
180.0
 43
0.5625
  0
CIRCLE
  8
DAMAN
 10
1.15625
 20
6.5
 30
0.0
 40
0.28125
  0
LINE
  8
DAMAN
 10
6.59375
 20
7.375
 30
0.0
 11
0.59375
 21
7.375
 31
0.0
  0
LINE
  8
DAMAN
 10
6.59375
 20
7.5625
 30
0.0
 11
0.59375
 21
7.5625
 31
0.0
  0
LINE
  8
DAMAN
 10
6.59375
 20
5.9375
 30
0.0
 11
6.59375
 21
7.5625
 31
0.0
  0
LINE
  8
DAMAN
 10
0.59375
 20
5.9375
 30
0.0
 11
6.59375
 21
5.9375
 31
0.0
  0
LINE
  8
DAMAN
 10
0.59375
 20
7.5625
 30
0.0
 11
0.59375
 21
5.9375
 31
0.0
  0
LINE
  8
DAMAN
 10
8.78125
 20
1.5625
 30
0.0
 11
8.78125
 21
1.75
 31
0.0
  0
LINE
  8
DAMAN
 10
8.78125
 20
1.75
 30
0.0
 11
9.96875
 21
1.75
 31
0.0
  0
LINE
  8
DAMAN
 10
10.21875
 20
2.0
 30
0.0
 11
10.21875
 21
3.1875
 31
0.0
  0
LINE
  8
DAMAN
 10
10.21875
 20
3.1875
 30
0.0
 11
10.40625
 21
3.1875
 31
0.0
  0
LINE
  8
DAMAN
 10
10.40625
 20
3.1875
 30
0.0
 11
10.40625
 21
2.0
 31
0.0
  0
LINE
  8
DAMAN
 10
9.96875
 20
1.5625
 30
0.0
 11
8.78125
 21
1.5625
 31
0.0
  0
ARC
  8
DAMAN
 10
9.96875
 20
2.0
 30
0.0
 40
0.25
 50
270.0
 51
0.0
  0
ARC
  8
DAMAN
 10
9.96875
 20
2.0
 30
0.0
 40
0.4375
 50
270.0
 51
0.0
  0
LINE
  8
DAMAN
 10
8.8125
 20
1.75
 30
0.0
 11
8.8125
 21
1.8125
 31
0.0
  0
LINE
  8
DAMAN
 10
8.8125
 20
1.8125
 30
0.0
 11
9.875
 21
1.8125
 31
0.0
  0
LINE
  8
DAMAN
 10
9.875
 20
1.8125
 30
0.0
 11
9.875
 21
1.75
 31
0.0
  0
LINE
  8
DAMAN
 10
8.910737
 20
1.8125
 30
0.0
 11
8.910737
 21
2.082165
 31
0.0
  0
LINE
  8
DAMAN
 10
8.984929
 20
2.125
 30
0.0
 11
9.702571
 21
2.125
 31
0.0
  0
LINE
  8
DAMAN
 10
9.776763
 20
2.082165
 30
0.0
 11
9.776763
 21
1.8125
 31
0.0
  0
LINE
  8
DAMAN
 10
9.127244
 20
1.8125
 30
0.0
 11
9.127244
 21
2.0625
 31
0.0
  0
LINE
  8
DAMAN
 10
9.560256
 20
1.8125
 30
0.0
 11
9.560256
 21
2.0625
 31
0.0
  0
ARC
  8
DAMAN
 10
9.34375
 20
1.71875
 30
0.0
 40
0.40625
 50
57.795772
 51
122.204228
  0
ARC
  8
DAMAN
 10
9.66851
 20
2.0
 30
0.0
 40
0.125
 50
30.0
 51
150.0
  0
ARC
  8
DAMAN
 10
9.01899
 20
2.0
 30
0.0
 40
0.125
 50
30.0
 51
150.0
  0
LINE
  8
DAMAN
 10
8.910737
 20
2.082165
 30
0.0
 11
8.984929
 21
2.125
 31
0.0
  0
LINE
  8
DAMAN
 10
9.776763
 20
2.082165
 30
0.0
 11
9.702571
 21
2.125
 31
0.0
  0
LINE
  8
DAMAN
 10
9.09375
 20
1.5625
 30
0.0
 11
9.09375
 21
0.84375
 31
0.0
  0
LINE
  8
DAMAN
 10
9.09375
 20
0.84375
 30
0.0
 11
9.125
 21
0.8125
 31
0.0
  0
LINE
  8
DAMAN
 10
9.125
 20
0.8125
 30
0.0
 11
9.5625
 21
0.8125
 31
0.0
  0
LINE
  8
DAMAN
 10
9.5625
 20
0.8125
 30
0.0
 11
9.59375
 21
0.84375
 31
0.0
  0
LINE
  8
DAMAN
 10
9.59375
 20
0.84375
 30
0.0
 11
9.59375
 21
1.5625
 31
0.0
  0
LINE
  8
DAMAN
 10
9.125
 20
1.5625
 30
0.0
 11
9.125
 21
0.8125
 31
0.0
  0
LINE
  8
DAMAN
 10
9.5625
 20
1.5625
 30
0.0
 11
9.5625
 21
0.8125
 31
0.0
  0
LINE
  8
DAMAN
 10
9.34375
 20
2.25
 30
0.0
 11
9.34375
 21
0.71875
 31
0.0
  0
LINE
  8
DAMAN
 10
9.886585
 20
3.058013
 30
0.0
 11
9.84375
 21
2.983821
 31
0.0
  0
LINE
  8
DAMAN
 10
9.886585
 20
2.191987
 30
0.0
 11
9.84375
 21
2.266179
 31
0.0
  0
ARC
  8
DAMAN
 10
9.96875
 20
2.30024
 30
0.0
 40
0.125
 50
120.0
 51
240.0
  0
ARC
  8
DAMAN
 10
9.96875
 20
2.94976
 30
0.0
 40
0.125
 50
120.0
 51
240.0
  0
ARC
  8
DAMAN
 10
10.25
 20
2.625
 30
0.0
 40
0.40625
 50
147.795772
 51
212.204228
  0
LINE
  8
DAMAN
 10
10.15625
 20
2.841506
 30
0.0
 11
9.90625
 21
2.841506
 31
0.0
  0
LINE
  8
DAMAN
 10
10.15625
 20
2.408494
 30
0.0
 11
9.90625
 21
2.408494
 31
0.0
  0
LINE
  8
DAMAN
 10
9.886585
 20
3.058013
 30
0.0
 11
10.15625
 21
3.058013
 31
0.0
  0
LINE
  8
DAMAN
 10
9.84375
 20
2.266179
 30
0.0
 11
9.84375
 21
2.983821
 31
0.0
  0
LINE
  8
DAMAN
 10
10.15625
 20
2.191987
 30
0.0
 11
9.886585
 21
2.191987
 31
0.0
  0
LINE
  8
DAMAN
 10
10.15625
 20
3.15625
 30
0.0
 11
10.21875
 21
3.15625
 31
0.0
  0
LINE
  8
DAMAN
 10
10.15625
 20
2.09375
 30
0.0
 11
10.15625
 21
3.15625
 31
0.0
  0
LINE
  8
DAMAN
 10
10.21875
 20
2.09375
 30
0.0
 11
10.15625
 21
2.09375
 31
0.0
  0
ENDBLK
  8
0
  0
BLOCK
  8
0
  2
D07D08MK
 70
     0
 10
0.0
 20
0.0
 30
0.0
  3
D07D08MK
  0
LINE
  8
SOLID
 10
-11.5
 20
-0.5625
 30
0.0
 11
-11.5
 21
1.0625
 31
0.0
  0
LINE
  8
SOLID
 10
-11.5
 20
1.0625
 30
0.0
 11
-5.5
 21
1.0625
 31
0.0
  0
LINE
  8
SOLID
 10
-5.5
 20
1.0625
 30
0.0
 11
-5.5
 21
-0.5625
 31
0.0
  0
LINE
  8
SOLID
 10
-5.5
 20
-0.5625
 30
0.0
 11
-11.5
 21
-0.5625
 31
0.0
  0
LINE
  8
SOLID
 10
-5.5
 20
-0.375
 30
0.0
 11
-11.5
 21
-0.375
 31
0.0
  0
CIRCLE
  8
SOLID
 10
-10.9375
 20
0.5
 30
0.0
 40
0.28125
  0
INSERT
  8
SOLID
  2
100CROSS
 10
-10.9375
 20
0.5
 30
0.0
 41
0.5625
 42
0.5625
 43
0.5625
  0
INSERT
  8
SOLID
  2
100CROSS
 10
-6.0625
 20
0.5
 30
0.0
 41
0.5625
 42
0.5625
 43
0.5625
  0
CIRCLE
  8
SOLID
 10
-6.0625
 20
0.5
 30
0.0
 40
0.28125
  0
CIRCLE
  8
SOLID
 10
-6.0625
 20
4.375
 30
0.0
 40
0.28125
  0
INSERT
  8
SOLID
  2
100CROSS
 10
-6.0625
 20
4.375
 30
0.0
 41
-0.5625
 42
0.5625
 50
180.0
 43
0.5625
  0
INSERT
  8
SOLID
  2
100CROSS
 10
-10.9375
 20
4.375
 30
0.0
 41
-0.5625
 42
0.5625
 50
180.0
 43
0.5625
  0
CIRCLE
  8
SOLID
 10
-10.9375
 20
4.375
 30
0.0
 40
0.28125
  0
LINE
  8
SOLID
 10
-5.5
 20
5.25
 30
0.0
 11
-11.5
 21
5.25
 31
0.0
  0
LINE
  8
SOLID
 10
-5.5
 20
5.4375
 30
0.0
 11
-11.5
 21
5.4375
 31
0.0
  0
LINE
  8
SOLID
 10
-5.5
 20
3.8125
 30
0.0
 11
-5.5
 21
5.4375
 31
0.0
  0
LINE
  8
SOLID
 10
-11.5
 20
3.8125
 30
0.0
 11
-5.5
 21
3.8125
 31
0.0
  0
LINE
  8
SOLID
 10
-11.5
 20
5.4375
 30
0.0
 11
-11.5
 21
3.8125
 31
0.0
  0
LINE
  8
SOLID
 10
-3.3125
 20
-0.5625
 30
0.0
 11
-3.3125
 21
-0.375
 31
0.0
  0
LINE
  8
SOLID
 10
-3.3125
 20
-0.375
 30
0.0
 11
-2.125
 21
-0.375
 31
0.0
  0
LINE
  8
SOLID
 10
-1.875
 20
-0.125
 30
0.0
 11
-1.875
 21
1.0625
 31
0.0
  0
LINE
  8
SOLID
 10
-1.875
 20
1.0625
 30
0.0
 11
-1.6875
 21
1.0625
 31
0.0
  0
LINE
  8
SOLID
 10
-1.6875
 20
1.0625
 30
0.0
 11
-1.6875
 21
-0.125
 31
0.0
  0
LINE
  8
SOLID
 10
-2.125
 20
-0.5625
 30
0.0
 11
-3.3125
 21
-0.5625
 31
0.0
  0
ARC
  8
SOLID
 10
-2.125
 20
-0.125
 30
0.0
 40
0.25
 50
270.0
 51
0.0
  0
ARC
  8
SOLID
 10
-2.125
 20
-0.125
 30
0.0
 40
0.4375
 50
270.0
 51
0.0
  0
POLYLINE
  8
BORDER
 66
     1
 10
0.0
 20
0.0
 30
0.0
 70
     1
  0
VERTEX
  8
BORDER
 10
-1.6875
 20
0.0
 30
0.0
  0
VERTEX
  8
BORDER
 10
-1.6875
 20
1.53125
 30
0.0
  0
VERTEX
  8
BORDER
 10
-1.25
 20
1.40625
 30
0.0
  0
VERTEX
  8
BORDER
 10
-0.9375
 20
1.0625
 30
0.0
  0
VERTEX
  8
BORDER
 10
-0.53125
 20
0.78125
 30
0.0
  0
VERTEX
  8
BORDER
 10
-0.3125
 20
0.375
 30
0.0
  0
VERTEX
  8
BORDER
 10
-0.40625
 20
0.0
 30
0.0
  0
SEQEND
  8
BORDER
  0
LINE
  8
SOLID
 10
-3.28125
 20
-0.375
 30
0.0
 11
-3.28125
 21
-0.3125
 31
0.0
  0
LINE
  8
SOLID
 10
-3.28125
 20
-0.3125
 30
0.0
 11
-2.21875
 21
-0.3125
 31
0.0
  0
LINE
  8
SOLID
 10
-2.21875
 20
-0.3125
 30
0.0
 11
-2.21875
 21
-0.375
 31
0.0
  0
LINE
  8
SOLID
 10
-3.183013
 20
-0.3125
 30
0.0
 11
-3.183013
 21
-0.042835
 31
0.0
  0
LINE
  8
SOLID
 10
-3.108821
 20
0.0
 30
0.0
 11
-2.391179
 21
0.0
 31
0.0
  0
LINE
  8
SOLID
 10
-2.316987
 20
-0.042835
 30
0.0
 11
-2.316987
 21
-0.3125
 31
0.0
  0
LINE
  8
SOLID
 10
-2.966506
 20
-0.3125
 30
0.0
 11
-2.966506
 21
-0.0625
 31
0.0
  0
LINE
  8
SOLID
 10
-2.533494
 20
-0.3125
 30
0.0
 11
-2.533494
 21
-0.0625
 31
0.0
  0
ARC
  8
SOLID
 10
-2.75
 20
-0.40625
 30
0.0
 40
0.40625
 50
57.795772
 51
122.204228
  0
ARC
  8
SOLID
 10
-2.42524
 20
-0.125
 30
0.0
 40
0.125
 50
30.0
 51
150.0
  0
ARC
  8
SOLID
 10
-3.07476
 20
-0.125
 30
0.0
 40
0.125
 50
30.0
 51
150.0
  0
LINE
  8
SOLID
 10
-3.183013
 20
-0.042835
 30
0.0
 11
-3.108821
 21
0.0
 31
0.0
  0
LINE
  8
SOLID
 10
-2.316987
 20
-0.042835
 30
0.0
 11
-2.391179
 21
0.0
 31
0.0
  0
LINE
  8
SOLID
 10
-3.0
 20
-0.5625
 30
0.0
 11
-3.0
 21
-1.28125
 31
0.0
  0
LINE
  8
SOLID
 10
-3.0
 20
-1.28125
 30
0.0
 11
-2.96875
 21
-1.3125
 31
0.0
  0
LINE
  8
SOLID
 10
-2.96875
 20
-1.3125
 30
0.0
 11
-2.53125
 21
-1.3125
 31
0.0
  0
LINE
  8
SOLID
 10
-2.53125
 20
-1.3125
 30
0.0
 11
-2.5
 21
-1.28125
 31
0.0
  0
LINE
  8
SOLID
 10
-2.5
 20
-1.28125
 30
0.0
 11
-2.5
 21
-0.5625
 31
0.0
  0
LINE
  8
HIDDEN
 10
-2.96875
 20
-0.5625
 30
0.0
 11
-2.96875
 21
-1.3125
 31
0.0
  0
LINE
  8
HIDDEN
 10
-2.53125
 20
-0.5625
 30
0.0
 11
-2.53125
 21
-1.3125
 31
0.0
  0
LINE
  8
CENTER
 10
-2.75
 20
0.125
 30
0.0
 11
-2.75
 21
-1.40625
 31
0.0
  0
LINE
  8
SOLID
 10
-2.207165
 20
0.933013
 30
0.0
 11
-2.25
 21
0.858821
 31
0.0
  0
LINE
  8
SOLID
 10
-2.207165
 20
0.066987
 30
0.0
 11
-2.25
 21
0.141179
 31
0.0
  0
ARC
  8
SOLID
 10
-2.125
 20
0.17524
 30
0.0
 40
0.125
 50
120.0
 51
240.0
  0
ARC
  8
SOLID
 10
-2.125
 20
0.82476
 30
0.0
 40
0.125
 50
120.0
 51
240.0
  0
ARC
  8
SOLID
 10
-1.84375
 20
0.5
 30
0.0
 40
0.40625
 50
147.795772
 51
212.204228
  0
LINE
  8
SOLID
 10
-1.9375
 20
0.716506
 30
0.0
 11
-2.1875
 21
0.716506
 31
0.0
  0
LINE
  8
SOLID
 10
-1.9375
 20
0.283494
 30
0.0
 11
-2.1875
 21
0.283494
 31
0.0
  0
LINE
  8
SOLID
 10
-2.207165
 20
0.933013
 30
0.0
 11
-1.9375
 21
0.933013
 31
0.0
  0
LINE
  8
SOLID
 10
-2.25
 20
0.141179
 30
0.0
 11
-2.25
 21
0.858821
 31
0.0
  0
LINE
  8
SOLID
 10
-1.9375
 20
0.066987
 30
0.0
 11
-2.207165
 21
0.066987
 31
0.0
  0
LINE
  8
SOLID
 10
-1.9375
 20
1.03125
 30
0.0
 11
-1.875
 21
1.03125
 31
0.0
  0
LINE
  8
SOLID
 10
-1.9375
 20
-0.03125
 30
0.0
 11
-1.9375
 21
1.03125
 31
0.0
  0
LINE
  8
SOLID
 10
-1.875
 20
-0.03125
 30
0.0
 11
-1.9375
 21
-0.03125
 31
0.0
  0
LINE
  8
CENTER
 10
-2.375
 20
0.5
 30
0.0
 11
-1.03125
 21
0.5
 31
0.0
  0
LINE
  8
CDIM
 10
-1.948288
 20
-0.5625
 30
0.0
 11
-0.459075
 21
-0.5625
 31
0.0
  0
LINE
  8
CDIM
 10
-0.8125
 20
0.353425
 30
0.0
 11
-0.8125
 21
0.70685
 31
0.0
  0
LINE
  8
CDIM
 10
-0.8125
 20
-0.915925
 30
0.0
 11
-0.8125
 21
-1.26935
 31
0.0
  0
SOLID
  8
CDIM
 10
-0.753596
 20
0.353425
 30
0.0
 11
-0.871404
 21
0.353425
 31
0.0
 12
-0.8125
 22
0.0
 32
0.0
 13
-0.8125
 23
0.0
 33
0.0
  0
SOLID
  8
CDIM
 10
-0.753596
 20
-0.915925
 30
0.0
 11
-0.871404
 21
-0.915925
 31
0.0
 12
-0.8125
 22
-0.5625
 32
0.0
 13
-0.8125
 23
-0.5625
 33
0.0
  0
TEXT
  8
CDIM
 10
-1.41815
 20
-1.897318
 30
0.0
 40
0.395836
  1
0.56
  7
STR
  0
LINE
  8
CDIM
 10
-3.489213
 20
-0.5625
 30
0.0
 11
-4.540925
 21
-0.5625
 31
0.0
  0
LINE
  8
CDIM
 10
-2.051713
 20
1.0625
 30
0.0
 11
-4.540925
 21
1.0625
 31
0.0
  0
LINE
  8
CDIM
 10
-4.1875
 20
1.415925
 30
0.0
 11
-4.1875
 21
1.76935
 31
0.0
  0
LINE
  8
CDIM
 10
-4.1875
 20
-0.915925
 30
0.0
 11
-4.1875
 21
-1.26935
 31
0.0
  0
SOLID
  8
CDIM
 10
-4.128596
 20
1.415925
 30
0.0
 11
-4.246404
 21
1.415925
 31
0.0
 12
-4.1875
 22
1.0625
 32
0.0
 13
-4.1875
 23
1.0625
 33
0.0
  0
SOLID
  8
CDIM
 10
-4.128596
 20
-0.915925
 30
0.0
 11
-4.246404
 21
-0.915925
 31
0.0
 12
-4.1875
 22
-0.5625
 32
0.0
 13
-4.1875
 23
-0.5625
 33
0.0
  0
TEXT
  8
CDIM
 10
-4.7619
 20
0.071432
 30
0.0
 40
0.395836
  1
1.63
  7
STR
  0
LINE
  8
CDIM
 10
-3.3125
 20
-0.198288
 30
0.0
 11
-3.3125
 21
2.634675
 31
0.0
  0
LINE
  8
CDIM
 10
-1.6875
 20
1.707963
 30
0.0
 11
-1.6875
 21
2.634675
 31
0.0
  0
LINE
  8
CDIM
 10
-1.334075
 20
2.28125
 30
0.0
 11
-0.98065
 21
2.28125
 31
0.0
  0
LINE
  8
CDIM
 10
-3.665925
 20
2.28125
 30
0.0
 11
-4.01935
 21
2.28125
 31
0.0
  0
SOLID
  8
CDIM
 10
-1.334075
 20
2.222346
 30
0.0
 11
-1.334075
 21
2.340154
 31
0.0
 12
-1.6875
 22
2.28125
 32
0.0
 13
-1.6875
 23
2.28125
 33
0.0
  0
SOLID
  8
CDIM
 10
-3.665925
 20
2.222346
 30
0.0
 11
-3.665925
 21
2.340154
 31
0.0
 12
-3.3125
 22
2.28125
 32
0.0
 13
-3.3125
 23
2.28125
 33
0.0
  0
TEXT
  8
CDIM
 10
-3.064725
 20
2.083332
 30
0.0
 40
0.395836
  1
1.63
  7
STR
  0
LINE
  8
CDIM
 10
-11.5
 20
1.239213
 30
0.0
 11
-11.5
 21
2.165925
 31
0.0
  0
LINE
  8
CDIM
 10
-10.9375
 20
0.895462
 30
0.0
 11
-10.9375
 21
2.165925
 31
0.0
  0
LINE
  8
CDIM
 10
-10.584075
 20
1.8125
 30
0.0
 11
-10.23065
 21
1.8125
 31
0.0
  0
LINE
  8
CDIM
 10
-11.853425
 20
1.8125
 30
0.0
 11
-12.20685
 21
1.8125
 31
0.0
  0
SOLID
  8
CDIM
 10
-10.584075
 20
1.753596
 30
0.0
 11
-10.584075
 21
1.871404
 31
0.0
 12
-10.9375
 22
1.8125
 32
0.0
 13
-10.9375
 23
1.8125
 33
0.0
  0
SOLID
  8
CDIM
 10
-11.853425
 20
1.753596
 30
0.0
 11
-11.853425
 21
1.871404
 31
0.0
 12
-11.5
 22
1.8125
 32
0.0
 13
-11.5
 23
1.8125
 33
0.0
  0
TEXT
  8
CDIM
 10
-9.877225
 20
1.614582
 30
0.0
 40
0.395836
  1
0.56
  7
STR
  0
LINE
  8
CDIM
 10
-10.9375
 20
0.895462
 30
0.0
 11
-10.9375
 21
3.1012
 31
0.0
  0
LINE
  8
CDIM
 10
-6.0625
 20
0.895462
 30
0.0
 11
-6.0625
 21
3.1012
 31
0.0
  0
LINE
  8
CDIM
 10
-10.584075
 20
2.747775
 30
0.0
 11
-9.456604
 21
2.747775
 31
0.0
  0
LINE
  8
CDIM
 10
-6.415925
 20
2.747775
 30
0.0
 11
-7.543396
 21
2.747775
 31
0.0
  0
SOLID
  8
CDIM
 10
-10.584075
 20
2.688871
 30
0.0
 11
-10.584075
 21
2.806679
 31
0.0
 12
-10.9375
 22
2.747775
 32
0.0
 13
-10.9375
 23
2.747775
 33
0.0
  0
SOLID
  8
CDIM
 10
-6.415925
 20
2.688871
 30
0.0
 11
-6.415925
 21
2.806679
 31
0.0
 12
-6.0625
 22
2.747775
 32
0.0
 13
-6.0625
 23
2.747775
 33
0.0
  0
TEXT
  8
CDIM
 10
-9.103179
 20
2.549857
 30
0.0
 40
0.395836
  1
4.88
  7
STR
  0
LINE
  8
CDIM
 10
-11.5
 20
-0.739213
 30
0.0
 11
-11.5
 21
-1.697175
 31
0.0
  0
LINE
  8
CDIM
 10
-5.5
 20
-0.739213
 30
0.0
 11
-5.5
 21
-1.697175
 31
0.0
  0
LINE
  8
CDIM
 10
-11.146575
 20
-1.34375
 30
0.0
 11
-9.456604
 21
-1.34375
 31
0.0
  0
LINE
  8
CDIM
 10
-5.853425
 20
-1.34375
 30
0.0
 11
-7.543396
 21
-1.34375
 31
0.0
  0
SOLID
  8
CDIM
 10
-11.146575
 20
-1.402654
 30
0.0
 11
-11.146575
 21
-1.284846
 31
0.0
 12
-11.5
 22
-1.34375
 32
0.0
 13
-11.5
 23
-1.34375
 33
0.0
  0
SOLID
  8
CDIM
 10
-5.853425
 20
-1.402654
 30
0.0
 11
-5.853425
 21
-1.284846
 31
0.0
 12
-5.5
 22
-1.34375
 32
0.0
 13
-5.5
 23
-1.34375
 33
0.0
  0
TEXT
  8
CDIM
 10
-9.103179
 20
-1.541668
 30
0.0
 40
0.395836
  1
6.00
  7
STR
  0
LINE
  8
CDIM
 10
-11.676713
 20
1.0625
 30
0.0
 11
-12.603425
 21
1.0625
 31
0.0
  0
LINE
  8
CDIM
 10
-11.364213
 20
0.5
 30
0.0
 11
-12.603425
 21
0.5
 31
0.0
  0
LINE
  8
CDIM
 10
-12.25
 20
0.146575
 30
0.0
 11
-12.25
 21
-0.20685
 31
0.0
  0
LINE
  8
CDIM
 10
-12.25
 20
1.415925
 30
0.0
 11
-12.25
 21
1.76935
 31
0.0
  0
SOLID
  8
CDIM
 10
-12.191096
 20
0.146575
 30
0.0
 11
-12.308904
 21
0.146575
 31
0.0
 12
-12.25
 22
0.5
 32
0.0
 13
-12.25
 23
0.5
 33
0.0
  0
SOLID
  8
CDIM
 10
-12.191096
 20
1.415925
 30
0.0
 11
-12.308904
 21
1.415925
 31
0.0
 12
-12.25
 22
1.0625
 32
0.0
 13
-12.25
 23
1.0625
 33
0.0
  0
TEXT
  8
CDIM
 10
-12.894358
 20
-0.748518
 30
0.0
 40
0.395836
  1
0.56
  7
STR
  0
LINE
  8
CDIM
 10
-11.676713
 20
3.8125
 30
0.0
 11
-12.603425
 21
3.8125
 31
0.0
  0
LINE
  8
CDIM
 10
-11.364213
 20
4.375
 30
0.0
 11
-12.603425
 21
4.375
 31
0.0
  0
LINE
  8
CDIM
 10
-12.25
 20
4.728425
 30
0.0
 11
-12.25
 21
5.08185
 31
0.0
  0
LINE
  8
CDIM
 10
-12.25
 20
3.459075
 30
0.0
 11
-12.25
 21
3.10565
 31
0.0
  0
SOLID
  8
CDIM
 10
-12.191096
 20
4.728425
 30
0.0
 11
-12.308904
 21
4.728425
 31
0.0
 12
-12.25
 22
4.375
 32
0.0
 13
-12.25
 23
4.375
 33
0.0
  0
SOLID
  8
CDIM
 10
-12.191096
 20
3.459075
 30
0.0
 11
-12.308904
 21
3.459075
 31
0.0
 12
-12.25
 22
3.8125
 32
0.0
 13
-12.25
 23
3.8125
 33
0.0
  0
TEXT
  8
CDIM
 10
-12.8869
 20
2.508932
 30
0.0
 40
0.395836
  1
0.56
  7
STR
  0
ENDBLK
  8
0
  0
BLOCK
  8
0
  2
MACL
 70
     0
 10
0.0
 20
0.0
 30
0.0
  3
MACL
  0
LINE
  8
DAMAN
 10
0.0
 20
7.0
 30
0.0
 11
3.0
 21
7.0
 31
0.0
  0
LINE
  8
DAMAN
 10
3.0
 20
7.0
 30
0.0
 11
3.0
 21
4.0
 31
0.0
  0
LINE
  8
DAMAN
 10
3.0
 20
4.0
 30
0.0
 11
0.0
 21
4.0
 31
0.0
  0
LINE
  8
DAMAN
  6
HIDDEN
 10
0.0
 20
4.0
 30
0.0
 11
0.0
 21
7.0
 31
0.0
  0
LINE
  8
DAMAN
 10
5.0
 20
7.0
 30
0.0
 11
5.0
 21
4.0
 31
0.0
  0
LINE
  8
DAMAN
 10
5.0
 20
4.0
 30
0.0
 11
15.125
 21
4.0
 31
0.0
  0
LINE
  8
DAMAN
 10
15.125
 20
4.0
 30
0.0
 11
15.125
 21
7.0
 31
0.0
  0
LINE
  8
DAMAN
 10
15.125
 20
7.0
 30
0.0
 11
5.0
 21
7.0
 31
0.0
  0
LINE
  8
DAMAN
 10
17.125
 20
7.0
 30
0.0
 11
17.125
 21
4.0
 31
0.0
  0
LINE
  8
DAMAN
 10
17.125
 20
4.0
 30
0.0
 11
20.125
 21
4.0
 31
0.0
  0
LINE
  8
DAMAN
 10
20.125
 20
7.0
 30
0.0
 11
17.125
 21
7.0
 31
0.0
  0
LINE
  8
DAMAN
 10
5.0
 20
3.0
 30
0.0
 11
15.125
 21
3.0
 31
0.0
  0
LINE
  8
DAMAN
 10
15.125
 20
3.0
 30
0.0
 11
15.125
 21
0.0
 31
0.0
  0
LINE
  8
DAMAN
 10
15.125
 20
0.0
 30
0.0
 11
5.0
 21
0.0
 31
0.0
  0
LINE
  8
DAMAN
 10
5.0
 20
0.0
 30
0.0
 11
5.0
 21
3.0
 31
0.0
  0
INSERT
  8
DAMAN
  2
300MKT
 10
0.0
 20
4.0
 30
0.0
  0
LINE
  8
DAMAN
  6
HIDDEN
 10
20.125
 20
4.0
 30
0.0
 11
20.125
 21
7.0
 31
0.0
  0
INSERT
  8
DAMAN
  2
300MKT
 10
20.125
 20
4.0
 30
0.0
 41
-1.0
  0
INSERT
  8
DAMAN
  2
D03
 10
5.453
 20
6.0
 30
0.0
  0
INSERT
  8
DAMAN
  2
10SAET
 10
1.5
 20
6.1875
 30
0.0
  0
INSERT
  8
DAMAN
  2
10SAET
 10
1.5
 20
4.8125
 30
0.0
  0
INSERT
  8
DAMAN
  2
10SAET
 10
18.625
 20
6.1875
 30
0.0
 41
-1.0
  0
INSERT
  8
DAMAN
  2
10SAET
 10
18.625
 20
4.8125
 30
0.0
 41
-1.0
  0
INSERT
  8
DAMAN
  2
08SAET
 10
6.0625
 20
0.625
 30
0.0
  0
INSERT
  8
DAMAN
  2
08SAET
 10
6.0625
 20
2.375
 30
0.0
  0
LINE
  8
DAMAN
 10
16.1245
 20
4.0005
 30
0.0
 11
16.1245
 21
7.0005
 31
0.0
  0
INSERT
  8
DAMAN
  2
100CROSS
 10
15.812
 20
4.313
 30
0.0
 41
-0.34
 42
0.34
 50
270.0
 43
0.34
  0
POLYLINE
  8
DAMAN
 66
     1
 10
0.0
 20
0.0
 30
0.0
 70
   129
  0
VERTEX
  8
DAMAN
 10
15.5625
 20
4.456838
 30
0.0
  0
VERTEX
  8
DAMAN
 10
15.5625
 20
4.168162
 30
0.0
  0
VERTEX
  8
DAMAN
 10
15.8125
 20
4.023825
 30
0.0
  0
VERTEX
  8
DAMAN
 10
16.0625
 20
4.168162
 30
0.0
  0
VERTEX
  8
DAMAN
 10
16.0625
 20
4.456838
 30
0.0
  0
VERTEX
  8
DAMAN
 10
15.8125
 20
4.601175
 30
0.0
  0
SEQEND
  8
DAMAN
  0
CIRCLE
  8
DAMAN
 10
15.813
 20
4.313
 30
0.0
 40
0.249501
  0
LINE
  8
DAMAN
 10
15.6255
 20
6.688
 30
0.0
 11
15.055419
 21
6.688
 31
0.0
  0
INSERT
  8
DAMAN
  2
100CROSS
 10
15.812
 20
6.688
 30
0.0
 41
-0.34
 42
0.34
 50
270.0
 43
0.34
  0
POLYLINE
  8
DAMAN
 66
     1
 10
0.0
 20
0.0
 30
0.0
 70
   129
  0
VERTEX
  8
DAMAN
 10
15.5625
 20
6.831838
 30
0.0
  0
VERTEX
  8
DAMAN
 10
15.5625
 20
6.543162
 30
0.0
  0
VERTEX
  8
DAMAN
 10
15.8125
 20
6.398825
 30
0.0
  0
VERTEX
  8
DAMAN
 10
16.0625
 20
6.543162
 30
0.0
  0
VERTEX
  8
DAMAN
 10
16.0625
 20
6.831838
 30
0.0
  0
VERTEX
  8
DAMAN
 10
15.8125
 20
6.976175
 30
0.0
  0
SEQEND
  8
DAMAN
  0
CIRCLE
  8
DAMAN
 10
15.813
 20
6.688
 30
0.0
 40
0.249501
  0
LINE
  8
DAMAN
 10
15.5005
 20
6.438
 30
0.0
 11
15.5005
 21
6.938
 31
0.0
  0
ARC
  8
DAMAN
 10
15.401542
 20
6.471494
 30
0.0
 40
0.098958
 50
313.173551
 51
46.826449
  0
LINE
  8
DAMAN
 10
15.2505
 20
6.399325
 30
0.0
 11
15.46925
 21
6.399325
 31
0.0
  0
LINE
  8
DAMAN
 10
15.46925
 20
6.399325
 30
0.0
 11
15.5005
 21
6.438
 31
0.0
  0
LINE
  8
DAMAN
 10
16.1245
 20
7.0005
 30
0.0
 11
15.1245
 21
7.0005
 31
0.0
  0
LINE
  8
DAMAN
 10
15.2505
 20
6.832338
 30
0.0
 11
15.46925
 21
6.832338
 31
0.0
  0
LINE
  8
DAMAN
 10
15.46925
 20
6.543662
 30
0.0
 11
15.2505
 21
6.543662
 31
0.0
  0
LINE
  8
DAMAN
 10
15.46925
 20
6.976675
 30
0.0
 11
15.2505
 21
6.976675
 31
0.0
  0
ARC
  8
DAMAN
 10
15.151542
 20
6.688
 30
0.0
 40
0.348958
 50
335.567302
 51
24.432698
  0
ARC
  8
DAMAN
 10
15.401542
 20
6.904506
 30
0.0
 40
0.098958
 50
313.173551
 51
46.826449
  0
LINE
  8
DAMAN
 10
15.46925
 20
6.976675
 30
0.0
 11
15.5005
 21
6.938
 31
0.0
  0
LINE
  8
DAMAN
 10
15.6255
 20
4.313
 30
0.0
 11
15.055419
 21
4.313
 31
0.0
  0
LINE
  8
DAMAN
 10
15.5005
 20
4.063
 30
0.0
 11
15.5005
 21
4.563
 31
0.0
  0
ARC
  8
DAMAN
 10
15.401542
 20
4.529506
 30
0.0
 40
0.098958
 50
313.173551
 51
46.826449
  0
LINE
  8
DAMAN
 10
15.2505
 20
4.457338
 30
0.0
 11
15.46925
 21
4.457338
 31
0.0
  0
LINE
  8
DAMAN
 10
15.2505
 20
4.024325
 30
0.0
 11
15.46925
 21
4.024325
 31
0.0
  0
LINE
  8
DAMAN
 10
15.46925
 20
4.168662
 30
0.0
 11
15.2505
 21
4.168662
 31
0.0
  0
ARC
  8
DAMAN
 10
15.401542
 20
4.096494
 30
0.0
 40
0.098958
 50
313.173551
 51
46.826449
  0
LINE
  8
DAMAN
 10
15.46925
 20
4.024325
 30
0.0
 11
15.5005
 21
4.063
 31
0.0
  0
ARC
  8
DAMAN
 10
15.151542
 20
4.313
 30
0.0
 40
0.348958
 50
335.567302
 51
24.432698
  0
LINE
  8
DAMAN
 10
15.46925
 20
4.601675
 30
0.0
 11
15.2505
 21
4.601675
 31
0.0
  0
LINE
  8
DAMAN
 10
15.46925
 20
4.601675
 30
0.0
 11
15.5005
 21
4.563
 31
0.0
  0
LINE
  8
DAMAN
 10
15.2445
 20
7.0005
 30
0.0
 11
15.2445
 21
4.0005
 31
0.0
  0
LINE
  8
DAMAN
 10
15.1245
 20
4.0005
 30
0.0
 11
16.1245
 21
4.0005
 31
0.0
  0
LINE
  8
DAMAN
 10
4.8805
 20
7.0005
 30
0.0
 11
4.8805
 21
4.0005
 31
0.0
  0
ARC
  8
DAMAN
 10
4.973458
 20
4.313
 30
0.0
 40
0.348958
 50
155.567302
 51
204.432698
  0
LINE
  8
DAMAN
 10
4.6245
 20
4.063
 30
0.0
 11
4.6245
 21
4.563
 31
0.0
  0
CIRCLE
  8
DAMAN
 10
4.312
 20
4.313
 30
0.0
 40
0.249501
  0
POLYLINE
  8
DAMAN
 66
     1
 10
0.0
 20
0.0
 30
0.0
 70
   129
  0
VERTEX
  8
DAMAN
 10
4.5625
 20
4.456838
 30
0.0
  0
VERTEX
  8
DAMAN
 10
4.5625
 20
4.168162
 30
0.0
  0
VERTEX
  8
DAMAN
 10
4.3125
 20
4.023825
 30
0.0
  0
VERTEX
  8
DAMAN
 10
4.0625
 20
4.168162
 30
0.0
  0
VERTEX
  8
DAMAN
 10
4.0625
 20
4.456838
 30
0.0
  0
VERTEX
  8
DAMAN
 10
4.3125
 20
4.601175
 30
0.0
  0
SEQEND
  8
DAMAN
  0
INSERT
  8
DAMAN
  2
100CROSS
 10
4.313
 20
4.313
 30
0.0
 41
0.34
 42
0.34
 50
90.0
 43
0.34
  0
LINE
  8
DAMAN
 10
4.0005
 20
4.0005
 30
0.0
 11
4.0005
 21
7.0005
 31
0.0
  0
LINE
  8
DAMAN
 10
4.4995
 20
4.313
 30
0.0
 11
5.069581
 21
4.313
 31
0.0
  0
LINE
  8
DAMAN
 10
5.0005
 20
4.0005
 30
0.0
 11
4.0005
 21
4.0005
 31
0.0
  0
ARC
  8
DAMAN
 10
4.723458
 20
4.096494
 30
0.0
 40
0.098958
 50
133.173551
 51
226.826449
  0
LINE
  8
DAMAN
 10
4.8745
 20
4.024325
 30
0.0
 11
4.65575
 21
4.024325
 31
0.0
  0
LINE
  8
DAMAN
 10
4.65575
 20
4.024325
 30
0.0
 11
4.6245
 21
4.063
 31
0.0
  0
LINE
  8
DAMAN
 10
4.65575
 20
4.168662
 30
0.0
 11
4.8745
 21
4.168662
 31
0.0
  0
LINE
  8
DAMAN
 10
4.65575
 20
4.601675
 30
0.0
 11
4.8745
 21
4.601675
 31
0.0
  0
LINE
  8
DAMAN
 10
4.8745
 20
4.457338
 30
0.0
 11
4.65575
 21
4.457338
 31
0.0
  0
LINE
  8
DAMAN
 10
4.65575
 20
4.601675
 30
0.0
 11
4.6245
 21
4.563
 31
0.0
  0
ARC
  8
DAMAN
 10
4.723458
 20
4.529506
 30
0.0
 40
0.098958
 50
133.173551
 51
226.826449
  0
LINE
  8
DAMAN
 10
4.4995
 20
6.688
 30
0.0
 11
5.069581
 21
6.688
 31
0.0
  0
LINE
  8
DAMAN
 10
4.0005
 20
7.0005
 30
0.0
 11
5.0005
 21
7.0005
 31
0.0
  0
ARC
  8
DAMAN
 10
4.973458
 20
6.688
 30
0.0
 40
0.348958
 50
155.567302
 51
204.432698
  0
LINE
  8
DAMAN
 10
4.6245
 20
6.438
 30
0.0
 11
4.6245
 21
6.938
 31
0.0
  0
CIRCLE
  8
DAMAN
 10
4.312
 20
6.688
 30
0.0
 40
0.249501
  0
POLYLINE
  8
DAMAN
 66
     1
 10
0.0
 20
0.0
 30
0.0
 70
   129
  0
VERTEX
  8
DAMAN
 10
4.5625
 20
6.831838
 30
0.0
  0
VERTEX
  8
DAMAN
 10
4.5625
 20
6.543162
 30
0.0
  0
VERTEX
  8
DAMAN
 10
4.3125
 20
6.398825
 30
0.0
  0
VERTEX
  8
DAMAN
 10
4.0625
 20
6.543162
 30
0.0
  0
VERTEX
  8
DAMAN
 10
4.0625
 20
6.831838
 30
0.0
  0
VERTEX
  8
DAMAN
 10
4.3125
 20
6.976175
 30
0.0
  0
SEQEND
  8
DAMAN
  0
INSERT
  8
DAMAN
  2
100CROSS
 10
4.313
 20
6.688
 30
0.0
 41
0.34
 42
0.34
 50
90.0
 43
0.34
  0
LINE
  8
DAMAN
 10
4.65575
 20
6.543662
 30
0.0
 11
4.8745
 21
6.543662
 31
0.0
  0
LINE
  8
DAMAN
 10
4.8745
 20
6.399325
 30
0.0
 11
4.65575
 21
6.399325
 31
0.0
  0
LINE
  8
DAMAN
 10
4.65575
 20
6.399325
 30
0.0
 11
4.6245
 21
6.438
 31
0.0
  0
ARC
  8
DAMAN
 10
4.723458
 20
6.471494
 30
0.0
 40
0.098958
 50
133.173551
 51
226.826449
  0
ARC
  8
DAMAN
 10
4.723458
 20
6.904506
 30
0.0
 40
0.098958
 50
133.173551
 51
226.826449
  0
LINE
  8
DAMAN
 10
4.8745
 20
6.832338
 30
0.0
 11
4.65575
 21
6.832338
 31
0.0
  0
LINE
  8
DAMAN
 10
4.65575
 20
6.976675
 30
0.0
 11
4.8745
 21
6.976675
 31
0.0
  0
LINE
  8
DAMAN
 10
4.65575
 20
6.976675
 30
0.0
 11
4.6245
 21
6.938
 31
0.0
  0
INSERT
  8
DAMAN
  2
300MKS
 10
5.0
 20
0.0
 30
0.0
  0
INSERT
  8
DAMAN
  2
300MKS
 10
15.125
 20
0.0
 30
0.0
 41
-1.0
  0
TEXT
  8
DAMAN
 10
6.701777
 20
2.741879
 30
0.0
 40
0.188
  1
B
  0
TEXT
  8
DAMAN
 10
6.701777
 20
0.96069
 30
0.0
 40
0.188
  1
A
  0
TEXT
  8
DAMAN
 10
2.104426
 20
6.820938
 30
0.0
 40
0.188
  1
T
 50
270.0
  0
TEXT
  8
DAMAN
 10
2.145231
 20
4.291922
 30
0.0
 40
0.188
  1
P
 50
270.0
  0
TEXT
  8
DAMAN
 10
17.952566
 20
4.183147
 30
0.0
 40
0.188
  1
P
 50
90.0
  0
TEXT
  8
DAMAN
 10
17.952566
 20
6.671373
 30
0.0
 40
0.188
  1
T
 50
90.0
  0
INSERT
  8
DAMAN
  2
08SAET
 10
14.0625
 20
2.375
 30
0.0
  0
INSERT
  8
DAMAN
  2
D03
 10
13.453
 20
6.0
 30
0.0
  0
TEXT
  8
DAMAN
 10
14.701777
 20
0.96069
 30
0.0
 40
0.188
  1
A
  0
TEXT
  8
DAMAN
 10
14.701777
 20
2.741879
 30
0.0
 40
0.188
  1
B
  0
INSERT
  8
DAMAN
  2
08SAET
 10
14.0625
 20
0.625
 30
0.0
  0
INSERT
  8
DAMAN
  2
06SAET
 10
7.125
 20
1.5
 30
0.0
  0
TEXT
  8
DAMAN
 10
7.327452
 20
1.966858
 30
0.0
 40
0.188
  1
GA
  0
INSERT
  8
DAMAN
  2
D03
 10
9.453
 20
6.0
 30
0.0
  0
INSERT
  8
DAMAN
  2
08SAET
 10
10.0625
 20
2.375
 30
0.0
  0
TEXT
  8
DAMAN
 10
10.701777
 20
2.741879
 30
0.0
 40
0.188
  1
B
  0
INSERT
  8
DAMAN
  2
08SAET
 10
10.0625
 20
0.625
 30
0.0
  0
TEXT
  8
DAMAN
 10
10.701777
 20
0.96069
 30
0.0
 40
0.188
  1
A
  0
ENDBLK
  8
0
  0
BLOCK
  8
0
  2
300MKT
 70
    64
 10
0.0
 20
0.0
 30
0.0
  3
300MKT
  0
LINE
  8
DAMAN
 10
0.6245
 20
0.0005
 30
0.0
 11
0.6245
 21
3.0005
 31
0.0
  0
INSERT
  8
DAMAN
  2
100CROSS
 10
0.312
 20
0.313
 30
0.0
 41
-0.34
 42
0.34
 50
270.0
 43
0.34
  0
POLYLINE
  8
DAMAN
 66
     1
 10
0.0
 20
0.0
 30
0.0
 70
   129
  0
VERTEX
  8
DAMAN
 10
0.0625
 20
0.456838
 30
0.0
  0
VERTEX
  8
DAMAN
 10
0.0625
 20
0.168162
 30
0.0
  0
VERTEX
  8
DAMAN
 10
0.3125
 20
0.023825
 30
0.0
  0
VERTEX
  8
DAMAN
 10
0.5625
 20
0.168162
 30
0.0
  0
VERTEX
  8
DAMAN
 10
0.5625
 20
0.456838
 30
0.0
  0
VERTEX
  8
DAMAN
 10
0.3125
 20
0.601175
 30
0.0
  0
SEQEND
  8
DAMAN
  0
CIRCLE
  8
DAMAN
 10
0.313
 20
0.313
 30
0.0
 40
0.249501
  0
LINE
  8
DAMAN
 10
-0.84325
 20
2.53175
 30
0.0
 11
-0.3745
 21
2.53175
 31
0.0
  0
LINE
  8
DAMAN
 10
-0.3745
 20
2.84425
 30
0.0
 11
-0.84325
 21
2.84425
 31
0.0
  0
LINE
  8
DAMAN
  6
HIDDEN
 10
-0.8745
 20
2.813
 30
0.0
 11
-0.3745
 21
2.813
 31
0.0
  0
LINE
  8
DAMAN
  6
HIDDEN
 10
-0.3745
 20
2.563
 30
0.0
 11
-0.8745
 21
2.563
 31
0.0
  0
LINE
  8
DAMAN
 10
0.1255
 20
2.688
 30
0.0
 11
-1.03075
 21
2.688
 31
0.0
  0
LINE
  8
DAMAN
 10
-0.84325
 20
2.84425
 30
0.0
 11
-0.84325
 21
2.53175
 31
0.0
  0
LINE
  8
DAMAN
 10
-0.84325
 20
2.84425
 30
0.0
 11
-0.8745
 21
2.813
 31
0.0
  0
LINE
  8
DAMAN
 10
-0.8745
 20
2.563
 30
0.0
 11
-0.84325
 21
2.53175
 31
0.0
  0
LINE
  8
DAMAN
 10
-0.8745
 20
2.813
 30
0.0
 11
-0.8745
 21
2.563
 31
0.0
  0
INSERT
  8
DAMAN
  2
100CROSS
 10
0.312
 20
2.688
 30
0.0
 41
-0.34
 42
0.34
 50
270.0
 43
0.34
  0
POLYLINE
  8
DAMAN
 66
     1
 10
0.0
 20
0.0
 30
0.0
 70
   129
  0
VERTEX
  8
DAMAN
 10
0.0625
 20
2.831838
 30
0.0
  0
VERTEX
  8
DAMAN
 10
0.0625
 20
2.543162
 30
0.0
  0
VERTEX
  8
DAMAN
 10
0.3125
 20
2.398825
 30
0.0
  0
VERTEX
  8
DAMAN
 10
0.5625
 20
2.543162
 30
0.0
  0
VERTEX
  8
DAMAN
 10
0.5625
 20
2.831838
 30
0.0
  0
VERTEX
  8
DAMAN
 10
0.3125
 20
2.976175
 30
0.0
  0
SEQEND
  8
DAMAN
  0
CIRCLE
  8
DAMAN
 10
0.313
 20
2.688
 30
0.0
 40
0.249501
  0
LINE
  8
DAMAN
 10
0.0005
 20
2.438
 30
0.0
 11
0.0005
 21
2.938
 31
0.0
  0
ARC
  8
DAMAN
 10
-0.098458
 20
2.471494
 30
0.0
 40
0.098958
 50
313.173551
 51
46.826449
  0
LINE
  8
DAMAN
 10
-0.2495
 20
2.399325
 30
0.0
 11
-0.03075
 21
2.399325
 31
0.0
  0
LINE
  8
DAMAN
 10
-0.03075
 20
2.399325
 30
0.0
 11
0.0005
 21
2.438
 31
0.0
  0
LINE
  8
DAMAN
 10
0.6245
 20
3.0005
 30
0.0
 11
-0.3755
 21
3.0005
 31
0.0
  0
LINE
  8
DAMAN
 10
-0.2495
 20
2.832338
 30
0.0
 11
-0.03075
 21
2.832338
 31
0.0
  0
LINE
  8
DAMAN
 10
-0.03075
 20
2.543662
 30
0.0
 11
-0.2495
 21
2.543662
 31
0.0
  0
LINE
  8
DAMAN
 10
-0.03075
 20
2.976675
 30
0.0
 11
-0.2495
 21
2.976675
 31
0.0
  0
ARC
  8
DAMAN
 10
-0.348458
 20
2.688
 30
0.0
 40
0.348958
 50
335.567302
 51
24.432698
  0
ARC
  8
DAMAN
 10
-0.098458
 20
2.904506
 30
0.0
 40
0.098958
 50
313.173551
 51
46.826449
  0
LINE
  8
DAMAN
 10
-0.03075
 20
2.976675
 30
0.0
 11
0.0005
 21
2.938
 31
0.0
  0
LINE
  8
DAMAN
 10
-0.3745
 20
0.46925
 30
0.0
 11
-0.84325
 21
0.46925
 31
0.0
  0
LINE
  8
DAMAN
  6
HIDDEN
 10
-0.8745
 20
0.438
 30
0.0
 11
-0.3745
 21
0.438
 31
0.0
  0
LINE
  8
DAMAN
 10
-0.84325
 20
0.15675
 30
0.0
 11
-0.3745
 21
0.15675
 31
0.0
  0
LINE
  8
DAMAN
  6
HIDDEN
 10
-0.3745
 20
0.188
 30
0.0
 11
-0.8745
 21
0.188
 31
0.0
  0
LINE
  8
DAMAN
 10
0.1255
 20
0.313
 30
0.0
 11
-1.03075
 21
0.313
 31
0.0
  0
LINE
  8
DAMAN
 10
-0.84325
 20
0.46925
 30
0.0
 11
-0.84325
 21
0.15675
 31
0.0
  0
LINE
  8
DAMAN
 10
-0.8745
 20
0.188
 30
0.0
 11
-0.84325
 21
0.15675
 31
0.0
  0
LINE
  8
DAMAN
 10
-0.8745
 20
0.438
 30
0.0
 11
-0.8745
 21
0.188
 31
0.0
  0
LINE
  8
DAMAN
 10
-0.84325
 20
0.46925
 30
0.0
 11
-0.8745
 21
0.438
 31
0.0
  0
LINE
  8
DAMAN
 10
0.0005
 20
0.063
 30
0.0
 11
0.0005
 21
0.563
 31
0.0
  0
ARC
  8
DAMAN
 10
-0.098458
 20
0.529506
 30
0.0
 40
0.098958
 50
313.173551
 51
46.826449
  0
LINE
  8
DAMAN
 10
-0.2495
 20
0.457338
 30
0.0
 11
-0.03075
 21
0.457338
 31
0.0
  0
LINE
  8
DAMAN
 10
-0.2495
 20
0.024325
 30
0.0
 11
-0.03075
 21
0.024325
 31
0.0
  0
LINE
  8
DAMAN
 10
-0.03075
 20
0.168662
 30
0.0
 11
-0.2495
 21
0.168662
 31
0.0
  0
ARC
  8
DAMAN
 10
-0.098458
 20
0.096494
 30
0.0
 40
0.098958
 50
313.173551
 51
46.826449
  0
LINE
  8
DAMAN
 10
-0.03075
 20
0.024325
 30
0.0
 11
0.0005
 21
0.063
 31
0.0
  0
ARC
  8
DAMAN
 10
-0.348458
 20
0.313
 30
0.0
 40
0.348958
 50
335.567302
 51
24.432698
  0
LINE
  8
DAMAN
 10
-0.03075
 20
0.601675
 30
0.0
 11
-0.2495
 21
0.601675
 31
0.0
  0
LINE
  8
DAMAN
 10
-0.03075
 20
0.601675
 30
0.0
 11
0.0005
 21
0.563
 31
0.0
  0
LINE
  8
DAMAN
 10
-0.2555
 20
3.0005
 30
0.0
 11
-0.2555
 21
0.0005
 31
0.0
  0
LINE
  8
DAMAN
 10
-0.3755
 20
3.0005
 30
0.0
 11
-0.3755
 21
0.0005
 31
0.0
  0
LINE
  8
DAMAN
 10
-0.3755
 20
0.0005
 30
0.0
 11
0.6245
 21
0.0005
 31
0.0
  0
ENDBLK
  8
0
  0
BLOCK
  8
0
  2
D03
 70
    64
 10
0.0
 20
0.0
 30
0.0
  3
D03
  0
INSERT
  8
DAMAN
  2
100CROSS
 10
0.61
 20
-1.1875
 30
0.0
 41
0.25
 42
0.25
 43
0.0
  0
INSERT
  8
DAMAN
  2
100CROSS
 10
0.61
 20
-0.5
 30
0.0
 41
0.25
 42
0.25
 43
0.0
  0
CIRCLE
  8
DAMAN
 10
0.61
 20
-0.5
 30
0.0
 40
0.141125
  0
CIRCLE
  8
DAMAN
 10
0.61
 20
-1.1875
 30
0.0
 40
0.141125
  0
INSERT
  8
DAMAN
  2
100CROSS
 10
0.2035
 20
-0.844
 30
0.0
 41
0.25
 42
0.25
 43
0.0
  0
CIRCLE
  8
DAMAN
 10
0.2035
 20
-0.844
 30
0.0
 40
0.141375
  0
INSERT
  8
DAMAN
  2
100CROSS
 10
-0.03
 20
-1.3
 30
0.0
 41
0.171
 42
0.171
 43
0.0
  0
INSERT
  8
DAMAN
  2
100CROSS
 10
-0.03
 20
-1.594
 30
0.0
 41
0.188
 42
0.188
 43
0.0
  0
CIRCLE
  8
DAMAN
  6
HIDDEN
 10
-0.03
 20
-1.594
 30
0.0
 40
0.095
  0
CIRCLE
  8
DAMAN
 10
-0.03
 20
-1.59375
 30
0.0
 40
0.078
  0
CIRCLE
  8
DAMAN
 10
-0.03
 20
-1.3
 30
0.0
 40
0.0855
  0
POINT
  8
DAMAN
  6
BYBLOCK
 62
     0
 10
0.20425
 20
-0.75
 30
0.0
  0
POINT
  8
DAMAN
  6
BYBLOCK
 62
     0
 10
0.20425
 20
-0.75
 30
0.0
  0
INSERT
  8
DAMAN
  2
100CROSS
 10
0.0
 20
0.0
 30
0.0
 41
0.188
 42
0.188
 43
0.0
  0
CIRCLE
  8
DAMAN
 10
0.0
 20
0.0
 30
0.0
 40
0.078
  0
CIRCLE
  8
DAMAN
  6
HIDDEN
 10
0.0
 20
0.0
 30
0.0
 40
0.095
  0
INSERT
  8
DAMAN
  2
100CROSS
 10
1.016
 20
-0.844
 30
0.0
 41
0.25
 42
0.25
 43
0.0
  0
CIRCLE
  8
DAMAN
 10
1.016
 20
-0.844
 30
0.0
 40
0.141375
  0
INSERT
  8
DAMAN
  2
100CROSS
 10
1.25
 20
-1.594
 30
0.0
 41
0.188
 42
0.188
 43
0.0
  0
CIRCLE
  8
DAMAN
  6
HIDDEN
 10
1.25
 20
-1.594
 30
0.0
 40
0.095
  0
CIRCLE
  8
DAMAN
 10
1.25
 20
-1.59375
 30
0.0
 40
0.078
  0
CIRCLE
  8
DAMAN
 10
1.22
 20
0.0
 30
0.0
 40
0.078
  0
INSERT
  8
DAMAN
  2
100CROSS
 10
1.22
 20
0.0
 30
0.0
 41
0.188
 42
0.188
 43
0.0
  0
CIRCLE
  8
DAMAN
  6
HIDDEN
 10
1.22
 20
0.0
 30
0.0
 40
0.095
  0
ENDBLK
  8
0
  0
BLOCK
  8
0
  2
10SAET
 70
    64
 10
0.0
 20
0.0
 30
0.0
  3
10SAET
  0
CIRCLE
  8
DAMAN
 10
0.0
 20
0.0
 30
0.0
 40
0.344
  0
INSERT
  8
DAMAN
  2
100CROSS
 10
0.0
 20
0.0
 30
0.0
 41
1.2
 42
1.2
 43
0.0
  0
CIRCLE
  8
DAMAN
 10
0.0
 20
0.0
 30
0.0
 40
0.6875
  0
CIRCLE
  8
DAMAN
  6
HIDDEN
 10
0.0
 20
0.0
 30
0.0
 40
0.406
  0
CIRCLE
  8
DAMAN
 10
0.0
 20
0.0
 30
0.0
 40
0.4375
  0
ENDBLK
  8
0
  0
BLOCK
  8
0
  2
08SAET
 70
    64
 10
0.0
 20
0.0
 30
0.0
  3
08SAET
  0
CIRCLE
  8
DAMAN
 10
0.0
 20
0.0
 30
0.0
 40
0.375
  0
CIRCLE
  8
DAMAN
 10
0.0
 20
0.0
 30
0.0
 40
0.3125
  0
CIRCLE
  8
DAMAN
  6
HIDDEN
 10
0.0
 20
0.0
 30
0.0
 40
0.344
  0
INSERT
  8
DAMAN
  2
100CROSS
 10
0.0
 20
0.0
 30
0.0
 41
0.88
 42
0.88
  0
CIRCLE
  8
DAMAN
 10
0.0
 20
0.0
 30
0.0
 40
0.594
  0
ENDBLK
  8
0
  0
BLOCK
  8
0
  2
300MKS
 70
    64
 10
0.0
 20
0.0
 30
0.0
  3
300MKS
  0
LINE
  8
DAMAN
 10
-1.0
 20
-0.375
 30
0.0
 11
-0.25
 21
-0.375
 31
0.0
  0
LINE
  8
DAMAN
 10
-0.25
 20
-0.25
 30
0.0
 11
-1.0
 21
-0.25
 31
0.0
  0
LINE
  8
DAMAN
 10
-0.84375
 20
-0.84375
 30
0.0
 11
-0.53125
 21
-0.84375
 31
0.0
  0
LINE
  8
DAMAN
 10
-0.8125
 20
-0.875
 30
0.0
 11
-0.5625
 21
-0.875
 31
0.0
  0
LINE
  8
DAMAN
 10
-0.4375
 20
0.0
 30
0.0
 11
-0.9375
 21
0.0
 31
0.0
  0
ARC
  8
DAMAN
 10
-0.6875
 20
-0.348958
 30
0.0
 40
0.348958
 50
65.567302
 51
114.432698
  0
LINE
  8
DAMAN
 10
-0.6875
 20
0.125
 30
0.0
 11
-0.6875
 21
-1.03125
 31
0.0
  0
LINE
  8
DAMAN
  6
HIDDEN
 10
-0.8125
 20
-0.875
 30
0.0
 11
-0.8125
 21
-0.375
 31
0.0
  0
LINE
  8
DAMAN
 10
-0.84375
 20
-0.375
 30
0.0
 11
-0.84375
 21
-0.84375
 31
0.0
  0
LINE
  8
DAMAN
 10
-0.84375
 20
-0.84375
 30
0.0
 11
-0.8125
 21
-0.875
 31
0.0
  0
LINE
  8
DAMAN
 10
-1.0
 20
-0.25
 30
0.0
 11
-1.0
 21
-0.375
 31
0.0
  0
ARC
  8
DAMAN
 10
-0.904006
 20
-0.098958
 30
0.0
 40
0.098958
 50
43.173551
 51
136.826449
  0
LINE
  8
DAMAN
 10
-0.976175
 20
-0.03125
 30
0.0
 11
-0.976175
 21
-0.25
 31
0.0
  0
LINE
  8
DAMAN
 10
-0.976175
 20
-0.03125
 30
0.0
 11
-0.9375
 21
0.0
 31
0.0
  0
LINE
  8
DAMAN
 10
-0.831838
 20
-0.25
 30
0.0
 11
-0.831838
 21
-0.03125
 31
0.0
  0
LINE
  8
DAMAN
 10
0.0
 20
-0.125
 30
0.0
 11
0.0
 21
0.625
 31
0.0
  0
LINE
  8
DAMAN
 10
-0.125
 20
0.625
 30
0.0
 11
-0.125
 21
-0.125
 31
0.0
  0
LINE
  8
DAMAN
  6
HIDDEN
 10
-0.5625
 20
-0.375
 30
0.0
 11
-0.5625
 21
-0.875
 31
0.0
  0
LINE
  8
DAMAN
 10
-0.53125
 20
-0.84375
 30
0.0
 11
-0.53125
 21
-0.375
 31
0.0
  0
LINE
  8
DAMAN
 10
-0.5625
 20
-0.875
 30
0.0
 11
-0.53125
 21
-0.84375
 31
0.0
  0
ARC
  8
DAMAN
 10
-0.25
 20
-0.125
 30
0.0
 40
0.25
 50
270.0
 51
0.0
  0
ARC
  8
DAMAN
 10
-0.25
 20
-0.125
 30
0.0
 40
0.125
 50
270.0
 51
0.0
  0
LINE
  8
DAMAN
 10
-0.543162
 20
-0.03125
 30
0.0
 11
-0.543162
 21
-0.25
 31
0.0
  0
LINE
  8
DAMAN
 10
-0.398825
 20
-0.25
 30
0.0
 11
-0.398825
 21
-0.03125
 31
0.0
  0
ARC
  8
DAMAN
 10
-0.470994
 20
-0.098958
 30
0.0
 40
0.098958
 50
43.173551
 51
136.826449
  0
LINE
  8
DAMAN
 10
-0.398825
 20
-0.03125
 30
0.0
 11
-0.4375
 21
0.0
 31
0.0
  0
LINE
  8
DAMAN
 10
-0.125
 20
0.168162
 30
0.0
 11
-0.34375
 21
0.168162
 31
0.0
  0
LINE
  8
DAMAN
 10
-0.34375
 20
0.023825
 30
0.0
 11
-0.125
 21
0.023825
 31
0.0
  0
LINE
  8
DAMAN
 10
-0.34375
 20
0.456838
 30
0.0
 11
-0.125
 21
0.456838
 31
0.0
  0
LINE
  8
DAMAN
 10
-0.125
 20
0.601175
 30
0.0
 11
-0.34375
 21
0.601175
 31
0.0
  0
ARC
  8
DAMAN
 10
-0.026042
 20
0.3125
 30
0.0
 40
0.348958
 50
155.567302
 51
204.432698
  0
LINE
  8
DAMAN
 10
-0.375
 20
0.5625
 30
0.0
 11
-0.375
 21
0.0625
 31
0.0
  0
LINE
  8
DAMAN
 10
-0.34375
 20
0.023825
 30
0.0
 11
-0.375
 21
0.0625
 31
0.0
  0
ARC
  8
DAMAN
 10
-0.276042
 20
0.095994
 30
0.0
 40
0.098958
 50
133.173551
 51
226.826449
  0
LINE
  8
DAMAN
 10
-0.34375
 20
0.601175
 30
0.0
 11
-0.375
 21
0.5625
 31
0.0
  0
ARC
  8
DAMAN
 10
-0.276042
 20
0.529006
 30
0.0
 40
0.098958
 50
133.173551
 51
226.826449
  0
LINE
  8
DAMAN
 10
0.0
 20
0.625
 30
0.0
 11
-0.125
 21
0.625
 31
0.0
  0
LINE
  8
DAMAN
 10
-0.5
 20
0.3125
 30
0.0
 11
0.375
 21
0.3125
 31
0.0
  0
ENDBLK
  8
0
  0
BLOCK
  8
0
  2
06SAET
 70
    64
 10
0.0
 20
0.0
 30
0.0
  3
06SAET
  0
INSERT
  8
DAMAN
  2
100CROSS
 10
0.0
 20
0.0
 30
0.0
 43
0.0
  0
CIRCLE
  8
DAMAN
 10
0.0
 20
0.0
 30
0.0
 40
0.28125
  0
CIRCLE
  8
DAMAN
 10
0.0
 20
0.0
 30
0.0
 40
0.5
  0
CIRCLE
  8
DAMAN
 10
0.0
 20
0.0
 30
0.0
 40
0.25
  0
ENDBLK
  8
0
  0
BLOCK
  8
0
  2
MABL
 70
     0
 10
0.0
 20
0.0
 30
0.0
  3
MABL
  0
LINE
  8
DAMAN
 10
0.0
 20
7.0
 30
0.0
 11
3.0
 21
7.0
 31
0.0
  0
LINE
  8
DAMAN
 10
3.0
 20
7.0
 30
0.0
 11
3.0
 21
4.0
 31
0.0
  0
LINE
  8
DAMAN
 10
3.0
 20
4.0
 30
0.0
 11
0.0
 21
4.0
 31
0.0
  0
LINE
  8
DAMAN
  6
HIDDEN
 10
0.0
 20
4.0
 30
0.0
 11
0.0
 21
7.0
 31
0.0
  0
LINE
  8
DAMAN
 10
5.0
 20
7.0
 30
0.0
 11
5.0
 21
4.0
 31
0.0
  0
LINE
  8
DAMAN
 10
5.0
 20
4.0
 30
0.0
 11
11.125
 21
4.0
 31
0.0
  0
LINE
  8
DAMAN
 10
11.125
 20
4.0
 30
0.0
 11
11.125
 21
7.0
 31
0.0
  0
LINE
  8
DAMAN
 10
11.125
 20
7.0
 30
0.0
 11
5.0
 21
7.0
 31
0.0
  0
LINE
  8
DAMAN
 10
13.125
 20
7.0
 30
0.0
 11
13.125
 21
4.0
 31
0.0
  0
LINE
  8
DAMAN
 10
13.125
 20
4.0
 30
0.0
 11
16.125
 21
4.0
 31
0.0
  0
LINE
  8
DAMAN
 10
16.125
 20
7.0
 30
0.0
 11
13.125
 21
7.0
 31
0.0
  0
LINE
  8
DAMAN
 10
5.0
 20
3.0
 30
0.0
 11
11.125
 21
3.0
 31
0.0
  0
LINE
  8
DAMAN
 10
11.125
 20
3.0
 30
0.0
 11
11.125
 21
0.0
 31
0.0
  0
LINE
  8
DAMAN
 10
11.125
 20
0.0
 30
0.0
 11
5.0
 21
0.0
 31
0.0
  0
LINE
  8
DAMAN
 10
5.0
 20
0.0
 30
0.0
 11
5.0
 21
3.0
 31
0.0
  0
INSERT
  8
DAMAN
  2
300MKT
 10
0.0
 20
4.0
 30
0.0
  0
LINE
  8
DAMAN
  6
HIDDEN
 10
16.125
 20
4.0
 30
0.0
 11
16.125
 21
7.0
 31
0.0
  0
INSERT
  8
DAMAN
  2
300MKT
 10
16.125
 20
4.0
 30
0.0
 41
-1.0
  0
INSERT
  8
DAMAN
  2
D03
 10
5.453
 20
6.0
 30
0.0
  0
INSERT
  8
DAMAN
  2
10SAET
 10
1.5
 20
6.1875
 30
0.0
  0
INSERT
  8
DAMAN
  2
10SAET
 10
1.5
 20
4.8125
 30
0.0
  0
INSERT
  8
DAMAN
  2
10SAET
 10
14.625
 20
6.1875
 30
0.0
 41
-1.0
  0
INSERT
  8
DAMAN
  2
10SAET
 10
14.625
 20
4.8125
 30
0.0
 41
-1.0
  0
INSERT
  8
DAMAN
  2
08SAET
 10
6.0625
 20
0.625
 30
0.0
  0
INSERT
  8
DAMAN
  2
08SAET
 10
6.0625
 20
2.375
 30
0.0
  0
LINE
  8
DAMAN
 10
12.1245
 20
4.0005
 30
0.0
 11
12.1245
 21
7.0005
 31
0.0
  0
INSERT
  8
DAMAN
  2
100CROSS
 10
11.812
 20
4.313
 30
0.0
 41
-0.34
 42
0.34
 50
270.0
 43
0.34
  0
POLYLINE
  8
DAMAN
 66
     1
 10
0.0
 20
0.0
 30
0.0
 70
   129
  0
VERTEX
  8
DAMAN
 10
11.5625
 20
4.456838
 30
0.0
  0
VERTEX
  8
DAMAN
 10
11.5625
 20
4.168162
 30
0.0
  0
VERTEX
  8
DAMAN
 10
11.8125
 20
4.023825
 30
0.0
  0
VERTEX
  8
DAMAN
 10
12.0625
 20
4.168162
 30
0.0
  0
VERTEX
  8
DAMAN
 10
12.0625
 20
4.456838
 30
0.0
  0
VERTEX
  8
DAMAN
 10
11.8125
 20
4.601175
 30
0.0
  0
SEQEND
  8
DAMAN
  0
CIRCLE
  8
DAMAN
 10
11.813
 20
4.313
 30
0.0
 40
0.249501
  0
LINE
  8
DAMAN
 10
11.6255
 20
6.688
 30
0.0
 11
11.055419
 21
6.688
 31
0.0
  0
INSERT
  8
DAMAN
  2
100CROSS
 10
11.812
 20
6.688
 30
0.0
 41
-0.34
 42
0.34
 50
270.0
 43
0.34
  0
POLYLINE
  8
DAMAN
 66
     1
 10
0.0
 20
0.0
 30
0.0
 70
   129
  0
VERTEX
  8
DAMAN
 10
11.5625
 20
6.831838
 30
0.0
  0
VERTEX
  8
DAMAN
 10
11.5625
 20
6.543162
 30
0.0
  0
VERTEX
  8
DAMAN
 10
11.8125
 20
6.398825
 30
0.0
  0
VERTEX
  8
DAMAN
 10
12.0625
 20
6.543162
 30
0.0
  0
VERTEX
  8
DAMAN
 10
12.0625
 20
6.831838
 30
0.0
  0
VERTEX
  8
DAMAN
 10
11.8125
 20
6.976175
 30
0.0
  0
SEQEND
  8
DAMAN
  0
CIRCLE
  8
DAMAN
 10
11.813
 20
6.688
 30
0.0
 40
0.249501
  0
LINE
  8
DAMAN
 10
11.5005
 20
6.438
 30
0.0
 11
11.5005
 21
6.938
 31
0.0
  0
ARC
  8
DAMAN
 10
11.401542
 20
6.471494
 30
0.0
 40
0.098958
 50
313.173551
 51
46.826449
  0
LINE
  8
DAMAN
 10
11.2505
 20
6.399325
 30
0.0
 11
11.46925
 21
6.399325
 31
0.0
  0
LINE
  8
DAMAN
 10
11.46925
 20
6.399325
 30
0.0
 11
11.5005
 21
6.438
 31
0.0
  0
LINE
  8
DAMAN
 10
12.1245
 20
7.0005
 30
0.0
 11
11.1245
 21
7.0005
 31
0.0
  0
LINE
  8
DAMAN
 10
11.2505
 20
6.832338
 30
0.0
 11
11.46925
 21
6.832338
 31
0.0
  0
LINE
  8
DAMAN
 10
11.46925
 20
6.543662
 30
0.0
 11
11.2505
 21
6.543662
 31
0.0
  0
LINE
  8
DAMAN
 10
11.46925
 20
6.976675
 30
0.0
 11
11.2505
 21
6.976675
 31
0.0
  0
ARC
  8
DAMAN
 10
11.151542
 20
6.688
 30
0.0
 40
0.348958
 50
335.567302
 51
24.432698
  0
ARC
  8
DAMAN
 10
11.401542
 20
6.904506
 30
0.0
 40
0.098958
 50
313.173551
 51
46.826449
  0
LINE
  8
DAMAN
 10
11.46925
 20
6.976675
 30
0.0
 11
11.5005
 21
6.938
 31
0.0
  0
LINE
  8
DAMAN
 10
11.6255
 20
4.313
 30
0.0
 11
11.055419
 21
4.313
 31
0.0
  0
LINE
  8
DAMAN
 10
11.5005
 20
4.063
 30
0.0
 11
11.5005
 21
4.563
 31
0.0
  0
ARC
  8
DAMAN
 10
11.401542
 20
4.529506
 30
0.0
 40
0.098958
 50
313.173551
 51
46.826449
  0
LINE
  8
DAMAN
 10
11.2505
 20
4.457338
 30
0.0
 11
11.46925
 21
4.457338
 31
0.0
  0
LINE
  8
DAMAN
 10
11.2505
 20
4.024325
 30
0.0
 11
11.46925
 21
4.024325
 31
0.0
  0
LINE
  8
DAMAN
 10
11.46925
 20
4.168662
 30
0.0
 11
11.2505
 21
4.168662
 31
0.0
  0
ARC
  8
DAMAN
 10
11.401542
 20
4.096494
 30
0.0
 40
0.098958
 50
313.173551
 51
46.826449
  0
LINE
  8
DAMAN
 10
11.46925
 20
4.024325
 30
0.0
 11
11.5005
 21
4.063
 31
0.0
  0
ARC
  8
DAMAN
 10
11.151542
 20
4.313
 30
0.0
 40
0.348958
 50
335.567302
 51
24.432698
  0
LINE
  8
DAMAN
 10
11.46925
 20
4.601675
 30
0.0
 11
11.2505
 21
4.601675
 31
0.0
  0
LINE
  8
DAMAN
 10
11.46925
 20
4.601675
 30
0.0
 11
11.5005
 21
4.563
 31
0.0
  0
LINE
  8
DAMAN
 10
11.2445
 20
7.0005
 30
0.0
 11
11.2445
 21
4.0005
 31
0.0
  0
LINE
  8
DAMAN
 10
11.1245
 20
4.0005
 30
0.0
 11
12.1245
 21
4.0005
 31
0.0
  0
LINE
  8
DAMAN
 10
4.8805
 20
7.0005
 30
0.0
 11
4.8805
 21
4.0005
 31
0.0
  0
ARC
  8
DAMAN
 10
4.973458
 20
4.313
 30
0.0
 40
0.348958
 50
155.567302
 51
204.432698
  0
LINE
  8
DAMAN
 10
4.6245
 20
4.063
 30
0.0
 11
4.6245
 21
4.563
 31
0.0
  0
CIRCLE
  8
DAMAN
 10
4.312
 20
4.313
 30
0.0
 40
0.249501
  0
POLYLINE
  8
DAMAN
 66
     1
 10
0.0
 20
0.0
 30
0.0
 70
   129
  0
VERTEX
  8
DAMAN
 10
4.5625
 20
4.456838
 30
0.0
  0
VERTEX
  8
DAMAN
 10
4.5625
 20
4.168162
 30
0.0
  0
VERTEX
  8
DAMAN
 10
4.3125
 20
4.023825
 30
0.0
  0
VERTEX
  8
DAMAN
 10
4.0625
 20
4.168162
 30
0.0
  0
VERTEX
  8
DAMAN
 10
4.0625
 20
4.456838
 30
0.0
  0
VERTEX
  8
DAMAN
 10
4.3125
 20
4.601175
 30
0.0
  0
SEQEND
  8
DAMAN
  0
INSERT
  8
DAMAN
  2
100CROSS
 10
4.313
 20
4.313
 30
0.0
 41
0.34
 42
0.34
 50
90.0
 43
0.34
  0
LINE
  8
DAMAN
 10
4.0005
 20
4.0005
 30
0.0
 11
4.0005
 21
7.0005
 31
0.0
  0
LINE
  8
DAMAN
 10
4.4995
 20
4.313
 30
0.0
 11
5.069581
 21
4.313
 31
0.0
  0
LINE
  8
DAMAN
 10
5.0005
 20
4.0005
 30
0.0
 11
4.0005
 21
4.0005
 31
0.0
  0
ARC
  8
DAMAN
 10
4.723458
 20
4.096494
 30
0.0
 40
0.098958
 50
133.173551
 51
226.826449
  0
LINE
  8
DAMAN
 10
4.8745
 20
4.024325
 30
0.0
 11
4.65575
 21
4.024325
 31
0.0
  0
LINE
  8
DAMAN
 10
4.65575
 20
4.024325
 30
0.0
 11
4.6245
 21
4.063
 31
0.0
  0
LINE
  8
DAMAN
 10
4.65575
 20
4.168662
 30
0.0
 11
4.8745
 21
4.168662
 31
0.0
  0
LINE
  8
DAMAN
 10
4.65575
 20
4.601675
 30
0.0
 11
4.8745
 21
4.601675
 31
0.0
  0
LINE
  8
DAMAN
 10
4.8745
 20
4.457338
 30
0.0
 11
4.65575
 21
4.457338
 31
0.0
  0
LINE
  8
DAMAN
 10
4.65575
 20
4.601675
 30
0.0
 11
4.6245
 21
4.563
 31
0.0
  0
ARC
  8
DAMAN
 10
4.723458
 20
4.529506
 30
0.0
 40
0.098958
 50
133.173551
 51
226.826449
  0
LINE
  8
DAMAN
 10
4.4995
 20
6.688
 30
0.0
 11
5.069581
 21
6.688
 31
0.0
  0
LINE
  8
DAMAN
 10
4.0005
 20
7.0005
 30
0.0
 11
5.0005
 21
7.0005
 31
0.0
  0
ARC
  8
DAMAN
 10
4.973458
 20
6.688
 30
0.0
 40
0.348958
 50
155.567302
 51
204.432698
  0
LINE
  8
DAMAN
 10
4.6245
 20
6.438
 30
0.0
 11
4.6245
 21
6.938
 31
0.0
  0
CIRCLE
  8
DAMAN
 10
4.312
 20
6.688
 30
0.0
 40
0.249501
  0
POLYLINE
  8
DAMAN
 66
     1
 10
0.0
 20
0.0
 30
0.0
 70
   129
  0
VERTEX
  8
DAMAN
 10
4.5625
 20
6.831838
 30
0.0
  0
VERTEX
  8
DAMAN
 10
4.5625
 20
6.543162
 30
0.0
  0
VERTEX
  8
DAMAN
 10
4.3125
 20
6.398825
 30
0.0
  0
VERTEX
  8
DAMAN
 10
4.0625
 20
6.543162
 30
0.0
  0
VERTEX
  8
DAMAN
 10
4.0625
 20
6.831838
 30
0.0
  0
VERTEX
  8
DAMAN
 10
4.3125
 20
6.976175
 30
0.0
  0
SEQEND
  8
DAMAN
  0
INSERT
  8
DAMAN
  2
100CROSS
 10
4.313
 20
6.688
 30
0.0
 41
0.34
 42
0.34
 50
90.0
 43
0.34
  0
LINE
  8
DAMAN
 10
4.65575
 20
6.543662
 30
0.0
 11
4.8745
 21
6.543662
 31
0.0
  0
LINE
  8
DAMAN
 10
4.8745
 20
6.399325
 30
0.0
 11
4.65575
 21
6.399325
 31
0.0
  0
LINE
  8
DAMAN
 10
4.65575
 20
6.399325
 30
0.0
 11
4.6245
 21
6.438
 31
0.0
  0
ARC
  8
DAMAN
 10
4.723458
 20
6.471494
 30
0.0
 40
0.098958
 50
133.173551
 51
226.826449
  0
ARC
  8
DAMAN
 10
4.723458
 20
6.904506
 30
0.0
 40
0.098958
 50
133.173551
 51
226.826449
  0
LINE
  8
DAMAN
 10
4.8745
 20
6.832338
 30
0.0
 11
4.65575
 21
6.832338
 31
0.0
  0
LINE
  8
DAMAN
 10
4.65575
 20
6.976675
 30
0.0
 11
4.8745
 21
6.976675
 31
0.0
  0
LINE
  8
DAMAN
 10
4.65575
 20
6.976675
 30
0.0
 11
4.6245
 21
6.938
 31
0.0
  0
INSERT
  8
DAMAN
  2
300MKS
 10
5.0
 20
0.0
 30
0.0
  0
INSERT
  8
DAMAN
  2
300MKS
 10
11.125
 20
0.0
 30
0.0
 41
-1.0
  0
TEXT
  8
DAMAN
 10
6.701777
 20
2.741879
 30
0.0
 40
0.188
  1
B
  0
TEXT
  8
DAMAN
 10
6.701777
 20
0.96069
 30
0.0
 40
0.188
  1
A
  0
TEXT
  8
DAMAN
 10
2.104426
 20
6.820938
 30
0.0
 40
0.188
  1
T
 50
270.0
  0
TEXT
  8
DAMAN
 10
2.145231
 20
4.291922
 30
0.0
 40
0.188
  1
P
 50
270.0
  0
TEXT
  8
DAMAN
 10
13.952566
 20
4.183147
 30
0.0
 40
0.188
  1
P
 50
90.0
  0
TEXT
  8
DAMAN
 10
13.952566
 20
6.671373
 30
0.0
 40
0.188
  1
T
 50
90.0
  0
INSERT
  8
DAMAN
  2
06SAET
 10
7.125
 20
1.5
 30
0.0
  0
TEXT
  8
DAMAN
 10
7.327452
 20
1.966858
 30
0.0
 40
0.188
  1
GA
  0
INSERT
  8
DAMAN
  2
D03
 10
9.453
 20
6.0
 30
0.0
  0
INSERT
  8
DAMAN
  2
08SAET
 10
10.0625
 20
2.375
 30
0.0
  0
TEXT
  8
DAMAN
 10
10.701777
 20
2.741879
 30
0.0
 40
0.188
  1
B
  0
INSERT
  8
DAMAN
  2
08SAET
 10
10.0625
 20
0.625
 30
0.0
  0
TEXT
  8
DAMAN
 10
10.701777
 20
0.96069
 30
0.0
 40
0.188
  1
A
  0
ENDBLK
  8
0
  0
BLOCK
  8
0
  2
600MKS
 70
    64
 10
0.0
 20
0.0
 30
0.0
  3
600MKS
  0
LINE
  8
DAMAN
 10
-1.625
 20
-0.5625
 30
0.0
 11
-1.625
 21
-0.375
 31
0.0
  0
LINE
  8
DAMAN
 10
-1.625
 20
-0.375
 30
0.0
 11
-0.4375
 21
-0.375
 31
0.0
  0
LINE
  8
DAMAN
 10
-0.1875
 20
-0.125
 30
0.0
 11
-0.1875
 21
1.0625
 31
0.0
  0
LINE
  8
DAMAN
 10
-0.1875
 20
1.0625
 30
0.0
 11
0.0
 21
1.0625
 31
0.0
  0
LINE
  8
DAMAN
 10
0.0
 20
1.0625
 30
0.0
 11
0.0
 21
-0.125
 31
0.0
  0
LINE
  8
DAMAN
 10
-0.4375
 20
-0.5625
 30
0.0
 11
-1.625
 21
-0.5625
 31
0.0
  0
ARC
  8
DAMAN
 10
-0.4375
 20
-0.125
 30
0.0
 40
0.25
 50
270.0
 51
0.0
  0
ARC
  8
DAMAN
 10
-0.4375
 20
-0.125
 30
0.0
 40
0.4375
 50
270.0
 51
0.0
  0
LINE
  8
DAMAN
 10
-1.59375
 20
-0.375
 30
0.0
 11
-1.59375
 21
-0.3125
 31
0.0
  0
LINE
  8
DAMAN
 10
-1.59375
 20
-0.3125
 30
0.0
 11
-0.53125
 21
-0.3125
 31
0.0
  0
LINE
  8
DAMAN
 10
-0.53125
 20
-0.3125
 30
0.0
 11
-0.53125
 21
-0.375
 31
0.0
  0
LINE
  8
DAMAN
 10
-1.495513
 20
-0.3125
 30
0.0
 11
-1.495513
 21
-0.042835
 31
0.0
  0
LINE
  8
DAMAN
 10
-1.421321
 20
0.0
 30
0.0
 11
-0.703679
 21
0.0
 31
0.0
  0
LINE
  8
DAMAN
 10
-0.629487
 20
-0.042835
 30
0.0
 11
-0.629487
 21
-0.3125
 31
0.0
  0
LINE
  8
DAMAN
 10
-1.279006
 20
-0.3125
 30
0.0
 11
-1.279006
 21
-0.0625
 31
0.0
  0
LINE
  8
DAMAN
 10
-0.845994
 20
-0.3125
 30
0.0
 11
-0.845994
 21
-0.0625
 31
0.0
  0
ARC
  8
DAMAN
 10
-1.0625
 20
-0.40625
 30
0.0
 40
0.40625
 50
57.795772
 51
122.204228
  0
ARC
  8
DAMAN
 10
-0.73774
 20
-0.125
 30
0.0
 40
0.125
 50
30.0
 51
150.0
  0
ARC
  8
DAMAN
 10
-1.38726
 20
-0.125
 30
0.0
 40
0.125
 50
30.0
 51
150.0
  0
LINE
  8
DAMAN
 10
-1.495513
 20
-0.042835
 30
0.0
 11
-1.421321
 21
0.0
 31
0.0
  0
LINE
  8
DAMAN
 10
-0.629487
 20
-0.042835
 30
0.0
 11
-0.703679
 21
0.0
 31
0.0
  0
LINE
  8
DAMAN
 10
-1.3125
 20
-0.5625
 30
0.0
 11
-1.3125
 21
-1.28125
 31
0.0
  0
LINE
  8
DAMAN
 10
-1.3125
 20
-1.28125
 30
0.0
 11
-1.28125
 21
-1.3125
 31
0.0
  0
LINE
  8
DAMAN
 10
-1.28125
 20
-1.3125
 30
0.0
 11
-0.84375
 21
-1.3125
 31
0.0
  0
LINE
  8
DAMAN
 10
-0.84375
 20
-1.3125
 30
0.0
 11
-0.8125
 21
-1.28125
 31
0.0
  0
LINE
  8
DAMAN
 10
-0.8125
 20
-1.28125
 30
0.0
 11
-0.8125
 21
-0.5625
 31
0.0
  0
LINE
  8
DAMAN
 10
-1.28125
 20
-0.5625
 30
0.0
 11
-1.28125
 21
-1.3125
 31
0.0
  0
LINE
  8
DAMAN
 10
-0.84375
 20
-0.5625
 30
0.0
 11
-0.84375
 21
-1.3125
 31
0.0
  0
LINE
  8
DAMAN
 10
-1.0625
 20
0.125
 30
0.0
 11
-1.0625
 21
-1.40625
 31
0.0
  0
LINE
  8
DAMAN
 10
-0.519665
 20
0.933013
 30
0.0
 11
-0.5625
 21
0.858821
 31
0.0
  0
LINE
  8
DAMAN
 10
-0.519665
 20
0.066987
 30
0.0
 11
-0.5625
 21
0.141179
 31
0.0
  0
ARC
  8
DAMAN
 10
-0.4375
 20
0.17524
 30
0.0
 40
0.125
 50
120.0
 51
240.0
  0
ARC
  8
DAMAN
 10
-0.4375
 20
0.82476
 30
0.0
 40
0.125
 50
120.0
 51
240.0
  0
ARC
  8
DAMAN
 10
-0.15625
 20
0.5
 30
0.0
 40
0.40625
 50
147.795772
 51
212.204228
  0
LINE
  8
DAMAN
 10
-0.25
 20
0.716506
 30
0.0
 11
-0.5
 21
0.716506
 31
0.0
  0
LINE
  8
DAMAN
 10
-0.25
 20
0.283494
 30
0.0
 11
-0.5
 21
0.283494
 31
0.0
  0
LINE
  8
DAMAN
 10
-0.519665
 20
0.933013
 30
0.0
 11
-0.25
 21
0.933013
 31
0.0
  0
LINE
  8
DAMAN
 10
-0.5625
 20
0.141179
 30
0.0
 11
-0.5625
 21
0.858821
 31
0.0
  0
LINE
  8
DAMAN
 10
-0.25
 20
0.066987
 30
0.0
 11
-0.519665
 21
0.066987
 31
0.0
  0
LINE
  8
DAMAN
 10
-0.25
 20
1.03125
 30
0.0
 11
-0.1875
 21
1.03125
 31
0.0
  0
LINE
  8
DAMAN
 10
-0.25
 20
-0.03125
 30
0.0
 11
-0.25
 21
1.03125
 31
0.0
  0
LINE
  8
DAMAN
 10
-0.1875
 20
-0.03125
 30
0.0
 11
-0.25
 21
-0.03125
 31
0.0
  0
ENDBLK
  8
0
  0
BLOCK
  8
0
  2
600MKST
 70
     0
 10
0.0
 20
0.0
 30
0.0
  3
600MKST
  0
LINE
  8
DAMAN
 10
-1.625
 20
-0.5625
 30
0.0
 11
-1.625
 21
-0.375
 31
0.0
  0
LINE
  8
DAMAN
 10
-1.625
 20
-0.375
 30
0.0
 11
-0.4375
 21
-0.375
 31
0.0
  0
LINE
  8
DAMAN
 10
-0.1875
 20
-0.125
 30
0.0
 11
-0.1875
 21
1.0625
 31
0.0
  0
LINE
  8
DAMAN
 10
-0.1875
 20
1.0625
 30
0.0
 11
0.0
 21
1.0625
 31
0.0
  0
LINE
  8
DAMAN
 10
0.0
 20
1.0625
 30
0.0
 11
0.0
 21
-0.125
 31
0.0
  0
LINE
  8
DAMAN
 10
-0.4375
 20
-0.5625
 30
0.0
 11
-1.625
 21
-0.5625
 31
0.0
  0
ARC
  8
DAMAN
 10
-0.4375
 20
-0.125
 30
0.0
 40
0.25
 50
270.0
 51
0.0
  0
ARC
  8
DAMAN
 10
-0.4375
 20
-0.125
 30
0.0
 40
0.4375
 50
270.0
 51
0.0
  0
LINE
  8
DAMAN
 10
-1.59375
 20
-0.375
 30
0.0
 11
-1.59375
 21
-0.3125
 31
0.0
  0
LINE
  8
DAMAN
 10
-1.59375
 20
-0.3125
 30
0.0
 11
-0.53125
 21
-0.3125
 31
0.0
  0
LINE
  8
DAMAN
 10
-0.53125
 20
-0.3125
 30
0.0
 11
-0.53125
 21
-0.375
 31
0.0
  0
LINE
  8
DAMAN
 10
-1.495513
 20
-0.3125
 30
0.0
 11
-1.495513
 21
-0.042835
 31
0.0
  0
LINE
  8
DAMAN
 10
-1.421321
 20
0.0
 30
0.0
 11
-0.703679
 21
0.0
 31
0.0
  0
LINE
  8
DAMAN
 10
-0.629487
 20
-0.042835
 30
0.0
 11
-0.629487
 21
-0.3125
 31
0.0
  0
LINE
  8
DAMAN
 10
-1.279006
 20
-0.3125
 30
0.0
 11
-1.279006
 21
-0.0625
 31
0.0
  0
LINE
  8
DAMAN
 10
-0.845994
 20
-0.3125
 30
0.0
 11
-0.845994
 21
-0.0625
 31
0.0
  0
ARC
  8
DAMAN
 10
-1.0625
 20
-0.40625
 30
0.0
 40
0.40625
 50
57.795772
 51
122.204228
  0
ARC
  8
DAMAN
 10
-0.73774
 20
-0.125
 30
0.0
 40
0.125
 50
30.0
 51
150.0
  0
ARC
  8
DAMAN
 10
-1.38726
 20
-0.125
 30
0.0
 40
0.125
 50
30.0
 51
150.0
  0
LINE
  8
DAMAN
 10
-1.495513
 20
-0.042835
 30
0.0
 11
-1.421321
 21
0.0
 31
0.0
  0
LINE
  8
DAMAN
 10
-0.629487
 20
-0.042835
 30
0.0
 11
-0.703679
 21
0.0
 31
0.0
  0
LINE
  8
DAMAN
 10
-1.3125
 20
-0.5625
 30
0.0
 11
-1.3125
 21
-1.28125
 31
0.0
  0
LINE
  8
DAMAN
 10
-1.3125
 20
-1.28125
 30
0.0
 11
-1.28125
 21
-1.3125
 31
0.0
  0
LINE
  8
DAMAN
 10
-1.28125
 20
-1.3125
 30
0.0
 11
-0.84375
 21
-1.3125
 31
0.0
  0
LINE
  8
DAMAN
 10
-0.84375
 20
-1.3125
 30
0.0
 11
-0.8125
 21
-1.28125
 31
0.0
  0
LINE
  8
DAMAN
 10
-0.8125
 20
-1.28125
 30
0.0
 11
-0.8125
 21
-0.5625
 31
0.0
  0
LINE
  8
DAMAN
 10
-1.28125
 20
-0.5625
 30
0.0
 11
-1.28125
 21
-1.3125
 31
0.0
  0
LINE
  8
DAMAN
 10
-0.84375
 20
-0.5625
 30
0.0
 11
-0.84375
 21
-1.3125
 31
0.0
  0
LINE
  8
DAMAN
 10
-1.0625
 20
0.125
 30
0.0
 11
-1.0625
 21
-1.40625
 31
0.0
  0
LINE
  8
DAMAN
 10
-0.519665
 20
0.933013
 30
0.0
 11
-0.5625
 21
0.858821
 31
0.0
  0
LINE
  8
DAMAN
 10
-0.519665
 20
0.066987
 30
0.0
 11
-0.5625
 21
0.141179
 31
0.0
  0
ARC
  8
DAMAN
 10
-0.4375
 20
0.17524
 30
0.0
 40
0.125
 50
120.0
 51
240.0
  0
ARC
  8
DAMAN
 10
-0.4375
 20
0.82476
 30
0.0
 40
0.125
 50
120.0
 51
240.0
  0
ARC
  8
DAMAN
 10
-0.15625
 20
0.5
 30
0.0
 40
0.40625
 50
147.795772
 51
212.204228
  0
LINE
  8
DAMAN
 10
-0.25
 20
0.716506
 30
0.0
 11
-0.5
 21
0.716506
 31
0.0
  0
LINE
  8
DAMAN
 10
-0.25
 20
0.283494
 30
0.0
 11
-0.5
 21
0.283494
 31
0.0
  0
LINE
  8
DAMAN
 10
-0.519665
 20
0.933013
 30
0.0
 11
-0.25
 21
0.933013
 31
0.0
  0
LINE
  8
DAMAN
 10
-0.5625
 20
0.141179
 30
0.0
 11
-0.5625
 21
0.858821
 31
0.0
  0
LINE
  8
DAMAN
 10
-0.25
 20
0.066987
 30
0.0
 11
-0.519665
 21
0.066987
 31
0.0
  0
LINE
  8
DAMAN
 10
-0.25
 20
1.03125
 30
0.0
 11
-0.1875
 21
1.03125
 31
0.0
  0
LINE
  8
DAMAN
 10
-0.25
 20
-0.03125
 30
0.0
 11
-0.25
 21
1.03125
 31
0.0
  0
LINE
  8
DAMAN
 10
-0.1875
 20
-0.03125
 30
0.0
 11
-0.25
 21
-0.03125
 31
0.0
  0
ENDBLK
  8
0
  0
BLOCK
  8
0
  2
600MKT
 70
     0
 10
0.0
 20
0.0
 30
0.0
  3
600MKT
  0
LINE
  8
DAMAN
 10
-0.5625
 20
6.0
 30
0.0
 11
1.0625
 21
6.0
 31
0.0
  0
LINE
  8
DAMAN
 10
1.0625
 20
6.0
 30
0.0
 11
1.0625
 21
0.0
 31
0.0
  0
LINE
  8
DAMAN
 10
1.0625
 20
0.0
 30
0.0
 11
-0.5625
 21
0.0
 31
0.0
  0
LINE
  8
DAMAN
 10
-0.5625
 20
0.0
 30
0.0
 11
-0.5625
 21
6.0
 31
0.0
  0
LINE
  8
DAMAN
 10
-0.375
 20
0.0
 30
0.0
 11
-0.375
 21
6.0
 31
0.0
  0
LINE
  8
DAMAN
 10
-0.375
 20
1.09375
 30
0.0
 11
-0.3125
 21
1.09375
 31
0.0
  0
LINE
  8
DAMAN
 10
-0.3125
 20
1.09375
 30
0.0
 11
-0.3125
 21
0.03125
 31
0.0
  0
LINE
  8
DAMAN
 10
-0.3125
 20
0.03125
 30
0.0
 11
-0.375
 21
0.03125
 31
0.0
  0
LINE
  8
DAMAN
 10
-0.3125
 20
0.995513
 30
0.0
 11
-0.042835
 21
0.995513
 31
0.0
  0
LINE
  8
DAMAN
 10
0.0
 20
0.921321
 30
0.0
 11
0.0
 21
0.203679
 31
0.0
  0
LINE
  8
DAMAN
 10
-0.042835
 20
0.129487
 30
0.0
 11
-0.3125
 21
0.129487
 31
0.0
  0
LINE
  8
DAMAN
 10
-0.3125
 20
0.779006
 30
0.0
 11
-0.0625
 21
0.779006
 31
0.0
  0
LINE
  8
DAMAN
 10
-0.3125
 20
0.345994
 30
0.0
 11
-0.0625
 21
0.345994
 31
0.0
  0
ARC
  8
DAMAN
 10
-0.40625
 20
0.5625
 30
0.0
 40
0.40625
 50
327.795772
 51
32.204228
  0
ARC
  8
DAMAN
 10
-0.125
 20
0.23774
 30
0.0
 40
0.125
 50
300.0
 51
60.0
  0
ARC
  8
DAMAN
 10
-0.125
 20
0.88726
 30
0.0
 40
0.125
 50
300.0
 51
60.0
  0
LINE
  8
DAMAN
 10
-0.042835
 20
0.995513
 30
0.0
 11
0.0
 21
0.921321
 31
0.0
  0
LINE
  8
DAMAN
 10
-0.042835
 20
0.129487
 30
0.0
 11
0.0
 21
0.203679
 31
0.0
  0
LINE
  8
DAMAN
 10
-0.5625
 20
0.8125
 30
0.0
 11
-1.28125
 21
0.8125
 31
0.0
  0
LINE
  8
DAMAN
 10
-1.28125
 20
0.8125
 30
0.0
 11
-1.3125
 21
0.78125
 31
0.0
  0
LINE
  8
DAMAN
 10
-1.3125
 20
0.78125
 30
0.0
 11
-1.3125
 21
0.34375
 31
0.0
  0
LINE
  8
DAMAN
 10
-1.3125
 20
0.34375
 30
0.0
 11
-1.28125
 21
0.3125
 31
0.0
  0
LINE
  8
DAMAN
 10
-1.28125
 20
0.3125
 30
0.0
 11
-0.5625
 21
0.3125
 31
0.0
  0
LINE
  8
DAMAN
 10
-0.5625
 20
0.78125
 30
0.0
 11
-1.3125
 21
0.78125
 31
0.0
  0
LINE
  8
DAMAN
 10
-0.5625
 20
0.34375
 30
0.0
 11
-1.3125
 21
0.34375
 31
0.0
  0
LINE
  8
DAMAN
 10
0.125
 20
0.5625
 30
0.0
 11
-1.40625
 21
0.5625
 31
0.0
  0
LINE
  8
DAMAN
 10
0.125
 20
5.4375
 30
0.0
 11
-1.40625
 21
5.4375
 31
0.0
  0
LINE
  8
DAMAN
 10
-0.5625
 20
5.21875
 30
0.0
 11
-1.3125
 21
5.21875
 31
0.0
  0
LINE
  8
DAMAN
 10
-1.28125
 20
5.1875
 30
0.0
 11
-0.5625
 21
5.1875
 31
0.0
  0
LINE
  8
DAMAN
 10
-0.5625
 20
5.65625
 30
0.0
 11
-1.3125
 21
5.65625
 31
0.0
  0
LINE
  8
DAMAN
 10
-0.5625
 20
5.6875
 30
0.0
 11
-1.28125
 21
5.6875
 31
0.0
  0
LINE
  8
DAMAN
 10
-1.3125
 20
5.65625
 30
0.0
 11
-1.3125
 21
5.21875
 31
0.0
  0
LINE
  8
DAMAN
 10
-1.28125
 20
5.6875
 30
0.0
 11
-1.3125
 21
5.65625
 31
0.0
  0
LINE
  8
DAMAN
 10
-1.3125
 20
5.21875
 30
0.0
 11
-1.28125
 21
5.1875
 31
0.0
  0
ARC
  8
DAMAN
 10
-0.40625
 20
5.4375
 30
0.0
 40
0.40625
 50
327.795772
 51
32.204228
  0
LINE
  8
DAMAN
 10
-0.3125
 20
5.96875
 30
0.0
 11
-0.3125
 21
4.90625
 31
0.0
  0
LINE
  8
DAMAN
 10
0.0
 20
5.796321
 30
0.0
 11
0.0
 21
5.078679
 31
0.0
  0
ARC
  8
DAMAN
 10
-0.125
 20
5.76226
 30
0.0
 40
0.125
 50
300.0
 51
60.0
  0
LINE
  8
DAMAN
 10
-0.042835
 20
5.870513
 30
0.0
 11
0.0
 21
5.796321
 31
0.0
  0
LINE
  8
DAMAN
 10
-0.3125
 20
5.870513
 30
0.0
 11
-0.042835
 21
5.870513
 31
0.0
  0
LINE
  8
DAMAN
 10
-0.375
 20
5.96875
 30
0.0
 11
-0.3125
 21
5.96875
 31
0.0
  0
LINE
  8
DAMAN
 10
-0.3125
 20
5.654006
 30
0.0
 11
-0.0625
 21
5.654006
 31
0.0
  0
ARC
  8
DAMAN
 10
-0.125
 20
5.11274
 30
0.0
 40
0.125
 50
300.0
 51
60.0
  0
LINE
  8
DAMAN
 10
-0.3125
 20
5.220994
 30
0.0
 11
-0.0625
 21
5.220994
 31
0.0
  0
LINE
  8
DAMAN
 10
-0.042835
 20
5.004487
 30
0.0
 11
-0.3125
 21
5.004487
 31
0.0
  0
LINE
  8
DAMAN
 10
-0.3125
 20
4.90625
 30
0.0
 11
-0.375
 21
4.90625
 31
0.0
  0
LINE
  8
DAMAN
 10
-0.042835
 20
5.004487
 30
0.0
 11
0.0
 21
5.078679
 31
0.0
  0
CIRCLE
  8
DAMAN
 10
0.5
 20
5.4375
 30
0.0
 40
0.53125
  0
CIRCLE
  8
DAMAN
 10
0.5
 20
0.5625
 30
0.0
 40
0.53125
  0
POLYLINE
  8
DAMAN
 66
     1
 10
0.0
 20
0.0
 30
0.0
 70
     1
  0
VERTEX
  8
DAMAN
 10
0.875
 20
5.654006
 30
0.0
  0
VERTEX
  8
DAMAN
 10
0.5
 20
5.870513
 30
0.0
  0
VERTEX
  8
DAMAN
 10
0.125
 20
5.654006
 30
0.0
  0
VERTEX
  8
DAMAN
 10
0.125
 20
5.220994
 30
0.0
  0
VERTEX
  8
DAMAN
 10
0.5
 20
5.004487
 30
0.0
  0
VERTEX
  8
DAMAN
 10
0.875
 20
5.220994
 30
0.0
  0
SEQEND
  8
DAMAN
  0
CIRCLE
  8
DAMAN
 10
0.5
 20
5.4375
 30
0.0
 40
0.375
  0
CIRCLE
  8
DAMAN
 10
0.5
 20
0.5625
 30
0.0
 40
0.375
  0
POLYLINE
  8
DAMAN
 66
     1
 10
0.0
 20
0.0
 30
0.0
 70
     1
  0
VERTEX
  8
DAMAN
 10
0.875
 20
0.779006
 30
0.0
  0
VERTEX
  8
DAMAN
 10
0.5
 20
0.995513
 30
0.0
  0
VERTEX
  8
DAMAN
 10
0.125
 20
0.779006
 30
0.0
  0
VERTEX
  8
DAMAN
 10
0.125
 20
0.345994
 30
0.0
  0
VERTEX
  8
DAMAN
 10
0.5
 20
0.129487
 30
0.0
  0
VERTEX
  8
DAMAN
 10
0.875
 20
0.345994
 30
0.0
  0
SEQEND
  8
DAMAN
  0
ENDBLK
  8
0
  0
BLOCK
  8
0
  2
0375BSPPT
 70
     0
 10
0.0
 20
0.0
 30
0.0
  3
0375BSPPT
  0
CIRCLE
  8
DAMAN
  6
HIDDEN
 10
5.71875
 20
4.34375
 30
0.0
 40
0.328
  0
CIRCLE
  8
DAMAN
 10
5.71875
 20
4.34375
 30
0.0
 40
0.3325
  0
CIRCLE
  8
DAMAN
 10
5.71875
 20
4.34375
 30
0.0
 40
0.3035
  0
CIRCLE
  8
DAMAN
 10
5.71875
 20
4.34375
 30
0.0
 40
0.51
  0
INSERT
  8
DAMAN
  2
100CROSS
 10
5.71875
 20
4.34375
 30
0.0
 41
0.88
 42
0.88
 43
0.0
  0
ENDBLK
  8
0
  0
BLOCK
  8
0
  2
D08
 70
     0
 10
0.0
 20
0.0
 30
0.0
  3
D08
  0
INSERT
  8
DAMAN
  2
100CROSS
 10
2.875
 20
-4.438
 30
0.0
 41
0.4375
 42
0.4375
 43
0.4375
  0
INSERT
  8
DAMAN
  2
100CROSS
 10
1.8125
 20
-4.900591
 30
0.0
 41
0.25
 42
0.25
 43
0.25
  0
CIRCLE
  8
DAMAN
 10
1.8125
 20
-4.900591
 30
0.0
 40
0.09845
  0
CIRCLE
  8
DAMAN
 10
3.625
 20
-5.125
 30
0.0
 40
0.2655
  0
INSERT
  8
DAMAN
  2
100CROSS
 10
3.625
 20
-5.125
 30
0.0
 41
0.6
 42
0.6
 43
0.6
  0
CIRCLE
  8
DAMAN
 10
2.875
 20
-4.438
 30
0.0
 40
0.219
  0
INSERT
  8
DAMAN
  2
100CROSS
 10
0.6875
 20
-3.96875
 30
0.0
 41
1.03
 42
1.03
 43
0.0
  0
INSERT
  8
DAMAN
  2
100CROSS
 10
1.8125
 20
-0.224409
 30
0.0
 41
0.25
 42
0.25
 43
0.25
  0
CIRCLE
  8
DAMAN
 10
1.8125
 20
-0.224409
 30
0.0
 40
0.09845
  0
INSERT
  8
DAMAN
  2
100CROSS
 10
0.6875
 20
-2.09375
 30
0.0
 41
1.03
 42
1.03
 43
0.0
  0
CIRCLE
  8
DAMAN
 10
2.938
 20
-1.156
 30
0.0
 40
0.453
  0
INSERT
  8
DAMAN
  2
100CROSS
 10
2.9375
 20
-1.15625
 30
0.0
 41
1.03
 42
1.03
 43
0.0
  0
CIRCLE
  8
DAMAN
 10
3.625
 20
-2.09375
 30
0.0
 40
0.2655
  0
CIRCLE
  8
DAMAN
 10
2.938
 20
-3.031
 30
0.0
 40
0.453
  0
INSERT
  8
DAMAN
  2
100CROSS
 10
2.9375
 20
-3.03125
 30
0.0
 41
1.03
 42
1.03
 43
0.0
  0
INSERT
  8
DAMAN
  2
100CROSS
 10
3.625
 20
-2.09375
 30
0.0
 41
0.6
 42
0.6
 43
0.6
  0
CIRCLE
  8
DAMAN
 10
3.812
 20
-3.71825
 30
0.0
 40
0.1405
  0
INSERT
  8
DAMAN
  2
100CROSS
 10
3.812
 20
-3.71825
 30
0.0
 41
0.25
 42
0.25
 43
0.0
  0
CIRCLE
  8
DAMAN
 10
3.625
 20
0.0
 30
0.0
 40
0.2655
  0
INSERT
  8
DAMAN
  2
100CROSS
 10
3.625
 20
0.0
 30
0.0
 41
0.6
 42
0.6
 43
0.6
  0
CIRCLE
  8
DAMAN
 10
0.688
 20
-3.9685
 30
0.0
 40
0.453
  0
INSERT
  8
DAMAN
  2
100CROSS
 10
0.0
 20
-5.125
 30
0.0
 41
0.6
 42
0.6
 43
0.6
  0
CIRCLE
  8
DAMAN
 10
0.0
 20
-5.125
 30
0.0
 40
0.2655
  0
CIRCLE
  8
DAMAN
 10
0.688
 20
-2.0935
 30
0.0
 40
0.453
  0
INSERT
  8
DAMAN
  2
100CROSS
 10
0.0
 20
-3.03125
 30
0.0
 41
0.6
 42
0.6
 43
0.6
  0
CIRCLE
  8
DAMAN
 10
0.0
 20
-3.03125
 30
0.0
 40
0.2655
  0
INSERT
  8
DAMAN
  2
100CROSS
 10
0.0
 20
0.0
 30
0.0
 41
0.6
 42
0.6
 43
0.6
  0
INSERT
  8
DAMAN
  2
100CROSS
 10
0.0
 20
-1.15625
 30
0.0
 41
0.25
 42
0.25
 43
0.0
  0
CIRCLE
  8
DAMAN
 10
0.0
 20
-1.15625
 30
0.0
 40
0.1405
  0
CIRCLE
  8
DAMAN
 10
0.0
 20
0.0
 30
0.0
 40
0.2655
  0
INSERT
  8
DAMAN
  2
100CROSS
 10
0.75
 20
-0.688
 30
0.0
 41
0.4375
 42
0.4375
 43
0.4375
  0
CIRCLE
  8
DAMAN
 10
0.75
 20
-0.688
 30
0.0
 40
0.219
  0
ENDBLK
  8
0
  0
BLOCK
  8
0
  2
D08W
 70
     0
 10
0.0
 20
0.0
 30
0.0
  3
D08W
  0
INSERT
  8
DAMAN
  2
100CROSS
 10
0.6875
 20
-3.96875
 30
0.0
 41
1.03
 42
1.03
 43
0.0
  0
CIRCLE
  8
DAMAN
 10
2.875
 20
-4.438
 30
0.0
 40
0.219
  0
CIRCLE
  8
DAMAN
 10
0.688
 20
-3.9685
 30
0.0
 40
0.453
  0
INSERT
  8
DAMAN
  2
050CROSS
 10
2.875
 20
-4.438
 30
0.0
 41
0.4375
 42
0.4375
 43
0.0
  0
INSERT
  8
DAMAN
  2
050CROSS
 10
0.0
 20
-5.125
 30
0.0
 41
0.6
 42
0.6
 43
0.0
  0
CIRCLE
  8
DAMAN
 10
0.0
 20
-5.125
 30
0.0
 40
0.2655
  0
CIRCLE
  8
DAMAN
 10
1.8125
 20
-4.900591
 30
0.0
 40
0.09845
  0
INSERT
  8
DAMAN
  2
050CROSS
 10
1.8125
 20
-4.900591
 30
0.0
 41
0.25
 42
0.25
 43
0.0
  0
INSERT
  8
DAMAN
  2
050CROSS
 10
3.625
 20
-5.125
 30
0.0
 41
0.6
 42
0.6
 43
0.0
  0
CIRCLE
  8
DAMAN
 10
3.625
 20
-5.125
 30
0.0
 40
0.2655
  0
INSERT
  8
DAMAN
  2
100CROSS
 10
0.6875
 20
-2.09375
 30
0.0
 41
1.03
 42
1.03
 43
0.0
  0
CIRCLE
  8
DAMAN
 10
0.688
 20
-2.0935
 30
0.0
 40
0.453
  0
INSERT
  8
DAMAN
  2
050CROSS
 10
0.0
 20
0.0
 30
0.0
 41
0.6
 42
0.6
 43
0.0
  0
INSERT
  8
DAMAN
  2
050CROSS
 10
0.0
 20
-3.03125
 30
0.0
 41
0.6
 42
0.6
 43
0.0
  0
CIRCLE
  8
DAMAN
 10
0.0
 20
-3.03125
 30
0.0
 40
0.2655
  0
INSERT
  8
DAMAN
  2
100CROSS
 10
0.0
 20
-1.15625
 30
0.0
 41
0.25
 42
0.25
 43
0.0
  0
CIRCLE
  8
DAMAN
 10
0.0
 20
-1.15625
 30
0.0
 40
0.1405
  0
CIRCLE
  8
DAMAN
 10
0.0
 20
0.0
 30
0.0
 40
0.2655
  0
INSERT
  8
DAMAN
  2
100CROSS
 10
2.9375
 20
-1.15625
 30
0.0
 41
1.03
 42
1.03
 43
0.0
  0
INSERT
  8
DAMAN
  2
050CROSS
 10
3.625
 20
-2.09375
 30
0.0
 41
0.6
 42
0.6
 43
0.0
  0
INSERT
  8
DAMAN
  2
100CROSS
 10
2.9375
 20
-3.03125
 30
0.0
 41
1.03
 42
1.03
 43
0.0
  0
CIRCLE
  8
DAMAN
 10
2.938
 20
-3.031
 30
0.0
 40
0.453
  0
INSERT
  8
DAMAN
  2
100CROSS
 10
3.812
 20
-3.71825
 30
0.0
 41
0.25
 42
0.25
 43
0.0
  0
CIRCLE
  8
DAMAN
 10
3.812
 20
-3.71825
 30
0.0
 40
0.1405
  0
CIRCLE
  8
DAMAN
 10
3.625
 20
-2.09375
 30
0.0
 40
0.2655
  0
CIRCLE
  8
DAMAN
 10
2.938
 20
-1.156
 30
0.0
 40
0.453
  0
INSERT
  8
DAMAN
  2
050CROSS
 10
1.8125
 20
-0.224409
 30
0.0
 41
0.25
 42
0.25
 43
0.0
  0
INSERT
  8
DAMAN
  2
050CROSS
 10
0.75
 20
-0.688
 30
0.0
 41
0.4375
 42
0.4375
 43
0.0
  0
CIRCLE
  8
DAMAN
 10
0.75
 20
-0.688
 30
0.0
 40
0.219
  0
CIRCLE
  8
DAMAN
 10
1.8125
 20
-0.224409
 30
0.0
 40
0.09845
  0
INSERT
  8
DAMAN
  2
050CROSS
 10
3.625
 20
0.0
 30
0.0
 41
0.6
 42
0.6
 43
0.0
  0
CIRCLE
  8
DAMAN
 10
3.625
 20
0.0
 30
0.0
 40
0.2655
  0
ENDBLK
  8
0
  0
BLOCK
  8
0
  2
D08NOX
 70
     0
 10
0.0
 20
0.0
 30
0.0
  3
D08NOX
  0
INSERT
  8
DAMAN
  2
100CROSS
 10
2.875
 20
-4.438
 30
0.0
 41
0.4375
 42
0.4375
 43
0.4375
  0
INSERT
  8
DAMAN
  2
100CROSS
 10
3.625
 20
-5.125
 30
0.0
 41
0.6
 42
0.6
 43
0.6
  0
CIRCLE
  8
DAMAN
 10
2.875
 20
-4.438
 30
0.0
 40
0.219
  0
INSERT
  8
DAMAN
  2
100CROSS
 10
0.6875
 20
-3.96875
 30
0.0
 41
1.03
 42
1.03
 43
0.0
  0
INSERT
  8
DAMAN
  2
100CROSS
 10
0.6875
 20
-2.09375
 30
0.0
 41
1.03
 42
1.03
 43
0.0
  0
CIRCLE
  8
DAMAN
 10
2.938
 20
-1.156
 30
0.0
 40
0.453
  0
INSERT
  8
DAMAN
  2
100CROSS
 10
2.9375
 20
-1.15625
 30
0.0
 41
1.03
 42
1.03
 43
0.0
  0
CIRCLE
  8
DAMAN
 10
2.938
 20
-3.031
 30
0.0
 40
0.453
  0
INSERT
  8
DAMAN
  2
100CROSS
 10
2.9375
 20
-3.03125
 30
0.0
 41
1.03
 42
1.03
 43
0.0
  0
INSERT
  8
DAMAN
  2
100CROSS
 10
3.625
 20
-2.09375
 30
0.0
 41
0.6
 42
0.6
 43
0.6
  0
CIRCLE
  8
DAMAN
 10
3.812
 20
-3.71825
 30
0.0
 40
0.1405
  0
INSERT
  8
DAMAN
  2
100CROSS
 10
3.812
 20
-3.71825
 30
0.0
 41
0.25
 42
0.25
 43
0.0
  0
INSERT
  8
DAMAN
  2
100CROSS
 10
3.625
 20
0.0
 30
0.0
 41
0.6
 42
0.6
 43
0.6
  0
CIRCLE
  8
DAMAN
 10
0.688
 20
-3.9685
 30
0.0
 40
0.453
  0
INSERT
  8
DAMAN
  2
100CROSS
 10
0.0
 20
-5.125
 30
0.0
 41
0.6
 42
0.6
 43
0.6
  0
CIRCLE
  8
DAMAN
 10
0.688
 20
-2.0935
 30
0.0
 40
0.453
  0
INSERT
  8
DAMAN
  2
100CROSS
 10
0.0
 20
-3.03125
 30
0.0
 41
0.6
 42
0.6
 43
0.6
  0
INSERT
  8
DAMAN
  2
100CROSS
 10
0.0
 20
0.0
 30
0.0
 41
0.6
 42
0.6
 43
0.6
  0
INSERT
  8
DAMAN
  2
100CROSS
 10
0.0
 20
-1.15625
 30
0.0
 41
0.25
 42
0.25
 43
0.0
  0
CIRCLE
  8
DAMAN
 10
0.0
 20
-1.15625
 30
0.0
 40
0.1405
  0
CIRCLE
  8
DAMAN
 10
0.0
 20
0.0
 30
0.0
 40
0.234
  0
CIRCLE
  8
DAMAN
  6
HIDDEN
 10
0.0
 20
0.0
 30
0.0
 40
0.25
  0
CIRCLE
  8
DAMAN
  6
HIDDEN
 10
3.625
 20
0.0
 30
0.0
 40
0.25
  0
CIRCLE
  8
DAMAN
 10
3.625
 20
0.0
 30
0.0
 40
0.234
  0
CIRCLE
  8
DAMAN
  6
HIDDEN
 10
3.625
 20
-2.09375
 30
0.0
 40
0.25
  0
CIRCLE
  8
DAMAN
 10
3.625
 20
-2.09375
 30
0.0
 40
0.234
  0
CIRCLE
  8
DAMAN
  6
HIDDEN
 10
0.0
 20
-3.03125
 30
0.0
 40
0.25
  0
CIRCLE
  8
DAMAN
 10
0.0
 20
-3.03125
 30
0.0
 40
0.234
  0
CIRCLE
  8
DAMAN
  6
HIDDEN
 10
0.0
 20
-5.125
 30
0.0
 40
0.25
  0
CIRCLE
  8
DAMAN
 10
0.0
 20
-5.125
 30
0.0
 40
0.234
  0
CIRCLE
  8
DAMAN
  6
HIDDEN
 10
3.625
 20
-5.125
 30
0.0
 40
0.25
  0
CIRCLE
  8
DAMAN
 10
3.625
 20
-5.125
 30
0.0
 40
0.234
  0
ENDBLK
  8
0
  0
BLOCK
  8
0
  2
D08H
 70
    64
 10
0.0
 20
0.0
 30
0.0
  3
D08H
  0
INSERT
  8
DAMAN
  2
100CROSS
 10
2.875
 20
-4.438
 30
0.0
 41
0.4375
 42
0.4375
 43
0.4375
  0
INSERT
  8
DAMAN
  2
100CROSS
 10
3.625
 20
-5.125
 30
0.0
 41
0.6
 42
0.6
 43
0.6
  0
INSERT
  8
DAMAN
  2
100CROSS
 10
0.6875
 20
-3.96875
 30
0.0
 41
1.03
 42
1.03
 43
0.0
  0
INSERT
  8
DAMAN
  2
100CROSS
 10
0.6875
 20
-2.09375
 30
0.0
 41
1.03
 42
1.03
 43
0.0
  0
INSERT
  8
DAMAN
  2
100CROSS
 10
2.9375
 20
-1.15625
 30
0.0
 41
1.03
 42
1.03
 43
0.0
  0
INSERT
  8
DAMAN
  2
100CROSS
 10
2.9375
 20
-3.03125
 30
0.0
 41
1.03
 42
1.03
 43
0.0
  0
INSERT
  8
DAMAN
  2
100CROSS
 10
3.625
 20
-2.09375
 30
0.0
 41
0.6
 42
0.6
 43
0.6
  0
CIRCLE
  8
DAMAN
 10
3.812
 20
-3.71825
 30
0.0
 40
0.1405
  0
INSERT
  8
DAMAN
  2
100CROSS
 10
3.812
 20
-3.71825
 30
0.0
 41
0.25
 42
0.25
 43
0.0
  0
INSERT
  8
DAMAN
  2
100CROSS
 10
3.625
 20
0.0
 30
0.0
 41
0.6
 42
0.6
 43
0.6
  0
INSERT
  8
DAMAN
  2
100CROSS
 10
0.0
 20
-5.125
 30
0.0
 41
0.6
 42
0.6
 43
0.6
  0
INSERT
  8
DAMAN
  2
100CROSS
 10
0.0
 20
-3.03125
 30
0.0
 41
0.6
 42
0.6
 43
0.6
  0
INSERT
  8
DAMAN
  2
100CROSS
 10
0.0
 20
0.0
 30
0.0
 41
0.6
 42
0.6
 43
0.6
  0
INSERT
  8
DAMAN
  2
100CROSS
 10
0.0
 20
-1.15625
 30
0.0
 41
0.25
 42
0.25
 43
0.0
  0
CIRCLE
  8
DAMAN
 10
0.0
 20
-1.15625
 30
0.0
 40
0.1405
  0
CIRCLE
  8
DAMAN
 10
0.0
 20
0.0
 30
0.0
 40
0.234
  0
CIRCLE
  8
DAMAN
  6
HIDDEN
 10
0.0
 20
0.0
 30
0.0
 40
0.25
  0
CIRCLE
  8
DAMAN
  6
HIDDEN
 10
3.625
 20
0.0
 30
0.0
 40
0.25
  0
CIRCLE
  8
DAMAN
 10
3.625
 20
0.0
 30
0.0
 40
0.234
  0
CIRCLE
  8
DAMAN
  6
HIDDEN
 10
3.625
 20
-2.09375
 30
0.0
 40
0.25
  0
CIRCLE
  8
DAMAN
 10
3.625
 20
-2.09375
 30
0.0
 40
0.234
  0
CIRCLE
  8
DAMAN
  6
HIDDEN
 10
0.0
 20
-3.03125
 30
0.0
 40
0.25
  0
CIRCLE
  8
DAMAN
 10
0.0
 20
-3.03125
 30
0.0
 40
0.234
  0
CIRCLE
  8
DAMAN
  6
HIDDEN
 10
0.0
 20
-5.125
 30
0.0
 40
0.25
  0
CIRCLE
  8
DAMAN
 10
0.0
 20
-5.125
 30
0.0
 40
0.234
  0
CIRCLE
  8
DAMAN
  6
HIDDEN
 10
3.625
 20
-5.125
 30
0.0
 40
0.25
  0
CIRCLE
  8
DAMAN
 10
3.625
 20
-5.125
 30
0.0
 40
0.234
  0
CIRCLE
  8
DAMAN
 10
2.9375
 20
-1.15625
 30
0.0
 40
0.4845
  0
CIRCLE
  8
DAMAN
 10
0.6875
 20
-2.09375
 30
0.0
 40
0.4845
  0
CIRCLE
  8
DAMAN
 10
0.6875
 20
-3.96875
 30
0.0
 40
0.4845
  0
CIRCLE
  8
DAMAN
 10
2.9375
 20
-3.03125
 30
0.0
 40
0.4845
  0
CIRCLE
  8
DAMAN
 10
2.875
 20
-4.438
 30
0.0
 40
0.234
  0
TEXT
  8
DAMAN
 10
2.53125
 20
-0.65625
 30
0.0
 40
0.12
  1
T
  0
TEXT
  8
DAMAN
 10
2.5625
 20
-2.5
 30
0.0
 40
0.12
  1
P
  0
TEXT
  8
DAMAN
 10
2.625
 20
-4.15625
 30
0.0
 40
0.12
  1
Y
  0
TEXT
  8
DAMAN
 10
1.15625
 20
-3.4375
 30
0.0
 40
0.12
  1
B
  0
TEXT
  8
DAMAN
 10
1.1875
 20
-1.59375
 30
0.0
 40
0.12
  1
A
  0
ENDBLK
  8
0
  0
BLOCK
  8
0
  2
700MKCT
 70
    64
 10
0.0
 20
0.0
 30
0.0
  3
700MKCT
  0
LINE
  8
DAMAN
 10
-1.0625
 20
6.3125
 30
0.0
 11
0.5625
 21
6.3125
 31
0.0
  0
LINE
  8
DAMAN
 10
0.5625
 20
6.3125
 30
0.0
 11
0.5625
 21
-0.6875
 31
0.0
  0
LINE
  8
DAMAN
 10
0.5625
 20
-0.6875
 30
0.0
 11
-1.0625
 21
-0.6875
 31
0.0
  0
LINE
  8
DAMAN
 10
-1.0625
 20
-0.6875
 30
0.0
 11
-1.0625
 21
6.3125
 31
0.0
  0
LINE
  8
DAMAN
 10
-0.875
 20
-0.6875
 30
0.0
 11
-0.875
 21
6.3125
 31
0.0
  0
LINE
  8
DAMAN
 10
-0.875
 20
0.53125
 30
0.0
 11
-0.8125
 21
0.53125
 31
0.0
  0
LINE
  8
DAMAN
 10
-0.8125
 20
0.53125
 30
0.0
 11
-0.8125
 21
-0.53125
 31
0.0
  0
LINE
  8
DAMAN
 10
-0.8125
 20
-0.53125
 30
0.0
 11
-0.875
 21
-0.53125
 31
0.0
  0
LINE
  8
DAMAN
 10
-0.8125
 20
0.433013
 30
0.0
 11
-0.542835
 21
0.433013
 31
0.0
  0
LINE
  8
DAMAN
 10
-0.5
 20
0.358821
 30
0.0
 11
-0.5
 21
-0.358821
 31
0.0
  0
LINE
  8
DAMAN
 10
-0.542835
 20
-0.433013
 30
0.0
 11
-0.8125
 21
-0.433013
 31
0.0
  0
LINE
  8
DAMAN
 10
-0.8125
 20
0.216506
 30
0.0
 11
-0.5625
 21
0.216506
 31
0.0
  0
LINE
  8
DAMAN
 10
-0.8125
 20
-0.216506
 30
0.0
 11
-0.5625
 21
-0.216506
 31
0.0
  0
ARC
  8
DAMAN
 10
-0.90625
 20
0.0
 30
0.0
 40
0.40625
 50
327.795772
 51
32.204228
  0
ARC
  8
DAMAN
 10
-0.625
 20
-0.32476
 30
0.0
 40
0.125
 50
300.0
 51
60.0
  0
ARC
  8
DAMAN
 10
-0.625
 20
0.32476
 30
0.0
 40
0.125
 50
300.0
 51
60.0
  0
LINE
  8
DAMAN
 10
-0.542835
 20
0.433013
 30
0.0
 11
-0.5
 21
0.358821
 31
0.0
  0
LINE
  8
DAMAN
 10
-0.542835
 20
-0.433013
 30
0.0
 11
-0.5
 21
-0.358821
 31
0.0
  0
ARC
  8
DAMAN
 10
-0.90625
 20
5.625
 30
0.0
 40
0.40625
 50
327.795772
 51
32.204228
  0
LINE
  8
DAMAN
 10
-0.8125
 20
6.15625
 30
0.0
 11
-0.8125
 21
5.09375
 31
0.0
  0
LINE
  8
DAMAN
 10
-0.5
 20
5.983821
 30
0.0
 11
-0.5
 21
5.266179
 31
0.0
  0
ARC
  8
DAMAN
 10
-0.625
 20
5.94976
 30
0.0
 40
0.125
 50
300.0
 51
60.0
  0
LINE
  8
DAMAN
 10
-0.542835
 20
6.058013
 30
0.0
 11
-0.5
 21
5.983821
 31
0.0
  0
LINE
  8
DAMAN
 10
-0.8125
 20
6.058013
 30
0.0
 11
-0.542835
 21
6.058013
 31
0.0
  0
LINE
  8
DAMAN
 10
-0.875
 20
6.15625
 30
0.0
 11
-0.8125
 21
6.15625
 31
0.0
  0
LINE
  8
DAMAN
 10
-0.8125
 20
5.841506
 30
0.0
 11
-0.5625
 21
5.841506
 31
0.0
  0
ARC
  8
DAMAN
 10
-0.625
 20
5.30024
 30
0.0
 40
0.125
 50
300.0
 51
60.0
  0
LINE
  8
DAMAN
 10
-0.8125
 20
5.408494
 30
0.0
 11
-0.5625
 21
5.408494
 31
0.0
  0
LINE
  8
DAMAN
 10
-0.542835
 20
5.191987
 30
0.0
 11
-0.8125
 21
5.191987
 31
0.0
  0
LINE
  8
DAMAN
 10
-0.8125
 20
5.09375
 30
0.0
 11
-0.875
 21
5.09375
 31
0.0
  0
LINE
  8
DAMAN
 10
-0.542835
 20
5.191987
 30
0.0
 11
-0.5
 21
5.266179
 31
0.0
  0
CIRCLE
  8
DAMAN
 10
0.0
 20
5.625
 30
0.0
 40
0.53125
  0
CIRCLE
  8
DAMAN
 10
0.0
 20
0.0
 30
0.0
 40
0.53125
  0
POLYLINE
  8
DAMAN
 66
     1
 10
0.0
 20
0.0
 30
0.0
 70
     1
  0
VERTEX
  8
DAMAN
 10
0.375
 20
5.841506
 30
0.0
  0
VERTEX
  8
DAMAN
 10
0.0
 20
6.058013
 30
0.0
  0
VERTEX
  8
DAMAN
 10
-0.375
 20
5.841506
 30
0.0
  0
VERTEX
  8
DAMAN
 10
-0.375
 20
5.408494
 30
0.0
  0
VERTEX
  8
DAMAN
 10
0.0
 20
5.191987
 30
0.0
  0
VERTEX
  8
DAMAN
 10
0.375
 20
5.408494
 30
0.0
  0
SEQEND
  8
DAMAN
  0
CIRCLE
  8
DAMAN
 10
0.0
 20
5.625
 30
0.0
 40
0.375
  0
CIRCLE
  8
DAMAN
 10
0.0
 20
0.0
 30
0.0
 40
0.375
  0
POLYLINE
  8
DAMAN
 66
     1
 10
0.0
 20
0.0
 30
0.0
 70
     1
  0
VERTEX
  8
DAMAN
 10
0.375
 20
0.216506
 30
0.0
  0
VERTEX
  8
DAMAN
 10
0.0
 20
0.433013
 30
0.0
  0
VERTEX
  8
DAMAN
 10
-0.375
 20
0.216506
 30
0.0
  0
VERTEX
  8
DAMAN
 10
-0.375
 20
-0.216506
 30
0.0
  0
VERTEX
  8
DAMAN
 10
0.0
 20
-0.433013
 30
0.0
  0
VERTEX
  8
DAMAN
 10
0.375
 20
-0.216506
 30
0.0
  0
SEQEND
  8
DAMAN
  0
INSERT
  8
DAMAN
  2
100CROSS
 10
0.0
 20
5.625
 30
0.0
 41
0.8
 42
0.8
 43
0.0
  0
INSERT
  8
DAMAN
  2
100CROSS
 10
0.0
 20
0.0
 30
0.0
 41
0.8
 42
0.8
 43
0.0
  0
ENDBLK
  8
0
  0
BLOCK
  8
0
  2
04SAET
 70
     0
 10
0.0
 20
0.0
 30
0.0
  3
04SAET
  0
CIRCLE
  8
DAMAN
 10
0.0
 20
0.0
 30
0.0
 40
0.4375
  0
INSERT
  8
DAMAN
  2
100CROSS
 10
0.0
 20
0.0
 30
0.0
 41
0.8
 42
0.8
 43
0.0
  0
CIRCLE
  8
DAMAN
  6
HIDDEN
 10
0.0
 20
0.0
 30
0.0
 40
0.21875
  0
CIRCLE
  8
DAMAN
 10
0.0
 20
0.0
 30
0.0
 40
0.1875
  0
CIRCLE
  8
DAMAN
 10
0.0
 20
0.0
 30
0.0
 40
0.2435
  0
ENDBLK
  8
0
  0
BLOCK
  8
0
  2
125NPTFT
 70
    64
 10
0.0
 20
0.0
 30
0.0
  3
125NPTFT
  0
CIRCLE
  8
DAMAN
 10
0.0
 20
0.0
 30
0.0
 40
0.844
  0
CIRCLE
  8
DAMAN
 10
0.0
 20
0.0
 30
0.0
 40
0.7265
  0
INSERT
  8
DAMAN
  2
100CROSS
 10
0.0
 20
0.0
 30
0.0
 41
1.4
 42
1.4
 43
0.0
  0
CIRCLE
  8
DAMAN
 10
0.0
 20
0.0
 30
0.0
 40
0.78125
  0
ENDBLK
  8
0
  0
BLOCK
  8
0
  2
150NPTFT
 70
    64
 10
0.0
 20
0.0
 30
0.0
  3
150NPTFT
  0
CIRCLE
  8
DAMAN
 10
0.0
 20
0.0
 30
0.0
 40
0.859375
  0
CIRCLE
  8
DAMAN
 10
0.0
 20
0.0
 30
0.0
 40
0.960938
  0
INSERT
  8
DAMAN
  2
100CROSS
 10
0.0
 20
0.0
 30
0.0
 41
1.7
 42
1.7
 43
1.7
  0
CIRCLE
  8
DAMAN
 10
0.0
 20
0.0
 30
0.0
 40
0.90625
  0
ENDBLK
  8
0
  0
BLOCK
  8
0
  2
038NPTFT
 70
    64
 10
0.0
 20
0.0
 30
0.0
  3
038NPTFT
  0
INSERT
  8
DAMAN
  2
375NPTFT
 10
0.0
 20
0.0
 30
0.0
  0
ENDBLK
  8
0
  0
BLOCK
  8
0
  2
375NPTFT
 70
    64
 10
0.0
 20
0.0
 30
0.0
  3
375NPTFT
  0
INSERT
  8
DAMAN
  2
100CROSS
 10
0.0
 20
0.0
 30
0.0
 41
0.68
 42
0.68
 43
0.0
  0
CIRCLE
  8
DAMAN
 10
0.0
 20
0.0
 30
0.0
 40
0.3125
  0
CIRCLE
  8
DAMAN
 10
0.0
 20
0.0
 30
0.0
 40
0.281
  0
CIRCLE
  8
DAMAN
 10
0.0
 20
0.0
 30
0.0
 40
0.344
  0
ENDBLK
  8
0
  0
BLOCK
  8
0
  2
125BSPPT
 70
     0
 10
0.0
 20
0.0
 30
0.0
  3
125BSPPT
  0
CIRCLE
  8
DAMAN
 10
0.0
 20
0.0
 30
0.0
 40
1.125
  0
CIRCLE
  8
DAMAN
 10
0.0
 20
0.0
 30
0.0
 40
0.77
  0
CIRCLE
  8
DAMAN
  6
HIDDEN
 10
0.0
 20
0.0
 30
0.0
 40
0.825
  0
CIRCLE
  8
DAMAN
 10
0.0
 20
0.0
 30
0.0
 40
0.625
  0
CIRCLE
  8
DAMAN
 10
0.0
 20
0.0
 30
0.0
 40
0.875
  0
INSERT
  8
DAMAN
  2
100CROSS
 10
0.0
 20
0.0
 30
0.0
 41
2.1
 42
2.1
 43
0.0
  0
ENDBLK
  8
0
  0
BLOCK
  8
CDIM
  2
025NPTFT
 70
    64
 10
11.75
 20
9.75
 30
0.0
  0
INSERT
  8
CCENTER
  2
100CROSS
 10
11.75
 20
9.75
 30
0.0
 43
0.0
  0
CIRCLE
  8
CHIDDEN
 10
11.75
 20
9.75
 30
0.0
 40
0.28125
  0
CIRCLE
  8
CSOLID
 10
11.75
 20
9.75
 30
0.0
 40
0.5
  0
CIRCLE
  8
CSOLID
 10
11.75
 20
9.75
 30
0.0
 40
0.25
  0
ENDBLK
  8
CDIM
  0
ENDSEC
  0
SECTION
  2
ENTITIES
  0
LINE
  8
DAMAN
 10
0.0
 20
8.0
 30
0.0
 11
6.0
 21
8.0
 31
0.0
  0
LINE
  8
DAMAN
 10
6.0
 20
8.0
 30
0.0
 11
6.0
 21
15.0
 31
0.0
  0
LINE
  8
DAMAN
 10
6.0
 20
15.0
 30
0.0
 11
0.0
 21
15.0
 31
0.0
  0
LINE
  8
DAMAN
  6
DASHED
 10
0.0
 20
15.0
 30
0.0
 11
0.0
 21
8.0
 31
0.0
  0
TEXT
  8
DAMAN
 10
4.5
 20
14.4375
 30
0.0
 40
0.2
  1
T
 50
270.0
  0
TEXT
  8
DAMAN
 10
4.59375
 20
9.6875
 30
0.0
 40
0.2
  1
P
 50
270.0
  0
LINE
  8
DAMAN
 10
8.0
 20
8.0
 30
0.0
 11
24.75
 21
8.0
 31
0.0
  0
LINE
  8
DAMAN
 10
24.75
 20
8.0
 30
0.0
 11
24.75
 21
15.0
 31
0.0
  0
LINE
  8
DAMAN
 10
24.75
 20
15.0
 30
0.0
 11
8.0
 21
15.0
 31
0.0
  0
LINE
  8
DAMAN
 10
8.0
 20
15.0
 30
0.0
 11
8.0
 21
8.0
 31
0.0
  0
LINE
  8
DAMAN
 10
26.75
 20
15.0
 30
0.0
 11
32.75
 21
15.0
 31
0.0
  0
LINE
  8
DAMAN
 10
32.75
 20
8.0
 30
0.0
 11
26.75
 21
8.0
 31
0.0
  0
LINE
  8
DAMAN
  6
DASHED
 10
32.75
 20
15.0
 30
0.0
 11
32.75
 21
8.0
 31
0.0
  0
TEXT
  8
DAMAN
 10
28.25
 20
14.4375
 30
0.0
 40
0.2
  1
T
 50
90.0
 71
     2
  0
LINE
  8
DAMAN
 10
26.75
 20
8.0
 30
0.0
 11
26.75
 21
15.0
 31
0.0
  0
LINE
  8
DAMAN
 10
24.75
 20
8.0
 30
0.0
 11
24.75
 21
15.0
 31
0.0
  0
LINE
  8
DAMAN
 10
8.0
 20
15.0
 30
0.0
 11
8.0
 21
8.0
 31
0.0
  0
LINE
  8
DAMAN
 10
8.0
 20
1.0
 30
0.0
 11
24.74
 21
1.0
 31
0.0
  0
LINE
  8
DAMAN
 10
24.74
 20
1.0
 30
0.0
 11
24.75
 21
1.0
 31
0.0
  0
LINE
  8
DAMAN
 10
24.75
 20
1.0
 30
0.0
 11
24.75
 21
7.0
 31
0.0
  0
LINE
  8
DAMAN
 10
24.75
 20
7.0
 30
0.0
 11
8.0
 21
7.0
 31
0.0
  0
LINE
  8
DAMAN
 10
8.0
 20
7.0
 30
0.0
 11
8.0
 21
1.0
 31
0.0
  0
TEXT
  8
DAMAN
 10
28.28125
 20
9.625
 30
0.0
 40
0.2
  1
P
 50
90.0
  0
TEXT
  8
DAMAN
 10
12.15625
 20
6.59375
 30
0.0
 40
0.2
  1
B
  0
TEXT
  8
DAMAN
 10
12.125
 20
2.90625
 30
0.0
 40
0.2
  1
A
  0
TEXT
  8
DAMAN
 10
8.40625
 20
5.375
 30
0.0
 40
0.2
  1
Y
  0
TEXT
  8
DAMAN
 10
9.84375
 20
4.09375
 30
0.0
 40
0.2
  1
DAMAN ****
  0
INSERT
  8
DAMAN
  2
D08H
 10
9.312
 20
14.062
 30
0.0
  0
INSERT
  8
DAMAN
  2
700MKCT
 10
25.8125
 20
8.6875
 30
0.0
  0
INSERT
  8
DAMAN
  2
700MKCT
 10
6.9375
 20
14.3125
 30
0.0
 50
180.0
  0
INSERT
  8
DAMAN
  2
600MKS
 10
8.0
 20
1.0
 30
0.0
  0
INSERT
  8
DAMAN
  2
600MKS
 10
24.74
 20
1.0
 30
0.0
 41
-1.0
  0
INSERT
  8
DAMAN
  2
700MKT
 10
0.5
 20
8.688
 30
0.0
  0
INSERT
  8
DAMAN
  2
700MKT
 10
32.25
 20
8.688
 30
0.0
 41
-1.0
  0
INSERT
  8
DAMAN
  2
20SAET
 10
2.812
 20
10.438
 30
0.0
  0
INSERT
  8
DAMAN
  2
20SAET
 10
10.5
 20
5.812
 30
0.0
  0
INSERT
  8
DAMAN
  2
20SAET
 10
10.5
 20
2.188
 30
0.0
  0
INSERT
  8
DAMAN
  2
20SAET
 10
29.938
 20
10.438
 30
0.0
  0
INSERT
  8
DAMAN
  2
24SAET
 10
2.812
 20
13.531
 30
0.0
  0
INSERT
  8
DAMAN
  2
24SAET
 10
29.938
 20
13.531
 30
0.0
  0
INSERT
  8
DAMAN
  2
08SAET
 10
8.875
 20
4.625
 30
0.0
  0
INSERT
  8
DAMAN
  2
D08H
 10
14.562
 20
14.062
 30
0.0
  0
TEXT
  8
DAMAN
 10
17.40625
 20
6.59375
 30
0.0
 40
0.2
  1
B
  0
INSERT
  8
DAMAN
  2
20SAET
 10
15.75
 20
5.812
 30
0.0
  0
TEXT
  8
DAMAN
 10
17.375
 20
2.90625
 30
0.0
 40
0.2
  1
A
  0
INSERT
  8
DAMAN
  2
20SAET
 10
15.75
 20
2.188
 30
0.0
  0
INSERT
  8
DAMAN
  2
06SAET
 10
12.625
 20
3.812
 30
0.0
  0
TEXT
  8
DAMAN
 10
13.125
 20
4.46875
 30
0.0
 40
0.2
  1
GA
  0
INSERT
  8
DAMAN
  2
D08H
 10
19.812
 20
14.062
 30
0.0
  0
INSERT
  8
DAMAN
  2
20SAET
 10
21.0
 20
5.812
 30
0.0
  0
INSERT
  8
DAMAN
  2
20SAET
 10
21.0
 20
2.188
 30
0.0
  0
INSERT
  8
DAMAN
  2
08SAET
 10
23.875
 20
4.625
 30
0.0
  0
TEXT
  8
DAMAN
 10
22.625
 20
2.90625
 30
0.0
 40
0.2
  1
A
  0
TEXT
  8
DAMAN
 10
23.40625
 20
5.375
 30
0.0
 40
0.2
  1
Y
  0
TEXT
  8
DAMAN
 10
22.65625
 20
6.59375
 30
0.0
 40
0.2
  1
B
  0
ENDSEC
  0
EOF
