  0
SECTION
  2
HEADER
  9
$ACADVER
  1
AC1014
  9
$ACADMAINTVER
 70
     9
  9
$DWGCODEPAGE
  3
ANSI_1252
  9
$INSBASE
 10
0.0
 20
0.0
 30
0.0
  9
$EXTMIN
 10
-2.469773736565283
 20
2.530620606782754
 30
-0.0015258207003583
  9
$EXTMAX
 10
8.218805341814068
 20
13.1562738716166
 30
0.0000000349246037
  9
$LIMMIN
 10
0.0
 20
0.0
  9
$LIMMAX
 10
12.0
 20
9.0
  9
$ORTHOMODE
 70
     1
  9
$REGENMODE
 70
     1
  9
$FILLMODE
 70
     1
  9
$QTEXTMODE
 70
     0
  9
$MIRRTEXT
 70
     1
  9
$DRAGMODE
 70
     2
  9
$LTSCALE
 40
1.0
  9
$OSMODE
 70
    37
  9
$ATTMODE
 70
     1
  9
$TEXTSIZE
 40
0.188
  9
$TRACEWID
 40
0.05
  9
$TEXTSTYLE
  7
STANDARD
  9
$CLAYER
  8
DAMAN
  9
$CELTYPE
  6
BYLAYER
  9
$CECOLOR
 62
   256
  9
$CELTSCALE
 40
1.0
  9
$DELOBJ
 70
     1
  9
$DISPSILH
 70
     0
  9
$DIMSCALE
 40
1.0
  9
$DIMASZ
 40
0.18
  9
$DIMEXO
 40
0.0625
  9
$DIMDLI
 40
0.38
  9
$DIMRND
 40
0.0
  9
$DIMDLE
 40
0.0
  9
$DIMEXE
 40
0.18
  9
$DIMTP
 40
0.0
  9
$DIMTM
 40
0.0
  9
$DIMTXT
 40
0.18
  9
$DIMCEN
 40
0.09
  9
$DIMTSZ
 40
0.0
  9
$DIMTOL
 70
     0
  9
$DIMLIM
 70
     0
  9
$DIMTIH
 70
     1
  9
$DIMTOH
 70
     1
  9
$DIMSE1
 70
     0
  9
$DIMSE2
 70
     0
  9
$DIMTAD
 70
     0
  9
$DIMZIN
 70
     0
  9
$DIMBLK
  1

  9
$DIMASO
 70
     1
  9
$DIMSHO
 70
     1
  9
$DIMPOST
  1

  9
$DIMAPOST
  1

  9
$DIMALT
 70
     0
  9
$DIMALTD
 70
     2
  9
$DIMALTF
 40
25.4
  9
$DIMLFAC
 40
1.0
  9
$DIMTOFL
 70
     0
  9
$DIMTVP
 40
0.0
  9
$DIMTIX
 70
     0
  9
$DIMSOXD
 70
     0
  9
$DIMSAH
 70
     0
  9
$DIMBLK1
  1

  9
$DIMBLK2
  1

  9
$DIMSTYLE
  2
STANDARD
  9
$DIMCLRD
 70
     0
  9
$DIMCLRE
 70
     0
  9
$DIMCLRT
 70
     0
  9
$DIMTFAC
 40
1.0
  9
$DIMGAP
 40
0.09
  9
$DIMJUST
 70
     0
  9
$DIMSD1
 70
     0
  9
$DIMSD2
 70
     0
  9
$DIMTOLJ
 70
     1
  9
$DIMTZIN
 70
     0
  9
$DIMALTZ
 70
     0
  9
$DIMALTTZ
 70
     0
  9
$DIMFIT
 70
     3
  9
$DIMUPT
 70
     0
  9
$DIMUNIT
 70
     2
  9
$DIMDEC
 70
     4
  9
$DIMTDEC
 70
     4
  9
$DIMALTU
 70
     2
  9
$DIMALTTD
 70
     2
  9
$DIMTXSTY
  7
STANDARD
  9
$DIMAUNIT
 70
     0
  9
$LUNITS
 70
     2
  9
$LUPREC
 70
     4
  9
$SKETCHINC
 40
0.1
  9
$FILLETRAD
 40
0.0
  9
$AUNITS
 70
     0
  9
$AUPREC
 70
     0
  9
$MENU
  1
tom
  9
$ELEVATION
 40
0.0
  9
$PELEVATION
 40
0.0
  9
$THICKNESS
 40
0.0
  9
$LIMCHECK
 70
     0
  9
$BLIPMODE
 70
     0
  9
$CHAMFERA
 40
0.0
  9
$CHAMFERB
 40
0.0
  9
$CHAMFERC
 40
0.0
  9
$CHAMFERD
 40
0.0
  9
$SKPOLY
 70
     0
  9
$TDCREATE
 40
2449753.366871828
  9
$TDUPDATE
 40
2453424.246228506
  9
$TDINDWG
 40
0.0188071181
  9
$TDUSRTIMER
 40
0.0188069329
  9
$USRTIMER
 70
     1
  9
$ANGBASE
 50
0.0
  9
$ANGDIR
 70
     0
  9
$PDMODE
 70
     0
  9
$PDSIZE
 40
0.0
  9
$PLINEWID
 40
0.0
  9
$COORDS
 70
     1
  9
$SPLFRAME
 70
     0
  9
$SPLINETYPE
 70
     6
  9
$SPLINESEGS
 70
     8
  9
$ATTDIA
 70
     0
  9
$ATTREQ
 70
     1
  9
$HANDLING
 70
-16383
  9
$HANDSEED
  5
149
  9
$SURFTAB1
 70
     6
  9
$SURFTAB2
 70
     6
  9
$SURFTYPE
 70
     6
  9
$SURFU
 70
     6
  9
$SURFV
 70
     6
  9
$UCSNAME
  2

  9
$UCSORG
 10
0.0
 20
0.0
 30
0.0
  9
$UCSXDIR
 10
1.0
 20
0.0
 30
0.0
  9
$UCSYDIR
 10
0.0
 20
1.0
 30
0.0
  9
$PUCSNAME
  2

  9
$PUCSORG
 10
0.0
 20
0.0
 30
0.0
  9
$PUCSXDIR
 10
1.0
 20
0.0
 30
0.0
  9
$PUCSYDIR
 10
0.0
 20
1.0
 30
0.0
  9
$USERI1
 70
     0
  9
$USERI2
 70
     0
  9
$USERI3
 70
     0
  9
$USERI4
 70
     0
  9
$USERI5
 70
     0
  9
$USERR1
 40
0.0
  9
$USERR2
 40
0.0
  9
$USERR3
 40
0.0
  9
$USERR4
 40
0.0
  9
$USERR5
 40
0.0
  9
$WORLDVIEW
 70
     1
  9
$SHADEDGE
 70
     3
  9
$SHADEDIF
 70
    70
  9
$TILEMODE
 70
     1
  9
$MAXACTVP
 70
    16
  9
$PINSBASE
 10
0.0
 20
0.0
 30
0.0
  9
$PLIMCHECK
 70
     0
  9
$PEXTMIN
 10
1.000000000000000E+20
 20
1.000000000000000E+20
 30
1.000000000000000E+20
  9
$PEXTMAX
 10
-1.000000000000000E+20
 20
-1.000000000000000E+20
 30
-1.000000000000000E+20
  9
$PLIMMIN
 10
0.0
 20
0.0
  9
$PLIMMAX
 10
12.0
 20
9.0
  9
$UNITMODE
 70
     0
  9
$VISRETAIN
 70
     0
  9
$PLINEGEN
 70
     0
  9
$PSLTSCALE
 70
     1
  9
$TREEDEPTH
 70
  3020
  9
$PICKSTYLE
 70
     1
  9
$CMLSTYLE
  2
STANDARD
  9
$CMLJUST
 70
     0
  9
$CMLSCALE
 40
1.0
  9
$PROXYGRAPHICS
 70
     1
  9
$MEASUREMENT
 70
     0
  0
ENDSEC
  0
SECTION
  2
CLASSES
  0
CLASS
  1
ACDBDICTIONARYWDFLT
  2
AcDbDictionaryWithDefault
  3
AutoCAD 2000
 90
        0
280
     0
281
     0
  0
CLASS
  1
ACDBPLACEHOLDER
  2
AcDbPlaceHolder
  3
AutoCAD 2000
 90
        0
280
     0
281
     0
  0
CLASS
  1
LAYOUT
  2
AcDbLayout
  3
AutoCAD 2000
 90
        0
280
     0
281
     0
  0
CLASS
  1
LONG_TRANSACTION
  2
AcDbLongTransaction
  3
AutoCAD 2000
 90
        0
280
     0
281
     0
  0
CLASS
  1
LWPOLYLINE
  2
AcDbPolyline
  3
AutoCAD 2000
 90
        0
280
     0
281
     1
  0
CLASS
  1
HATCH
  2
AcDbHatch
  3
AutoCAD 2000
 90
        0
280
     0
281
     1
  0
CLASS
  1
XRECORD
  2
AcDbXrecord
  3
AutoCAD 2000
 90
        0
280
     0
281
     0
  0
ENDSEC
  0
SECTION
  2
TABLES
  0
TABLE
  2
VPORT
  5
8
330
0
100
AcDbSymbolTable
 70
     4
  0
VPORT
  5
124
330
8
100
AcDbSymbolTableRecord
100
AcDbViewportTableRecord
  2
*ACTIVE
 70
     0
 10
0.0
 20
0.0
 11
1.0
 21
1.0
 12
2.837237542479861
 22
7.871906783210613
 13
0.0
 23
0.0
 14
0.03125
 24
0.03125
 15
0.0
 25
0.0
 16
0.0
 26
0.0
 36
1.0
 17
0.0
 27
0.0
 37
0.0
 40
11.79957801607344
 41
1.647569444444444
 42
50.0
 43
0.0
 44
0.0
 50
0.0
 51
0.0
 71
     0
 72
   100
 73
     1
 74
     1
 75
     1
 76
     0
 77
     0
 78
     0
  0
ENDTAB
  0
TABLE
  2
LTYPE
  5
5
330
0
100
AcDbSymbolTable
 70
     4
  0
LTYPE
  5
13
330
5
100
AcDbSymbolTableRecord
100
AcDbLinetypeTableRecord
  2
BYBLOCK
 70
     0
  3

 72
    65
 73
     0
 40
0.0
  0
LTYPE
  5
14
330
5
100
AcDbSymbolTableRecord
100
AcDbLinetypeTableRecord
  2
BYLAYER
 70
     0
  3

 72
    65
 73
     0
 40
0.0
  0
LTYPE
  5
15
330
5
100
AcDbSymbolTableRecord
100
AcDbLinetypeTableRecord
  2
CONTINUOUS
 70
     0
  3
Solid line
 72
    65
 73
     0
 40
0.0
  0
LTYPE
  5
24
330
5
100
AcDbSymbolTableRecord
100
AcDbLinetypeTableRecord
  2
CENTER
 70
     0
  3
____ _ ____ _ ____ _ ____ _ ____ _ ____ _ ____
 72
    65
 73
     4
 40
2.0
 49
1.25
 74
     0
 49
-0.25
 74
     0
 49
0.25
 74
     0
 49
-0.25
 74
     0
  0
LTYPE
  5
25
330
5
100
AcDbSymbolTableRecord
100
AcDbLinetypeTableRecord
  2
HIDDEN
 70
     0
  3
_ _ _ _ _ _ _ _ _ _ _ _ _ _ _ _ _ _ _ _ _ _ _
 72
    65
 73
     2
 40
0.375
 49
0.25
 74
     0
 49
-0.125
 74
     0
  0
LTYPE
  5
26
330
5
100
AcDbSymbolTableRecord
100
AcDbLinetypeTableRecord
  2
PHANTOM
 70
     0
  3
_____ _ _ _____ _ _ _____ _ _ _____ _ _ ____
 72
    65
 73
     6
 40
2.5
 49
1.25
 74
     0
 49
-0.25
 74
     0
 49
0.25
 74
     0
 49
-0.25
 74
     0
 49
0.25
 74
     0
 49
-0.25
 74
     0
  0
ENDTAB
  0
TABLE
  2
LAYER
  5
2
330
0
100
AcDbSymbolTable
 70
     8
  0
LAYER
  5
10
330
2
100
AcDbSymbolTableRecord
100
AcDbLayerTableRecord
  2
0
 70
     0
 62
     7
  6
CONTINUOUS
  0
LAYER
  5
22
330
2
100
AcDbSymbolTableRecord
100
AcDbLayerTableRecord
  2
DAMAN
 70
     0
 62
     5
  6
CONTINUOUS
  0
LAYER
  5
27
330
2
100
AcDbSymbolTableRecord
100
AcDbLayerTableRecord
  2
BORDER
 70
     0
 62
     7
  6
CONTINUOUS
  0
LAYER
  5
28
330
2
100
AcDbSymbolTableRecord
100
AcDbLayerTableRecord
  2
CSOLID
 70
     0
 62
     3
  6
CONTINUOUS
  0
LAYER
  5
29
330
2
100
AcDbSymbolTableRecord
100
AcDbLayerTableRecord
  2
CCENTER
 70
     0
 62
     4
  6
CENTER
  0
LAYER
  5
2A
330
2
100
AcDbSymbolTableRecord
100
AcDbLayerTableRecord
  2
CDIM
 70
     0
 62
     2
  6
CONTINUOUS
  0
LAYER
  5
2B
330
2
100
AcDbSymbolTableRecord
100
AcDbLayerTableRecord
  2
CHIDDEN
 70
     0
 62
     3
  6
HIDDEN
  0
LAYER
  5
2C
330
2
100
AcDbSymbolTableRecord
100
AcDbLayerTableRecord
  2
PHANTOM
 70
     0
 62
     1
  6
PHANTOM
  0
ENDTAB
  0
TABLE
  2
STYLE
  5
3
330
0
100
AcDbSymbolTable
 70
     2
  0
STYLE
  5
11
330
3
100
AcDbSymbolTableRecord
100
AcDbTextStyleTableRecord
  2
STANDARD
 70
     0
 40
0.0
 41
1.0
 50
0.0
 71
     0
 42
0.188
  3
txt
  4

  0
STYLE
  5
2D
330
3
100
AcDbSymbolTableRecord
100
AcDbTextStyleTableRecord
  2
STR
 70
     0
 40
0.0
 41
1.0
 50
0.0
 71
     0
 42
0.25
  3
romans
  4

  0
ENDTAB
  0
TABLE
  2
VIEW
  5
6
330
0
100
AcDbSymbolTable
 70
     0
  0
ENDTAB
  0
TABLE
  2
UCS
  5
7
330
0
100
AcDbSymbolTable
 70
     0
  0
ENDTAB
  0
TABLE
  2
APPID
  5
9
330
0
100
AcDbSymbolTable
 70
     1
  0
APPID
  5
12
330
9
100
AcDbSymbolTableRecord
100
AcDbRegAppTableRecord
  2
ACAD
 70
     0
  0
ENDTAB
  0
TABLE
  2
DIMSTYLE
  5
A
330
0
100
AcDbSymbolTable
 70
     1
  0
DIMSTYLE
105
113
330
A
100
AcDbSymbolTableRecord
100
AcDbDimStyleTableRecord
  2
STANDARD
 70
     0
  3

  4

  5

  6

  7

 40
1.0
 41
0.18
 42
0.0625
 43
0.38
 44
0.18
 45
0.0
 46
0.0
 47
0.0
 48
0.0
140
0.18
141
0.09
142
0.0
143
25.4
144
1.0
145
0.0
146
1.0
147
0.09
 71
     0
 72
     0
 73
     1
 74
     1
 75
     0
 76
     0
 77
     0
 78
     0
170
     0
171
     2
172
     0
173
     0
174
     0
175
     0
176
     0
177
     0
178
     0
270
     2
271
     4
272
     4
273
     2
274
     2
340
11
275
     0
280
     0
281
     0
282
     0
283
     1
284
     0
285
     0
286
     0
287
     3
288
     0
  0
ENDTAB
  0
TABLE
  2
BLOCK_RECORD
  5
1
330
0
100
AcDbSymbolTable
 70
     8
  0
BLOCK_RECORD
  5
1E
102
{ACAD_XDICTIONARY
360
147
102
}
330
1
100
AcDbSymbolTableRecord
100
AcDbBlockTableRecord
  2
*MODEL_SPACE
  0
BLOCK_RECORD
  5
1A
102
{ACAD_XDICTIONARY
360
145
102
}
330
1
100
AcDbSymbolTableRecord
100
AcDbBlockTableRecord
  2
*PAPER_SPACE
  0
BLOCK_RECORD
  5
30
330
1
100
AcDbSymbolTableRecord
100
AcDbBlockTableRecord
  2
D08CPPG
  0
BLOCK_RECORD
  5
44
330
1
100
AcDbSymbolTableRecord
100
AcDbBlockTableRecord
  2
100CROSS
  0
BLOCK_RECORD
  5
96
330
1
100
AcDbSymbolTableRecord
100
AcDbBlockTableRecord
  2
025NPTFT
  0
BLOCK_RECORD
  5
A9
330
1
100
AcDbSymbolTableRecord
100
AcDbBlockTableRecord
  2
050CROSS
  0
BLOCK_RECORD
  5
B5
330
1
100
AcDbSymbolTableRecord
100
AcDbBlockTableRecord
  2
250NPTFT
  0
BLOCK_RECORD
  5
B8
330
1
100
AcDbSymbolTableRecord
100
AcDbBlockTableRecord
  2
500SHCST
  0
BLOCK_RECORD
  5
C6
330
1
100
AcDbSymbolTableRecord
100
AcDbBlockTableRecord
  2
012NPTFT
  0
BLOCK_RECORD
  5
CD
330
1
100
AcDbSymbolTableRecord
100
AcDbBlockTableRecord
  2
500SHCS
  0
ENDTAB
  0
ENDSEC
  0
SECTION
  2
BLOCKS
  0
BLOCK
  5
1F
330
1E
100
AcDbEntity
  8
0
100
AcDbBlockBegin
  2
*MODEL_SPACE
 70
     0
 10
0.0
 20
0.0
 30
0.0
  3
*MODEL_SPACE
  1

  0
ENDBLK
  5
20
330
1E
100
AcDbEntity
  8
0
100
AcDbBlockEnd
  0
BLOCK
  5
1B
330
1A
100
AcDbEntity
 67
     1
  8
0
100
AcDbBlockBegin
  2
*PAPER_SPACE
 70
     0
 10
0.0
 20
0.0
 30
0.0
  3
*PAPER_SPACE
  1

  0
ENDBLK
  5
1C
330
1A
100
AcDbEntity
 67
     1
  8
0
100
AcDbBlockEnd
  0
BLOCK
  5
31
330
30
100
AcDbEntity
  8
0
100
AcDbBlockBegin
  2
D08CPPG
 70
     0
 10
0.0
 20
0.0
 30
0.0
  3
D08CPPG
  1

  0
LWPOLYLINE
  5
32
330
30
100
AcDbEntity
  8
BORDER
100
AcDbPolyline
 90
        4
 70
     1
 43
0.0
 10
6.0
 20
4.5
 10
6.0
 20
10.5
 10
6.75
 20
10.5
 10
6.75
 20
4.5
  0
LWPOLYLINE
  5
38
330
30
100
AcDbEntity
  8
BORDER
100
AcDbPolyline
 90
        4
 70
     1
 43
0.0
 10
-0.59375
 20
4.5
 10
-0.59375
 20
10.5
 10
3.90625
 20
10.5
 10
3.90625
 20
4.5
  0
LWPOLYLINE
  5
3E
330
30
100
AcDbEntity
  8
BORDER
100
AcDbPolyline
 90
        4
 70
     1
 43
0.0
 10
10.0
 20
4.5
 10
10.0
 20
10.5
 10
14.5
 20
10.5
 10
14.5
 20
4.5
  0
INSERT
  5
45
330
30
100
AcDbEntity
  8
CCENTER
100
AcDbBlockReference
  2
100CROSS
 10
3.46875
 20
4.9375
 30
0.0
 41
0.6
 42
0.6
 43
0.6
  0
INSERT
  5
46
330
30
100
AcDbEntity
  8
CCENTER
100
AcDbBlockReference
  2
100CROSS
 10
3.46875
 20
7.96875
 30
0.0
 41
0.6
 42
0.6
 43
0.6
  0
INSERT
  5
47
330
30
100
AcDbEntity
  8
CCENTER
100
AcDbBlockReference
  2
100CROSS
 10
-0.15625
 20
7.03125
 30
0.0
 41
0.6
 42
0.6
 43
0.6
  0
INSERT
  5
48
330
30
100
AcDbEntity
  8
CCENTER
100
AcDbBlockReference
  2
100CROSS
 10
3.46875
 20
10.0625
 30
0.0
 41
0.6
 42
0.6
 43
0.6
  0
INSERT
  5
49
330
30
100
AcDbEntity
  8
CCENTER
100
AcDbBlockReference
  2
100CROSS
 10
-0.15625
 20
4.9375
 30
0.0
 41
0.6
 42
0.6
 43
0.6
  0
INSERT
  5
4A
330
30
100
AcDbEntity
  8
CCENTER
100
AcDbBlockReference
  2
100CROSS
 10
-0.15625
 20
10.0625
 30
0.0
 41
0.6
 42
0.6
 43
0.6
  0
CIRCLE
  5
4B
330
30
100
AcDbEntity
  8
CSOLID
100
AcDbCircle
 10
-0.15625
 20
10.0625
 30
0.0
 40
0.2655
  0
CIRCLE
  5
4C
330
30
100
AcDbEntity
  8
CSOLID
100
AcDbCircle
 10
-0.15625
 20
4.9375
 30
0.0
 40
0.2655
  0
CIRCLE
  5
4D
330
30
100
AcDbEntity
  8
CSOLID
100
AcDbCircle
 10
3.46875
 20
10.0625
 30
0.0
 40
0.2655
  0
CIRCLE
  5
4E
330
30
100
AcDbEntity
  8
CSOLID
100
AcDbCircle
 10
3.46875
 20
4.9375
 30
0.0
 40
0.2655
  0
CIRCLE
  5
4F
330
30
100
AcDbEntity
  8
CSOLID
100
AcDbCircle
 10
3.46875
 20
7.96875
 30
0.0
 40
0.2655
  0
CIRCLE
  5
50
330
30
100
AcDbEntity
  8
CSOLID
100
AcDbCircle
 10
-0.15625
 20
7.03125
 30
0.0
 40
0.2655
  0
INSERT
  5
51
330
30
100
AcDbEntity
  8
CCENTER
100
AcDbBlockReference
  2
100CROSS
 10
10.43749999999999
 20
4.9375
 30
0.0
 41
-0.6
 42
0.6
 43
0.6
  0
INSERT
  5
52
330
30
100
AcDbEntity
  8
CCENTER
100
AcDbBlockReference
  2
100CROSS
 10
10.43749999999999
 20
7.96875
 30
0.0
 41
-0.6
 42
0.6
 43
0.6
  0
INSERT
  5
53
330
30
100
AcDbEntity
  8
CCENTER
100
AcDbBlockReference
  2
100CROSS
 10
14.0625
 20
7.03125
 30
0.0
 41
-0.6
 42
0.6
 43
0.6
  0
INSERT
  5
54
330
30
100
AcDbEntity
  8
CCENTER
100
AcDbBlockReference
  2
100CROSS
 10
10.43749999999999
 20
10.0625
 30
0.0
 41
-0.6
 42
0.6
 43
0.6
  0
INSERT
  5
55
330
30
100
AcDbEntity
  8
CCENTER
100
AcDbBlockReference
  2
100CROSS
 10
14.0625
 20
4.9375
 30
0.0
 41
-0.6
 42
0.6
 43
0.6
  0
INSERT
  5
56
330
30
100
AcDbEntity
  8
CCENTER
100
AcDbBlockReference
  2
100CROSS
 10
14.0625
 20
10.0625
 30
0.0
 41
-0.6
 42
0.6
 43
0.6
  0
INSERT
  5
57
330
30
100
AcDbEntity
  8
CCENTER
100
AcDbBlockReference
  2
100CROSS
 10
14.0625
 20
8.90625
 30
0.0
 41
-0.25
 42
0.25
  0
INSERT
  5
58
330
30
100
AcDbEntity
  8
CCENTER
100
AcDbBlockReference
  2
100CROSS
 10
10.2505
 20
6.344249999999999
 30
0.0
 41
-0.25
 42
0.25
  0
INSERT
  5
59
330
30
100
AcDbEntity
  8
CCENTER
100
AcDbBlockReference
  2
100CROSS
 10
13.375
 20
6.09375
 30
0.0
 41
-1.03
 42
1.03
  0
INSERT
  5
5A
330
30
100
AcDbEntity
  8
CCENTER
100
AcDbBlockReference
  2
100CROSS
 10
11.1875
 20
5.625
 30
0.0
 41
-0.875
 42
0.875
  0
INSERT
  5
5B
330
30
100
AcDbEntity
  8
CCENTER
100
AcDbBlockReference
  2
100CROSS
 10
11.125
 20
7.03125
 30
0.0
 41
-1.03
 42
1.03
  0
INSERT
  5
5C
330
30
100
AcDbEntity
  8
CCENTER
100
AcDbBlockReference
  2
100CROSS
 10
11.125
 20
8.90625
 30
0.0
 41
-1.03
 42
1.03
  0
INSERT
  5
5D
330
30
100
AcDbEntity
  8
CCENTER
100
AcDbBlockReference
  2
100CROSS
 10
13.375
 20
7.96875
 30
0.0
 41
-1.03
 42
1.03
  0
INSERT
  5
5E
330
30
100
AcDbEntity
  8
CCENTER
100
AcDbBlockReference
  2
100CROSS
 10
13.3125
 20
9.375
 30
0.0
 41
-0.875
 42
0.875
  0
CIRCLE
  5
5F
330
30
100
AcDbEntity
  8
CSOLID
100
AcDbCircle
 10
11.1875
 20
5.6245
 30
0.0
 40
0.2189999999999999
  0
CIRCLE
  5
60
330
30
100
AcDbEntity
  8
CSOLID
100
AcDbCircle
 10
13.3125
 20
9.374499999999999
 30
0.0
 40
0.2189999999999999
  0
CIRCLE
  5
61
330
30
100
AcDbEntity
  8
CSOLID
100
AcDbCircle
 10
10.2505
 20
6.344249999999999
 30
0.0
 40
0.1405
  0
CIRCLE
  5
62
330
30
100
AcDbEntity
  8
CSOLID
100
AcDbCircle
 10
14.0625
 20
8.90625
 30
0.0
 40
0.1405
  0
CIRCLE
  5
63
330
30
100
AcDbEntity
  8
CSOLID
100
AcDbCircle
 10
11.12449999999999
 20
8.906499999999999
 30
0.0
 40
0.453
  0
CIRCLE
  5
64
330
30
100
AcDbEntity
  8
CSOLID
100
AcDbCircle
 10
13.3745
 20
7.968999999999999
 30
0.0
 40
0.453
  0
CIRCLE
  5
65
330
30
100
AcDbEntity
  8
CSOLID
100
AcDbCircle
 10
13.3745
 20
6.093999999999999
 30
0.0
 40
0.453
  0
CIRCLE
  5
66
330
30
100
AcDbEntity
  8
CSOLID
100
AcDbCircle
 10
14.0625
 20
10.0625
 30
0.0
 40
0.2655
  0
CIRCLE
  5
67
330
30
100
AcDbEntity
  8
CSOLID
100
AcDbCircle
 10
14.0625
 20
4.9375
 30
0.0
 40
0.2655
  0
CIRCLE
  5
68
330
30
100
AcDbEntity
  8
CSOLID
100
AcDbCircle
 10
10.43749999999999
 20
10.0625
 30
0.0
 40
0.2655
  0
CIRCLE
  5
69
330
30
100
AcDbEntity
  8
CSOLID
100
AcDbCircle
 10
10.43749999999999
 20
4.9375
 30
0.0
 40
0.2655
  0
CIRCLE
  5
6A
330
30
100
AcDbEntity
  8
CSOLID
100
AcDbCircle
 10
10.43749999999999
 20
7.96875
 30
0.0
 40
0.2655
  0
CIRCLE
  5
6B
330
30
100
AcDbEntity
  8
CSOLID
100
AcDbCircle
 10
14.0625
 20
7.03125
 30
0.0
 40
0.2655
  0
CIRCLE
  5
6C
330
30
100
AcDbEntity
  8
CSOLID
100
AcDbCircle
 10
13.3125
 20
9.375
 30
0.0
 40
0.5
  0
CIRCLE
  5
6D
330
30
100
AcDbEntity
  8
CSOLID
100
AcDbCircle
 10
11.1875
 20
5.625
 30
0.0
 40
0.5
  0
CIRCLE
  5
6E
330
30
100
AcDbEntity
  8
CSOLID
100
AcDbCircle
 10
13.375
 20
6.09375
 30
0.0
 40
0.6559999999999999
  0
CIRCLE
  5
6F
330
30
100
AcDbEntity
  8
CSOLID
100
AcDbCircle
 10
11.125
 20
7.03125
 30
0.0
 40
0.6559999999999999
  0
CIRCLE
  5
70
330
30
100
AcDbEntity
  8
CSOLID
100
AcDbCircle
 10
11.125
 20
8.90625
 30
0.0
 40
0.6559999999999999
  0
CIRCLE
  5
71
330
30
100
AcDbEntity
  8
CSOLID
100
AcDbCircle
 10
13.375
 20
7.96875
 30
0.0
 40
0.6559999999999999
  0
CIRCLE
  5
72
330
30
100
AcDbEntity
  8
CSOLID
100
AcDbCircle
 10
11.12449999999999
 20
7.0315
 30
0.0
 40
0.218
  0
LINE
  5
73
330
30
100
AcDbEntity
  8
CDIM
100
AcDbLine
 10
14.5
 20
10.698213
 30
0.0
 11
14.5
 21
11.646425
 31
0.0
  0
LINE
  5
74
330
30
100
AcDbEntity
  8
CDIM
100
AcDbLine
 10
11.12449999999999
 20
9.557711999999998
 30
0.0
 11
11.12449999999999
 21
11.646425
 31
0.0
  0
LINE
  5
75
330
30
100
AcDbEntity
  8
CDIM
100
AcDbLine
 10
14.10357499999999
 20
11.25
 30
0.0
 11
13.88524
 21
11.25
 31
0.0
  0
LINE
  5
76
330
30
100
AcDbEntity
  8
CDIM
100
AcDbLine
 10
11.52092499999999
 20
11.25
 30
0.0
 11
11.73926
 21
11.25
 31
0.0
  0
SOLID
  5
77
330
30
100
AcDbEntity
  8
CDIM
100
AcDbTrace
 10
14.10357499999999
 20
11.18392899999999
 30
0.0
 11
14.10357499999999
 21
11.316071
 31
0.0
 12
14.5
 22
11.25
 32
0.0
 13
14.5
 23
11.25
 33
0.0
  0
SOLID
  5
78
330
30
100
AcDbEntity
  8
CDIM
100
AcDbTrace
 10
11.52092499999999
 20
11.18392899999999
 30
0.0
 11
11.52092499999999
 21
11.316071
 31
0.0
 12
11.12449999999999
 22
11.25
 32
0.0
 13
11.12449999999999
 23
11.25
 33
0.0
  0
TEXT
  5
79
330
30
100
AcDbEntity
  8
CDIM
100
AcDbText
 10
12.135685
 20
11.028002
 30
0.0
 40
0.4439960000000001
  1
3.38
  7
STR
100
AcDbText
  0
LINE
  5
7A
330
30
100
AcDbEntity
  8
CDIM
100
AcDbLine
 10
14.5
 20
10.698213
 30
0.0
 11
14.5
 21
12.7732
 31
0.0
  0
LINE
  5
7B
330
30
100
AcDbEntity
  8
CDIM
100
AcDbLine
 10
10.0
 20
10.698213
 30
0.0
 11
10.0
 21
12.7732
 31
0.0
  0
LINE
  5
7C
330
30
100
AcDbEntity
  8
CDIM
100
AcDbLine
 10
14.10357499999999
 20
12.376775
 30
0.0
 11
13.32298999999999
 21
12.376775
 31
0.0
  0
LINE
  5
7D
330
30
100
AcDbEntity
  8
CDIM
100
AcDbLine
 10
10.396425
 20
12.376775
 30
0.0
 11
11.17701
 21
12.376775
 31
0.0
  0
SOLID
  5
7E
330
30
100
AcDbEntity
  8
CDIM
100
AcDbTrace
 10
14.10357499999999
 20
12.310704
 30
0.0
 11
14.10357499999999
 21
12.442846
 31
0.0
 12
14.5
 22
12.376775
 32
0.0
 13
14.5
 23
12.376775
 33
0.0
  0
SOLID
  5
7F
330
30
100
AcDbEntity
  8
CDIM
100
AcDbTrace
 10
10.396425
 20
12.310704
 30
0.0
 11
10.396425
 21
12.442846
 31
0.0
 12
10.0
 22
12.376775
 32
0.0
 13
10.0
 23
12.376775
 33
0.0
  0
TEXT
  5
80
330
30
100
AcDbEntity
  8
CDIM
100
AcDbText
 10
11.573435
 20
12.154777
 30
0.0
 40
0.4439960000000001
  1
4.50
  7
STR
100
AcDbText
  0
LINE
  5
81
330
30
100
AcDbEntity
  8
CDIM
100
AcDbLine
 10
9.801788
 20
10.5
 30
0.0
 11
8.728574999999999
 21
10.5
 31
0.0
  0
LINE
  5
82
330
30
100
AcDbEntity
  8
CDIM
100
AcDbLine
 10
10.669288
 20
7.03125
 30
0.0
 11
8.728574999999999
 21
7.03125
 31
0.0
  0
LINE
  5
83
330
30
100
AcDbEntity
  8
CDIM
100
AcDbLine
 10
9.125
 20
10.103575
 30
0.0
 11
9.125
 21
9.384047999999999
 31
0.0
  0
LINE
  5
84
330
30
100
AcDbEntity
  8
CDIM
100
AcDbLine
 10
9.125
 20
7.427674999999999
 30
0.0
 11
9.125
 21
8.147202
 31
0.0
  0
SOLID
  5
85
330
30
100
AcDbEntity
  8
CDIM
100
AcDbTrace
 10
9.191071
 20
10.103575
 30
0.0
 11
9.058928999999999
 21
10.103575
 31
0.0
 12
9.125
 22
10.5
 32
0.0
 13
9.125
 23
10.5
 33
0.0
  0
SOLID
  5
86
330
30
100
AcDbEntity
  8
CDIM
100
AcDbTrace
 10
9.191071
 20
7.427674999999999
 30
0.0
 11
9.058928999999999
 21
7.427674999999999
 31
0.0
 12
9.125
 22
7.03125
 32
0.0
 13
9.125
 23
7.03125
 33
0.0
  0
TEXT
  5
87
330
30
100
AcDbEntity
  8
CDIM
100
AcDbText
 10
8.448434999999999
 20
8.543627
 30
0.0
 40
0.4439960000000001
  1
3.47
  7
STR
100
AcDbText
  0
LINE
  5
88
330
30
100
AcDbEntity
  8
CDIM
100
AcDbLine
 10
9.801788
 20
10.5
 30
0.0
 11
7.539299999999999
 21
10.5
 31
0.0
  0
LINE
  5
89
330
30
100
AcDbEntity
  8
CDIM
100
AcDbLine
 10
9.801788
 20
4.5
 30
0.0
 11
7.539299999999999
 21
4.5
 31
0.0
  0
LINE
  5
8A
330
30
100
AcDbEntity
  8
CDIM
100
AcDbLine
 10
7.935724999999999
 20
10.103575
 30
0.0
 11
7.935724999999999
 21
8.118422999999999
 31
0.0
  0
LINE
  5
8B
330
30
100
AcDbEntity
  8
CDIM
100
AcDbLine
 10
7.935724999999999
 20
4.896424999999999
 30
0.0
 11
7.935724999999999
 21
6.881577
 31
0.0
  0
SOLID
  5
8C
330
30
100
AcDbEntity
  8
CDIM
100
AcDbTrace
 10
8.001796
 20
10.103575
 30
0.0
 11
7.869653999999999
 21
10.103575
 31
0.0
 12
7.935724999999999
 22
10.5
 32
0.0
 13
7.935724999999999
 23
10.5
 33
0.0
  0
SOLID
  5
8D
330
30
100
AcDbEntity
  8
CDIM
100
AcDbTrace
 10
8.001796
 20
4.896424999999999
 30
0.0
 11
7.869653999999999
 21
4.896424999999999
 31
0.0
 12
7.935724999999999
 22
4.5
 32
0.0
 13
7.935724999999999
 23
4.5
 33
0.0
  0
TEXT
  5
8E
330
30
100
AcDbEntity
  8
CDIM
100
AcDbText
 10
7.269731
 20
7.278002
 30
0.0
 40
0.4439960000000001
  1
6.00
  7
STR
100
AcDbText
  0
LINE
  5
8F
330
30
100
AcDbEntity
  8
CDIM
100
AcDbLine
 10
6.75
 20
10.698213
 30
0.0
 11
6.75
 21
11.646425
 31
0.0
  0
LINE
  5
90
330
30
100
AcDbEntity
  8
CDIM
100
AcDbLine
 10
6.0
 20
10.698213
 30
0.0
 11
6.0
 21
11.646425
 31
0.0
  0
LINE
  5
91
330
30
100
AcDbEntity
  8
CDIM
100
AcDbLine
 10
5.603575
 20
11.25
 30
0.0
 11
5.20715
 21
11.25
 31
0.0
  0
LINE
  5
92
330
30
100
AcDbEntity
  8
CDIM
100
AcDbLine
 10
7.146424999999999
 20
11.25
 30
0.0
 11
7.542849999999999
 21
11.25
 31
0.0
  0
SOLID
  5
93
330
30
100
AcDbEntity
  8
CDIM
100
AcDbTrace
 10
5.603575
 20
11.18392899999999
 30
0.0
 11
5.603575
 21
11.316071
 31
0.0
 12
6.0
 22
11.25
 32
0.0
 13
6.0
 23
11.25
 33
0.0
  0
SOLID
  5
94
330
30
100
AcDbEntity
  8
CDIM
100
AcDbTrace
 10
7.146424999999999
 20
11.18392899999999
 30
0.0
 11
7.146424999999999
 21
11.316071
 31
0.0
 12
6.75
 22
11.25
 32
0.0
 13
6.75
 23
11.25
 33
0.0
  0
TEXT
  5
95
330
30
100
AcDbEntity
  8
CDIM
100
AcDbText
 10
7.645094
 20
11.028002
 30
0.0
 40
0.4439960000000001
  1
0.75
  7
STR
100
AcDbText
  0
INSERT
  5
97
330
30
100
AcDbEntity
  8
CDIM
100
AcDbBlockReference
  2
025NPTFT
 10
2.78175
 20
7.0315
 30
0.0
  0
TEXT
  5
98
330
30
100
AcDbEntity
  8
CDIM
100
AcDbText
 10
2.125
 20
7.28125
 30
0.0
 40
0.25
  1
P
  7
STR
100
AcDbText
  0
LINE
  5
99
330
30
100
AcDbEntity
  8
CDIM
100
AcDbLine
 10
-0.59375
 20
10.698213
 30
0.0
 11
-0.59375
 21
11.646425
 31
0.0
  0
LINE
  5
9A
330
30
100
AcDbEntity
  8
CDIM
100
AcDbLine
 10
2.78125
 20
7.323213
 30
0.0
 11
2.78125
 21
11.646425
 31
0.0
  0
LINE
  5
9B
330
30
100
AcDbEntity
  8
CDIM
100
AcDbLine
 10
-0.197325
 20
11.25
 30
0.0
 11
0.02076
 21
11.25
 31
0.0
  0
LINE
  5
9C
330
30
100
AcDbEntity
  8
CDIM
100
AcDbLine
 10
2.384825
 20
11.25
 30
0.0
 11
2.16674
 21
11.25
 31
0.0
  0
SOLID
  5
9D
330
30
100
AcDbEntity
  8
CDIM
100
AcDbTrace
 10
-0.197325
 20
11.18392899999999
 30
0.0
 11
-0.197325
 21
11.316071
 31
0.0
 12
-0.59375
 22
11.25
 32
0.0
 13
-0.59375
 23
11.25
 33
0.0
  0
SOLID
  5
9E
330
30
100
AcDbEntity
  8
CDIM
100
AcDbTrace
 10
2.384825
 20
11.18392899999999
 30
0.0
 11
2.384825
 21
11.316071
 31
0.0
 12
2.78125
 22
11.25
 32
0.0
 13
2.78125
 23
11.25
 33
0.0
  0
TEXT
  5
9F
330
30
100
AcDbEntity
  8
CDIM
100
AcDbText
 10
0.417185
 20
11.028002
 30
0.0
 40
0.4439960000000001
  1
3.38
  7
STR
100
AcDbText
  0
LINE
  5
A0
330
30
100
AcDbEntity
  8
CDIM
100
AcDbLine
 10
4.104462999999999
 20
10.5
 30
0.0
 11
5.146424999999999
 21
10.5
 31
0.0
  0
LINE
  5
A1
330
30
100
AcDbEntity
  8
CDIM
100
AcDbLine
 10
3.135712999999999
 20
7.03125
 30
0.0
 11
5.146424999999999
 21
7.03125
 31
0.0
  0
LINE
  5
A2
330
30
100
AcDbEntity
  8
CDIM
100
AcDbLine
 10
4.75
 20
10.103575
 30
0.0
 11
4.75
 21
9.384047999999999
 31
0.0
  0
LINE
  5
A3
330
30
100
AcDbEntity
  8
CDIM
100
AcDbLine
 10
4.75
 20
7.427674999999999
 30
0.0
 11
4.75
 21
8.147202
 31
0.0
  0
SOLID
  5
A4
330
30
100
AcDbEntity
  8
CDIM
100
AcDbTrace
 10
4.816070999999999
 20
10.103575
 30
0.0
 11
4.683929
 21
10.103575
 31
0.0
 12
4.75
 22
10.5
 32
0.0
 13
4.75
 23
10.5
 33
0.0
  0
SOLID
  5
A5
330
30
100
AcDbEntity
  8
CDIM
100
AcDbTrace
 10
4.816070999999999
 20
7.427674999999999
 30
0.0
 11
4.683929
 21
7.427674999999999
 31
0.0
 12
4.75
 22
7.03125
 32
0.0
 13
4.75
 23
7.03125
 33
0.0
  0
TEXT
  5
A6
330
30
100
AcDbEntity
  8
CDIM
100
AcDbText
 10
4.073434999999999
 20
8.543627
 30
0.0
 40
0.4439960000000001
  1
3.47
  7
STR
100
AcDbText
  0
ENDBLK
  5
A7
330
30
100
AcDbEntity
  8
0
100
AcDbBlockEnd
  0
BLOCK
  5
A8
330
44
100
AcDbEntity
  8
0
100
AcDbBlockBegin
  2
100CROSS
 70
     0
 10
5.625
 20
4.59375
 30
0.0
  3
100CROSS
  1

  0
INSERT
  5
AA
330
44
100
AcDbEntity
  8
0
100
AcDbBlockReference
  2
050CROSS
 10
5.625
 20
4.59375
 30
0.0
  0
ENDBLK
  5
AB
330
44
100
AcDbEntity
  8
0
100
AcDbBlockEnd
  0
BLOCK
  5
B4
330
96
100
AcDbEntity
  8
0
100
AcDbBlockBegin
  2
025NPTFT
 70
     0
 10
0.0
 20
0.0
 30
0.0
  3
025NPTFT
  1

  0
INSERT
  5
B6
330
96
100
AcDbEntity
  8
DAMAN
100
AcDbBlockReference
  2
250NPTFT
 10
0.0
 20
0.0
 30
0.0
  0
ENDBLK
  5
B7
330
96
100
AcDbEntity
  8
0
100
AcDbBlockEnd
  0
BLOCK
  5
AC
330
A9
100
AcDbEntity
  8
0
100
AcDbBlockBegin
  2
050CROSS
 70
     0
 10
5.0
 20
5.0
 30
0.0
  3
050CROSS
  1

  0
LINE
  5
AD
330
A9
100
AcDbEntity
  8
0
100
AcDbLine
 10
5.0
 20
5.28125
 30
0.0
 11
5.0
 21
5.78125
 31
0.0
  0
LINE
  5
AE
330
A9
100
AcDbEntity
  8
0
100
AcDbLine
 10
5.0
 20
4.875
 30
0.0
 11
5.0
 21
5.125
 31
0.0
  0
LINE
  5
AF
330
A9
100
AcDbEntity
  8
0
100
AcDbLine
 10
5.0
 20
4.15625
 30
0.0
 11
5.0
 21
4.71875
 31
0.0
  0
LINE
  5
B0
330
A9
100
AcDbEntity
  8
0
100
AcDbLine
 10
5.25
 20
5.0
 30
0.0
 11
5.8125
 21
5.0
 31
0.0
  0
LINE
  5
B1
330
A9
100
AcDbEntity
  8
0
100
AcDbLine
 10
4.90625
 20
5.0
 30
0.0
 11
5.09375
 21
5.0
 31
0.0
  0
LINE
  5
B2
330
A9
100
AcDbEntity
  8
0
100
AcDbLine
 10
4.1875
 20
5.0
 30
0.0
 11
4.75
 21
5.0
 31
0.0
  0
ENDBLK
  5
B3
330
A9
100
AcDbEntity
  8
0
100
AcDbBlockEnd
  0
BLOCK
  5
D7
330
B5
100
AcDbEntity
  8
0
100
AcDbBlockBegin
  2
250NPTFT
 70
     0
 10
0.0
 20
0.0
 30
0.0
  3
250NPTFT
  1

  0
CIRCLE
  5
D8
330
B5
100
AcDbEntity
  8
DAMAN
100
AcDbCircle
 10
0.0
 20
0.0
 30
0.0
 40
0.273
  0
CIRCLE
  5
D9
330
B5
100
AcDbEntity
  8
DAMAN
100
AcDbCircle
 10
0.0
 20
0.0
 30
0.0
 40
0.211
  0
INSERT
  5
DA
330
B5
100
AcDbEntity
  8
DAMAN
100
AcDbBlockReference
  2
100CROSS
 10
0.0
 20
0.0
 30
0.0
 41
0.4220000000000001
 42
0.4220000000000001
  0
CIRCLE
  5
DB
330
B5
100
AcDbEntity
  8
DAMAN
100
AcDbCircle
 10
0.0
 20
0.0
 30
0.0
 40
0.242251
  0
POINT
  5
DC
330
B5
100
AcDbEntity
  8
CHIDDEN
100
AcDbPoint
 10
-0.087928
 20
0.191806
 30
0.0
  0
POINT
  5
DD
330
B5
100
AcDbEntity
  8
CHIDDEN
100
AcDbPoint
 10
-0.137717
 20
-0.15986
 30
0.0
  0
POINT
  5
DE
330
B5
100
AcDbEntity
  8
CHIDDEN
100
AcDbPoint
 10
0.202707
 20
-0.058572
 30
0.0
  0
ENDBLK
  5
DF
330
B5
100
AcDbEntity
  8
0
100
AcDbBlockEnd
  0
BLOCK
  5
B9
330
B8
100
AcDbEntity
  8
0
100
AcDbBlockBegin
  2
500SHCST
 70
     0
 10
0.0
 20
0.0
 30
0.0
  3
500SHCST
  1

  0
CIRCLE
  5
BA
330
B8
100
AcDbEntity
  8
DAMAN
100
AcDbCircle
 10
0.0
 20
0.0
 30
0.0
 40
0.375
  0
CIRCLE
  5
BB
330
B8
100
AcDbEntity
  8
DAMAN
100
AcDbCircle
 10
0.0
 20
0.0
 30
0.0
 40
0.3439999999999999
  0
CIRCLE
  5
BC
330
B8
100
AcDbEntity
  8
DAMAN
100
AcDbCircle
 10
0.0
 20
0.0
 30
0.0
 40
0.2165
  0
LWPOLYLINE
  5
BD
330
B8
100
AcDbEntity
  8
DAMAN
100
AcDbPolyline
 90
        6
 70
     1
 43
0.0
 10
-0.1085
 20
0.187928
 10
-0.217
 20
0.0
 10
-0.1085
 20
-0.187928
 10
0.1085
 20
-0.187928
 10
0.217
 20
0.0
 10
0.1085
 20
0.187928
  0
ENDBLK
  5
C5
330
B8
100
AcDbEntity
  8
0
100
AcDbBlockEnd
  0
BLOCK
  5
C7
330
C6
100
AcDbEntity
  8
0
100
AcDbBlockBegin
  2
012NPTFT
 70
     0
 10
0.0
 20
0.0
 30
0.0
  3
012NPTFT
  1

  0
CIRCLE
  5
C8
330
C6
100
AcDbEntity
  8
DAMAN
  6
HIDDEN
100
AcDbCircle
 10
0.0
 20
0.0
 30
0.0
 40
0.1875
  0
CIRCLE
  5
C9
330
C6
100
AcDbEntity
  8
DAMAN
100
AcDbCircle
 10
0.0
 20
0.0
 30
0.0
 40
0.2105
  0
CIRCLE
  5
CA
330
C6
100
AcDbEntity
  8
DAMAN
100
AcDbCircle
 10
0.0
 20
0.0
 30
0.0
 40
0.1695
  0
INSERT
  5
CB
330
C6
100
AcDbEntity
  8
DAMAN
100
AcDbBlockReference
  2
100CROSS
 10
0.0
 20
0.0
 30
0.0
 41
0.43
 42
0.43
  0
ENDBLK
  5
CC
330
C6
100
AcDbEntity
  8
0
100
AcDbBlockEnd
  0
BLOCK
  5
CE
330
CD
100
AcDbEntity
  8
0
100
AcDbBlockBegin
  2
500SHCS
 70
     0
 10
0.0
 20
0.0
 30
0.0
  3
500SHCS
  1

  0
LINE
  5
CF
330
CD
100
AcDbEntity
  8
DAMAN
100
AcDbLine
 10
-0.375
 20
0.0
 30
0.0
 11
-0.375
 21
0.4375
 31
0.0
  0
LINE
  5
D0
330
CD
100
AcDbEntity
  8
DAMAN
100
AcDbLine
 10
-0.3125
 20
0.5
 30
0.0
 11
0.3125
 21
0.5
 31
0.0
  0
LINE
  5
D1
330
CD
100
AcDbEntity
  8
DAMAN
100
AcDbLine
 10
0.375
 20
0.4375
 30
0.0
 11
0.375
 21
0.0
 31
0.0
  0
LINE
  5
D2
330
CD
100
AcDbEntity
  8
DAMAN
100
AcDbLine
 10
-0.375
 20
0.4375
 30
0.0
 11
0.375
 21
0.4375
 31
0.0
  0
LINE
  5
D3
330
CD
100
AcDbEntity
  8
DAMAN
100
AcDbLine
 10
0.375
 20
0.0
 30
0.0
 11
-0.375
 21
0.0
 31
0.0
  0
LINE
  5
D4
330
CD
100
AcDbEntity
  8
DAMAN
100
AcDbLine
 10
0.3125
 20
0.5
 30
0.0
 11
0.375
 21
0.4375
 31
0.0
  0
LINE
  5
D5
330
CD
100
AcDbEntity
  8
DAMAN
100
AcDbLine
 10
-0.3125
 20
0.5
 30
0.0
 11
-0.375
 21
0.4375
 31
0.0
  0
ENDBLK
  5
D6
330
CD
100
AcDbEntity
  8
0
100
AcDbBlockEnd
  0
ENDSEC
  0
SECTION
  2
ENTITIES
  0
INSERT
  5
EC
330
1E
100
AcDbEntity
  8
DAMAN
100
AcDbBlockReference
  2
100CROSS
 10
4.6875
 20
5.28125
 30
0.0
 41
0.6
 42
0.6
 43
0.6
  0
INSERT
  5
ED
330
1E
100
AcDbEntity
  8
DAMAN
100
AcDbBlockReference
  2
100CROSS
 10
4.6875
 20
8.3125
 30
0.0
 41
0.6
 42
0.6
 43
0.6
  0
INSERT
  5
EE
330
1E
100
AcDbEntity
  8
DAMAN
100
AcDbBlockReference
  2
100CROSS
 10
1.0625
 20
7.375
 30
0.0
 41
0.6
 42
0.6
 43
0.6
  0
INSERT
  5
EF
330
1E
100
AcDbEntity
  8
DAMAN
100
AcDbBlockReference
  2
100CROSS
 10
4.6875
 20
10.40625
 30
0.0
 41
0.6
 42
0.6
 43
0.6
  0
INSERT
  5
F0
330
1E
100
AcDbEntity
  8
DAMAN
100
AcDbBlockReference
  2
100CROSS
 10
1.0625
 20
5.28125
 30
0.0
 41
0.6
 42
0.6
 43
0.6
  0
INSERT
  5
F1
330
1E
100
AcDbEntity
  8
DAMAN
100
AcDbBlockReference
  2
100CROSS
 10
1.0625
 20
10.40625
 30
0.0
 41
0.6
 42
0.6
 43
0.6
  0
INSERT
  5
F8
330
1E
100
AcDbEntity
  8
DAMAN
100
AcDbBlockReference
  2
500SHCST
 10
1.0625
 20
10.40625
 30
0.0
  0
INSERT
  5
F9
330
1E
100
AcDbEntity
  8
DAMAN
100
AcDbBlockReference
  2
500SHCST
 10
4.6875
 20
10.40625
 30
0.0
  0
INSERT
  5
FA
330
1E
100
AcDbEntity
  8
DAMAN
100
AcDbBlockReference
  2
500SHCST
 10
1.0625
 20
7.375
 30
0.0
  0
INSERT
  5
FB
330
1E
100
AcDbEntity
  8
DAMAN
100
AcDbBlockReference
  2
500SHCST
 10
4.6875
 20
8.3125
 30
0.0
  0
INSERT
  5
FC
330
1E
100
AcDbEntity
  8
DAMAN
100
AcDbBlockReference
  2
500SHCST
 10
4.6875
 20
5.28125
 30
0.0
  0
INSERT
  5
FD
330
1E
100
AcDbEntity
  8
DAMAN
100
AcDbBlockReference
  2
500SHCST
 10
1.0625
 20
5.28125
 30
0.0
  0
LINE
  5
FE
330
1E
100
AcDbEntity
  8
DAMAN
100
AcDbLine
 10
0.625
 20
2.53125
 30
0.0
 11
5.125
 21
2.53125
 31
0.0
  0
LINE
  5
FF
330
1E
100
AcDbEntity
  8
DAMAN
100
AcDbLine
 10
5.125
 20
2.53125
 30
0.0
 11
5.125
 21
3.53125
 31
0.0
  0
LINE
  5
100
330
1E
100
AcDbEntity
  8
DAMAN
100
AcDbLine
 10
5.125
 20
3.53125
 30
0.0
 11
0.625
 21
3.53125
 31
0.0
  0
LINE
  5
101
330
1E
100
AcDbEntity
  8
DAMAN
100
AcDbLine
 10
0.625
 20
3.53125
 30
0.0
 11
0.625
 21
2.53125
 31
0.0
  0
LINE
  5
102
330
1E
100
AcDbEntity
  8
DAMAN
100
AcDbLine
 10
0.625
 20
13.15625
 30
0.0
 11
5.125
 21
13.15625
 31
0.0
  0
LINE
  5
103
330
1E
100
AcDbEntity
  8
DAMAN
100
AcDbLine
 10
5.125
 20
12.15625
 30
0.0
 11
0.625
 21
12.15625
 31
0.0
  0
LINE
  5
104
330
1E
100
AcDbEntity
  8
DAMAN
100
AcDbLine
 10
0.625
 20
12.15625
 30
0.0
 11
0.625
 21
13.15625
 31
0.0
  0
LINE
  5
105
330
1E
100
AcDbEntity
  8
DAMAN
100
AcDbLine
 10
5.125
 20
13.15625
 30
0.0
 11
5.125
 21
12.15625
 31
0.0
  0
INSERT
  5
106
330
1E
100
AcDbEntity
  8
DAMAN
100
AcDbBlockReference
  2
500SHCS
 10
-1.46875
 20
10.40625
 30
0.0
 50
270.0
  0
INSERT
  5
107
330
1E
100
AcDbEntity
  8
DAMAN
100
AcDbBlockReference
  2
500SHCS
 10
-1.46875
 20
7.34375
 30
0.0
 50
270.0
  0
INSERT
  5
108
330
1E
100
AcDbEntity
  8
DAMAN
100
AcDbBlockReference
  2
500SHCS
 10
-1.46875
 20
5.28125
 30
0.0
 50
270.0
  0
INSERT
  5
109
330
1E
100
AcDbEntity
  8
DAMAN
100
AcDbBlockReference
  2
500SHCS
 10
7.21875
 20
10.40625
 30
0.0
 50
90.0
  0
INSERT
  5
10A
330
1E
100
AcDbEntity
  8
DAMAN
100
AcDbBlockReference
  2
500SHCS
 10
7.21875
 20
8.3125
 30
0.0
 50
90.0
  0
INSERT
  5
10B
330
1E
100
AcDbEntity
  8
DAMAN
100
AcDbBlockReference
  2
500SHCS
 10
7.21875
 20
5.28125
 30
0.0
 50
90.0
  0
INSERT
  5
10C
330
1E
100
AcDbEntity
  8
DAMAN
100
AcDbBlockReference
  2
500SHCS
 10
1.0625
 20
12.15625
 30
0.0
 50
180.0
  0
INSERT
  5
10D
330
1E
100
AcDbEntity
  8
DAMAN
100
AcDbBlockReference
  2
500SHCS
 10
1.0625
 20
3.53125
 30
0.0
  0
INSERT
  5
10E
330
1E
100
AcDbEntity
  8
DAMAN
100
AcDbBlockReference
  2
500SHCS
 10
4.65625
 20
3.53125
 30
0.0
  0
INSERT
  5
10F
330
1E
100
AcDbEntity
  8
DAMAN
100
AcDbBlockReference
  2
500SHCS
 10
4.6875
 20
12.15625
 30
0.0
 50
180.0
  0
TEXT
  5
110
330
1E
100
AcDbEntity
  8
DAMAN
100
AcDbText
 10
2.007191030731725
 20
2.958844695027309
 30
0.0
 40
0.188
  1
DAMAN ****
100
AcDbText
  0
INSERT
  5
111
330
1E
100
AcDbEntity
  8
DAMAN
100
AcDbBlockReference
  2
025NPTFT
 10
4.0
 20
7.37575
 30
0.0
  0
TEXT
  5
112
330
1E
100
AcDbEntity
  8
DAMAN
100
AcDbText
 10
3.590885611931511
 20
7.717805678955333
 30
0.0
 40
0.188
  1
P
100
AcDbText
  0
LINE
  5
115
330
1E
100
AcDbEntity
  8
DAMAN
100
AcDbLine
 10
-1.46875
 20
4.84375
 30
0.0
 11
-1.46875
 21
10.84375
 31
0.0
  0
LINE
  5
116
330
1E
100
AcDbEntity
  8
DAMAN
100
AcDbLine
 10
-1.46875
 20
10.84375
 30
0.0
 11
-2.46875
 21
10.84375
 31
0.0
  0
LINE
  5
117
330
1E
100
AcDbEntity
  8
DAMAN
100
AcDbLine
 10
-2.46875
 20
10.84375
 30
0.0
 11
-2.46875
 21
4.84375
 31
0.0
  0
LINE
  5
118
330
1E
100
AcDbEntity
  8
DAMAN
100
AcDbLine
 10
-2.46875
 20
4.84375
 30
0.0
 11
-1.46875
 21
4.84375
 31
0.0
  0
LINE
  5
119
330
1E
100
AcDbEntity
  8
DAMAN
100
AcDbLine
 10
0.625
 20
4.84375
 30
0.0
 11
0.625
 21
10.84375
 31
0.0
  0
LINE
  5
11A
330
1E
100
AcDbEntity
  8
DAMAN
100
AcDbLine
 10
0.625
 20
10.84375
 30
0.0
 11
5.125
 21
10.84375
 31
0.0
  0
LINE
  5
11B
330
1E
100
AcDbEntity
  8
DAMAN
100
AcDbLine
 10
5.125
 20
10.84375
 30
0.0
 11
5.125
 21
4.84375
 31
0.0
  0
LINE
  5
11C
330
1E
100
AcDbEntity
  8
DAMAN
100
AcDbLine
 10
5.125
 20
4.84375
 30
0.0
 11
0.625
 21
4.84375
 31
0.0
  0
LINE
  5
11D
330
1E
100
AcDbEntity
  8
DAMAN
100
AcDbLine
 10
7.21875
 20
4.84375
 30
0.0
 11
7.21875
 21
10.84375
 31
0.0
  0
LINE
  5
11E
330
1E
100
AcDbEntity
  8
DAMAN
100
AcDbLine
 10
7.21875
 20
10.84375
 30
0.0
 11
8.21875
 21
10.84375
 31
0.0
  0
LINE
  5
11F
330
1E
100
AcDbEntity
  8
DAMAN
100
AcDbLine
 10
8.21875
 20
10.84375
 30
0.0
 11
8.21875
 21
4.84375
 31
0.0
  0
LINE
  5
120
330
1E
100
AcDbEntity
  8
DAMAN
100
AcDbLine
 10
8.21875
 20
4.84375
 30
0.0
 11
7.21875
 21
4.84375
 31
0.0
  0
ENDSEC
  0
SECTION
  2
OBJECTS
  0
DICTIONARY
  5
C
330
0
100
AcDbDictionary
  3
ACAD_GROUP
350
D
  3
ACAD_LAYOUT
350
19
  3
ACAD_MLINESTYLE
350
16
  3
ACAD_PLOTSETTINGS
350
18
  3
ACAD_PLOTSTYLENAME
350
E
  3
ACDBHEADERROUNDTRIPXREC
350
125
  0
DICTIONARY
  5
147
330
1E
100
AcDbDictionary
280
     1
  3
ACAD_LAYOUTSELFREF
360
148
  0
DICTIONARY
  5
145
330
1A
100
AcDbDictionary
280
     1
  3
ACAD_LAYOUTSELFREF
360
146
  0
DICTIONARY
  5
D
102
{ACAD_REACTORS
330
C
102
}
330
C
100
AcDbDictionary
  0
DICTIONARY
  5
19
102
{ACAD_REACTORS
330
C
102
}
330
C
100
AcDbDictionary
  0
DICTIONARY
  5
16
102
{ACAD_REACTORS
330
C
102
}
330
C
100
AcDbDictionary
  3
STANDARD
350
17
  0
DICTIONARY
  5
18
102
{ACAD_REACTORS
330
C
102
}
330
C
100
AcDbDictionary
  0
ACDBDICTIONARYWDFLT
  5
E
102
{ACAD_REACTORS
330
C
102
}
330
C
100
AcDbDictionary
281
     1
  3
Normal
350
F
100
AcDbDictionaryWithDefault
340
F
  0
DICTIONARY
  5
125
102
{ACAD_REACTORS
330
C
102
}
330
C
100
AcDbDictionary
  3
CEPSNTYPE
350
12F
  3
FINGERPRINTGUID
350
130
  3
HYPERLINKBASE
350
128
  3
INSUNITS
350
12E
  3
LAYOUTDICT
350
12A
  3
LWETCUNION
350
12D
  3
PLOTSETDICT
350
12B
  3
PLOTSTYLNAMDICT
350
12C
  3
PSVPSCALE
350
132
  3
PUCSBASE
350
135
  3
PUCSORGBACK
350
13B
  3
PUCSORGBOTTOM
350
137
  3
PUCSORGFRONT
350
13A
  3
PUCSORGLEFT
350
138
  3
PUCSORGRIGHT
350
139
  3
PUCSORGTOP
350
136
  3
PUCSORTHOREF
350
133
  3
PUCSORTHOVIEW
350
134
  3
STYLESHEET
350
129
  3
TSTACKALIGN
350
126
  3
TSTACKSIZE
350
127
  3
UCSBASE
350
13E
  3
UCSORGBACK
350
144
  3
UCSORGBOTTOM
350
140
  3
UCSORGFRONT
350
143
  3
UCSORGLEFT
350
141
  3
UCSORGRIGHT
350
142
  3
UCSORGTOP
350
13F
  3
UCSORTHOREF
350
13C
  3
UCSORTHOVIEW
350
13D
  3
VERSIONGUID
350
131
  0
XRECORD
  5
148
102
{ACAD_REACTORS
330
147
102
}
330
147
100
AcDbXrecord
340
1E
  0
XRECORD
  5
146
102
{ACAD_REACTORS
330
145
102
}
330
145
100
AcDbXrecord
340
1A
  0
MLINESTYLE
  5
17
102
{ACAD_REACTORS
330
16
102
}
330
16
100
AcDbMlineStyle
  2
STANDARD
 70
     0
  3

 62
   256
 51
90.0
 52
90.0
 71
     2
 49
0.5
 62
   256
  6
BYLAYER
 49
-0.5
 62
   256
  6
BYLAYER
  0
ACDBPLACEHOLDER
  5
F
102
{ACAD_REACTORS
330
E
102
}
330
E
100
AcDbPlaceHolder
280
     0
  0
XRECORD
  5
12F
102
{ACAD_REACTORS
330
125
102
}
330
125
100
AcDbXrecord
 90
        0
  0
XRECORD
  5
130
102
{ACAD_REACTORS
330
125
102
}
330
125
100
AcDbXrecord
  1
{75C4A66F-F880-4619-954D-6E8A02A9208A}
  0
XRECORD
  5
128
102
{ACAD_REACTORS
330
125
102
}
330
125
100
AcDbXrecord
  1

  0
XRECORD
  5
12E
102
{ACAD_REACTORS
330
125
102
}
330
125
100
AcDbXrecord
 90
        0
  0
XRECORD
  5
12A
102
{ACAD_REACTORS
330
125
102
}
330
125
100
AcDbXrecord
340
19
  0
XRECORD
  5
12D
102
{ACAD_REACTORS
330
125
102
}
330
125
100
AcDbXrecord
 90
    10781
  0
XRECORD
  5
12B
102
{ACAD_REACTORS
330
125
102
}
330
125
100
AcDbXrecord
340
18
  0
XRECORD
  5
12C
102
{ACAD_REACTORS
330
125
102
}
330
125
100
AcDbXrecord
340
E
  0
XRECORD
  5
132
102
{ACAD_REACTORS
330
125
102
}
330
125
100
AcDbXrecord
 40
0.0
  0
XRECORD
  5
135
102
{ACAD_REACTORS
330
125
102
}
330
125
100
AcDbXrecord
340
0
  0
XRECORD
  5
13B
102
{ACAD_REACTORS
330
125
102
}
330
125
100
AcDbXrecord
 10
0.0
 20
0.0
 30
0.0
  0
XRECORD
  5
137
102
{ACAD_REACTORS
330
125
102
}
330
125
100
AcDbXrecord
 10
0.0
 20
0.0
 30
0.0
  0
XRECORD
  5
13A
102
{ACAD_REACTORS
330
125
102
}
330
125
100
AcDbXrecord
 10
0.0
 20
0.0
 30
0.0
  0
XRECORD
  5
138
102
{ACAD_REACTORS
330
125
102
}
330
125
100
AcDbXrecord
 10
0.0
 20
0.0
 30
0.0
  0
XRECORD
  5
139
102
{ACAD_REACTORS
330
125
102
}
330
125
100
AcDbXrecord
 10
0.0
 20
0.0
 30
0.0
  0
XRECORD
  5
136
102
{ACAD_REACTORS
330
125
102
}
330
125
100
AcDbXrecord
 10
0.0
 20
0.0
 30
0.0
  0
XRECORD
  5
133
102
{ACAD_REACTORS
330
125
102
}
330
125
100
AcDbXrecord
340
0
  0
XRECORD
  5
134
102
{ACAD_REACTORS
330
125
102
}
330
125
100
AcDbXrecord
 70
     0
  0
XRECORD
  5
129
102
{ACAD_REACTORS
330
125
102
}
330
125
100
AcDbXrecord
  1

  0
XRECORD
  5
126
102
{ACAD_REACTORS
330
125
102
}
330
125
100
AcDbXrecord
 90
        1
  0
XRECORD
  5
127
102
{ACAD_REACTORS
330
125
102
}
330
125
100
AcDbXrecord
 90
       70
  0
XRECORD
  5
13E
102
{ACAD_REACTORS
330
125
102
}
330
125
100
AcDbXrecord
340
0
  0
XRECORD
  5
144
102
{ACAD_REACTORS
330
125
102
}
330
125
100
AcDbXrecord
 10
0.0
 20
0.0
 30
0.0
  0
XRECORD
  5
140
102
{ACAD_REACTORS
330
125
102
}
330
125
100
AcDbXrecord
 10
0.0
 20
0.0
 30
0.0
  0
XRECORD
  5
143
102
{ACAD_REACTORS
330
125
102
}
330
125
100
AcDbXrecord
 10
0.0
 20
0.0
 30
0.0
  0
XRECORD
  5
141
102
{ACAD_REACTORS
330
125
102
}
330
125
100
AcDbXrecord
 10
0.0
 20
0.0
 30
0.0
  0
XRECORD
  5
142
102
{ACAD_REACTORS
330
125
102
}
330
125
100
AcDbXrecord
 10
0.0
 20
0.0
 30
0.0
  0
XRECORD
  5
13F
102
{ACAD_REACTORS
330
125
102
}
330
125
100
AcDbXrecord
 10
0.0
 20
0.0
 30
0.0
  0
XRECORD
  5
13C
102
{ACAD_REACTORS
330
125
102
}
330
125
100
AcDbXrecord
340
0
  0
XRECORD
  5
13D
102
{ACAD_REACTORS
330
125
102
}
330
125
100
AcDbXrecord
 70
     0
  0
XRECORD
  5
131
102
{ACAD_REACTORS
330
125
102
}
330
125
100
AcDbXrecord
  1
{8906D699-B190-44A9-ADFD-7D41478F0503}
  0
ENDSEC
  0
EOF
