  0
SECTION
  2
HEADER
  9
$ACADVER
  1
AC1009
  9
$INSBASE
 10
0.0
 20
0.0
 30
0.0
  9
$EXTMIN
 10
4.935275
 20
4.279025
 30
0.0
  9
$EXTMAX
 10
21.189725
 20
16.2857
 30
0.0
  9
$LIMMIN
 10
0.0
 20
0.0
  9
$LIMMAX
 10
12.0
 20
9.0
  9
$ORTHOMODE
 70
     1
  9
$REGENMODE
 70
     1
  9
$FILLMODE
 70
     1
  9
$QTEXTMODE
 70
     0
  9
$MIRRTEXT
 70
     1
  9
$DRAGMODE
 70
     2
  9
$LTSCALE
 40
1.0
  9
$OSMODE
 70
     0
  9
$ATTMODE
 70
     1
  9
$TEXTSIZE
 40
0.188
  9
$TRACEWID
 40
0.05
  9
$TEXTSTYLE
  7
STANDARD
  9
$CLAYER
  8
DAMAN
  9
$CELTYPE
  6
BYLAYER
  9
$CECOLOR
 62
   256
  9
$DIMSCALE
 40
1.0
  9
$DIMASZ
 40
0.18
  9
$DIMEXO
 40
0.0625
  9
$DIMDLI
 40
0.38
  9
$DIMRND
 40
0.0
  9
$DIMDLE
 40
0.0
  9
$DIMEXE
 40
0.18
  9
$DIMTP
 40
0.0
  9
$DIMTM
 40
0.0
  9
$DIMTXT
 40
0.18
  9
$DIMCEN
 40
0.09
  9
$DIMTSZ
 40
0.0
  9
$DIMTOL
 70
     0
  9
$DIMLIM
 70
     0
  9
$DIMTIH
 70
     1
  9
$DIMTOH
 70
     1
  9
$DIMSE1
 70
     0
  9
$DIMSE2
 70
     0
  9
$DIMTAD
 70
     0
  9
$DIMZIN
 70
     0
  9
$DIMBLK
  1

  9
$DIMASO
 70
     1
  9
$DIMSHO
 70
     1
  9
$DIMPOST
  1

  9
$DIMAPOST
  1

  9
$DIMALT
 70
     0
  9
$DIMALTD
 70
     2
  9
$DIMALTF
 40
25.4
  9
$DIMLFAC
 40
1.0
  9
$DIMTOFL
 70
     0
  9
$DIMTVP
 40
0.0
  9
$DIMTIX
 70
     0
  9
$DIMSOXD
 70
     0
  9
$DIMSAH
 70
     0
  9
$DIMBLK1
  1

  9
$DIMBLK2
  1

  9
$DIMSTYLE
  2
*UNNAMED
  9
$DIMCLRD
 70
     0
  9
$DIMCLRE
 70
     0
  9
$DIMCLRT
 70
     0
  9
$DIMTFAC
 40
1.0
  9
$DIMGAP
 40
0.09
  9
$LUNITS
 70
     2
  9
$LUPREC
 70
     4
  9
$SKETCHINC
 40
0.1
  9
$FILLETRAD
 40
0.0
  9
$AUNITS
 70
     0
  9
$AUPREC
 70
     0
  9
$MENU
  1
tom
  9
$ELEVATION
 40
0.0
  9
$PELEVATION
 40
0.0
  9
$THICKNESS
 40
0.0
  9
$LIMCHECK
 70
     0
  9
$BLIPMODE
 70
     1
  9
$CHAMFERA
 40
0.0
  9
$CHAMFERB
 40
0.0
  9
$SKPOLY
 70
     0
  9
$TDCREATE
 40
2449743.240231331
  9
$TDUPDATE
 40
2449743.240231331
  9
$TDINDWG
 40
0.0000000000
  9
$TDUSRTIMER
 40
0.0000000000
  9
$USRTIMER
 70
     1
  9
$ANGBASE
 50
0.0
  9
$ANGDIR
 70
     0
  9
$PDMODE
 70
     0
  9
$PDSIZE
 40
0.0
  9
$PLINEWID
 40
0.0
  9
$COORDS
 70
     1
  9
$SPLFRAME
 70
     0
  9
$SPLINETYPE
 70
     6
  9
$SPLINESEGS
 70
     8
  9
$ATTDIA
 70
     0
  9
$ATTREQ
 70
     1
  9
$HANDLING
 70
     0
  9
$HANDSEED
  5
0
  9
$SURFTAB1
 70
     6
  9
$SURFTAB2
 70
     6
  9
$SURFTYPE
 70
     6
  9
$SURFU
 70
     6
  9
$SURFV
 70
     6
  9
$UCSNAME
  2

  9
$UCSORG
 10
0.0
 20
0.0
 30
0.0
  9
$UCSXDIR
 10
1.0
 20
0.0
 30
0.0
  9
$UCSYDIR
 10
0.0
 20
1.0
 30
0.0
  9
$PUCSNAME
  2

  9
$PUCSORG
 10
0.0
 20
0.0
 30
0.0
  9
$PUCSXDIR
 10
1.0
 20
0.0
 30
0.0
  9
$PUCSYDIR
 10
0.0
 20
1.0
 30
0.0
  9
$USERI1
 70
     0
  9
$USERI2
 70
     0
  9
$USERI3
 70
     0
  9
$USERI4
 70
     0
  9
$USERI5
 70
     0
  9
$USERR1
 40
0.0
  9
$USERR2
 40
0.0
  9
$USERR3
 40
0.0
  9
$USERR4
 40
0.0
  9
$USERR5
 40
0.0
  9
$WORLDVIEW
 70
     1
  9
$SHADEDGE
 70
     3
  9
$SHADEDIF
 70
    70
  9
$TILEMODE
 70
     1
  9
$MAXACTVP
 70
    16
  9
$PINSBASE
 10
0.0
 20
0.0
 30
0.0
  9
$PLIMCHECK
 70
     0
  9
$PEXTMIN
 10
1.000000E+20
 20
1.000000E+20
 30
1.000000E+20
  9
$PEXTMAX
 10
-1.000000E+20
 20
-1.000000E+20
 30
-1.000000E+20
  9
$PLIMMIN
 10
0.0
 20
0.0
  9
$PLIMMAX
 10
12.0
 20
9.0
  9
$UNITMODE
 70
     0
  9
$VISRETAIN
 70
     0
  9
$PLINEGEN
 70
     0
  9
$PSLTSCALE
 70
     1
  9
$TREEDEPTH
 70
  3020
  9
$DWGCODEPAGE
  3
ascii
  0
ENDSEC
  0
SECTION
  2
TABLES
  0
TABLE
  2
VPORT
 70
     2
  0
VPORT
  2
*ACTIVE
 70
     0
 10
0.0
 20
0.0
 11
1.0
 21
1.0
 12
13.15625
 22
12.34375
 13
0.0
 23
0.0
 14
0.03125
 24
0.03125
 15
0.0
 25
0.0
 16
0.0
 26
0.0
 36
1.0
 17
0.0
 27
0.0
 37
0.0
 40
16.2857
 41
1.365662
 42
50.0
 43
0.0
 44
0.0
 50
0.0
 51
0.0
 71
     0
 72
   100
 73
     1
 74
     1
 75
     1
 76
     0
 77
     0
 78
     0
  0
ENDTAB
  0
TABLE
  2
LTYPE
 70
     3
  0
LTYPE
  2
CONTINUOUS
 70
    64
  3
Solid line
 72
    65
 73
     0
 40
0.0
  0
LTYPE
  2
HIDDEN
 70
    64
  3
_ _ _ _ _ _ _ _ _ _ _ _ _ _ _ _ _ _ _ _ _ _ _
 72
    65
 73
     2
 40
0.375
 49
0.25
 49
-0.125
  0
LTYPE
  2
CENTER
 70
    64
  3
____ _ ____ _ ____ _ ____ _ ____ _ ____ _ ____
 72
    65
 73
     4
 40
2.0
 49
1.25
 49
-0.25
 49
0.25
 49
-0.25
  0
ENDTAB
  0
TABLE
  2
LAYER
 70
     7
  0
LAYER
  2
0
 70
     0
 62
     7
  6
CONTINUOUS
  0
LAYER
  2
DAMAN
 70
     0
 62
     5
  6
CONTINUOUS
  0
LAYER
  2
BORDER
 70
    64
 62
     7
  6
CONTINUOUS
  0
LAYER
  2
CSOLID
 70
    64
 62
     3
  6
CONTINUOUS
  0
LAYER
  2
CHIDDEN
 70
    64
 62
     3
  6
HIDDEN
  0
LAYER
  2
CDIM
 70
    64
 62
     2
  6
CONTINUOUS
  0
LAYER
  2
CCENTER
 70
    64
 62
     4
  6
CENTER
  0
ENDTAB
  0
TABLE
  2
STYLE
 70
     2
  0
STYLE
  2
STANDARD
 70
    64
 40
0.0
 41
1.0
 50
0.0
 71
     0
 42
0.188
  3
txt
  4

  0
STYLE
  2
STR
 70
    64
 40
0.0
 41
1.0
 50
0.0
 71
     0
 42
0.25
  3
SIMPLEX
  4

  0
ENDTAB
  0
TABLE
  2
VIEW
 70
     0
  0
ENDTAB
  0
TABLE
  2
UCS
 70
     0
  0
ENDTAB
  0
TABLE
  2
APPID
 70
     1
  0
APPID
  2
ACAD
 70
    64
  0
ENDTAB
  0
TABLE
  2
DIMSTYLE
 70
     0
  0
ENDTAB
  0
ENDSEC
  0
SECTION
  2
BLOCKS
  0
BLOCK
  8
0
  2
D07SPS
 70
    64
 10
0.0
 20
0.0
 30
0.0
  3
D07SPS
  0
POLYLINE
  8
BORDER
 66
     1
 10
0.0
 20
0.0
 30
0.0
 70
     1
  0
VERTEX
  8
BORDER
 10
4.0
 20
8.75
 30
0.0
  0
VERTEX
  8
BORDER
 10
4.0
 20
13.5
 30
0.0
  0
VERTEX
  8
BORDER
 10
5.75
 20
13.5
 30
0.0
  0
VERTEX
  8
BORDER
 10
5.75
 20
8.75
 30
0.0
  0
SEQEND
  8
BORDER
  0
POLYLINE
  8
BORDER
 66
     1
 10
0.0
 20
0.0
 30
0.0
 70
     1
  0
VERTEX
  8
BORDER
 10
17.5
 20
8.75
 30
0.0
  0
VERTEX
  8
BORDER
 10
17.5
 20
13.5
 30
0.0
  0
VERTEX
  8
BORDER
 10
19.25
 20
13.5
 30
0.0
  0
VERTEX
  8
BORDER
 10
19.25
 20
8.75
 30
0.0
  0
SEQEND
  8
BORDER
  0
POLYLINE
  8
BORDER
 66
     1
 10
0.0
 20
0.0
 30
0.0
 70
     1
  0
VERTEX
  8
BORDER
 10
9.75
 20
8.75
 30
0.0
  0
VERTEX
  8
BORDER
 10
9.75
 20
13.5
 30
0.0
  0
VERTEX
  8
BORDER
 10
13.5
 20
13.5
 30
0.0
  0
VERTEX
  8
BORDER
 10
13.5
 20
8.75
 30
0.0
  0
SEQEND
  8
BORDER
  0
POLYLINE
  8
BORDER
 66
     1
 10
0.0
 20
0.0
 30
0.0
 70
     1
  0
VERTEX
  8
BORDER
 10
9.75
 20
3.5
 30
0.0
  0
VERTEX
  8
BORDER
 10
9.75
 20
5.25
 30
0.0
  0
VERTEX
  8
BORDER
 10
13.5
 20
5.25
 30
0.0
  0
VERTEX
  8
BORDER
 10
13.5
 20
3.5
 30
0.0
  0
SEQEND
  8
BORDER
  0
INSERT
  8
CCENTER
  2
100CROSS
 10
12.375
 20
10.11
 30
0.0
 41
0.25
 42
0.25
 43
0.0
  0
CIRCLE
  8
CSOLID
 10
12.375
 20
10.11
 30
0.0
 40
0.125
  0
CIRCLE
  8
CSOLID
 10
10.75
 20
9.657
 30
0.0
 40
0.125
  0
INSERT
  8
CCENTER
  2
100CROSS
 10
10.75
 20
9.657
 30
0.0
 41
0.25
 42
0.25
 43
0.0
  0
INSERT
  8
CCENTER
  2
100CROSS
 10
13.0
 20
10.10925
 30
0.0
 41
0.171
 42
0.171
 43
0.0
  0
CIRCLE
  8
CSOLID
 10
13.0
 20
10.10925
 30
0.0
 40
0.0855
  0
CIRCLE
  8
CSOLID
 10
10.25
 20
12.40625
 30
0.0
 40
0.0855
  0
INSERT
  8
CCENTER
  2
100CROSS
 10
10.25
 20
12.40625
 30
0.0
 41
0.171
 42
0.171
 43
0.0
  0
INSERT
  8
CCENTER
  2
100CROSS
 10
12.437
 20
12.406
 30
0.0
 41
0.688
 42
0.688
 43
0.0
  0
CIRCLE
  8
CSOLID
 10
12.437
 20
12.406
 30
0.0
 40
0.344
  0
CIRCLE
  8
CSOLID
 10
12.437
 20
11.156
 30
0.0
 40
0.344
  0
INSERT
  8
CCENTER
  2
100CROSS
 10
12.437
 20
11.156
 30
0.0
 41
0.688
 42
0.688
 43
0.0
  0
INSERT
  8
CCENTER
  2
100CROSS
 10
10.812
 20
10.531
 30
0.0
 41
0.688
 42
0.688
 43
0.0
  0
CIRCLE
  8
CSOLID
 10
10.812
 20
10.531
 30
0.0
 40
0.344
  0
CIRCLE
  8
CSOLID
 10
10.812
 20
11.781
 30
0.0
 40
0.344
  0
INSERT
  8
CCENTER
  2
100CROSS
 10
10.812
 20
11.781
 30
0.0
 41
0.688
 42
0.688
 43
0.0
  0
INSERT
  8
CCENTER
  2
100CROSS
 10
13.063
 20
11.781
 30
0.0
 41
0.25
 42
0.25
 43
0.0
  0
CIRCLE
  8
CSOLID
 10
13.063
 20
11.781
 30
0.0
 40
0.1055
  0
CIRCLE
  8
CSOLID
 10
10.188
 20
11.156
 30
0.0
 40
0.1055
  0
INSERT
  8
CCENTER
  2
100CROSS
 10
10.188
 20
11.156
 30
0.0
 41
0.25
 42
0.25
 43
0.0
  0
INSERT
  8
CCENTER
  2
100CROSS
 10
13.0
 20
9.125
 30
0.0
 41
0.375
 42
0.375
 43
0.0
  0
CIRCLE
  8
CSOLID
 10
13.0
 20
9.125
 30
0.0
 40
0.15625
  0
INSERT
  8
CCENTER
  2
100CROSS
 10
13.0
 20
13.125
 30
0.0
 41
0.375
 42
0.375
 43
0.0
  0
CIRCLE
  8
CSOLID
 10
13.0
 20
13.125
 30
0.0
 40
0.15625
  0
INSERT
  8
CCENTER
  2
100CROSS
 10
10.25
 20
9.125
 30
0.0
 41
0.375
 42
0.375
 43
0.0
  0
CIRCLE
  8
CSOLID
 10
10.25
 20
9.125
 30
0.0
 40
0.15625
  0
CIRCLE
  8
CSOLID
 10
10.25
 20
13.125
 30
0.0
 40
0.15625
  0
INSERT
  8
CCENTER
  2
100CROSS
 10
10.25
 20
13.125
 30
0.0
 41
0.375
 42
0.375
 43
0.0
  0
CIRCLE
  8
CHIDDEN
 10
10.25
 20
13.125
 30
0.0
 40
0.1875
  0
CIRCLE
  8
CHIDDEN
 10
10.25
 20
9.125
 30
0.0
 40
0.1875
  0
CIRCLE
  8
CHIDDEN
 10
13.0
 20
13.125
 30
0.0
 40
0.1875
  0
CIRCLE
  8
CHIDDEN
 10
13.0
 20
9.125
 30
0.0
 40
0.1875
  0
CIRCLE
  8
CHIDDEN
 10
10.1875
 20
11.15625
 30
0.0
 40
0.125
  0
CIRCLE
  8
CHIDDEN
 10
13.0625
 20
11.78125
 30
0.0
 40
0.125
  0
INSERT
  8
CCENTER
  2
100CROSS
 10
11.625
 20
13.125
 30
0.0
 41
0.625
 42
0.625
 43
0.625
  0
INSERT
  8
CCENTER
  2
100CROSS
 10
11.625
 20
9.125
 30
0.0
 41
-0.625
 42
0.625
 50
180.0
 43
0.625
  0
CIRCLE
  8
CSOLID
 10
11.625
 20
9.125
 30
0.0
 40
0.3125
  0
CIRCLE
  8
CSOLID
 10
11.625
 20
9.125
 30
0.0
 40
0.203125
  0
CIRCLE
  8
CSOLID
 10
11.625
 20
13.125
 30
0.0
 40
0.3125
  0
CIRCLE
  8
CSOLID
 10
11.625
 20
13.125
 30
0.0
 40
0.203125
  0
INSERT
  8
CSOLID
  2
025NPTFT
 10
12.375
 20
4.75
 30
0.0
  0
INSERT
  8
CSOLID
  2
025NPTFT
 10
10.875
 20
4.75
 30
0.0
  0
INSERT
  8
CSOLID
  2
050NPTFT
 10
4.8125
 20
12.0
 30
0.0
  0
INSERT
  8
CSOLID
  2
050NPTFT
 10
4.8125
 20
10.375
 30
0.0
  0
LINE
  8
CCENTER
 10
11.217875
 20
4.75
 30
0.0
 11
12.09375
 21
4.75
 31
0.0
  0
CIRCLE
  8
CSOLID
 10
18.4375
 20
10.71875
 30
0.0
 40
0.492
  0
CIRCLE
  8
CSOLID
 10
18.4375
 20
10.71875
 30
0.0
 40
0.453
  0
ARC
  8
CSOLID
 10
18.4375
 20
10.71875
 30
0.0
 40
0.8125
 50
101.254713
 51
78.745287
  0
INSERT
  8
CCENTER
  2
100CROSS
 10
18.4375
 20
10.71875
 30
0.0
 41
1.33
 42
1.33
 43
0.0
  0
CIRCLE
  8
CHIDDEN
 10
18.4375
 20
10.71875
 30
0.0
 40
0.53125
  0
CIRCLE
  8
CSOLID
 10
18.4375
 20
12.3125
 30
0.0
 40
0.492
  0
CIRCLE
  8
CSOLID
 10
18.4375
 20
12.3125
 30
0.0
 40
0.453
  0
ARC
  8
CSOLID
 10
18.4375
 20
12.3125
 30
0.0
 40
0.8125
 50
281.254713
 51
258.745287
  0
INSERT
  8
CCENTER
  2
100CROSS
 10
18.4375
 20
12.3125
 30
0.0
 41
1.33
 42
1.33
 43
0.0
  0
CIRCLE
  8
CHIDDEN
 10
18.4375
 20
12.3125
 30
0.0
 40
0.53125
  0
TEXT
  8
CDIM
 10
10.1875
 20
4.78125
 30
0.0
 40
0.25
  1
Y
  7
STR
  0
TEXT
  8
CDIM
 10
12.9375
 20
4.78125
 30
0.0
 40
0.25
  1
X
  7
STR
  0
TEXT
  8
CDIM
 10
5.4375
 20
12.84375
 30
0.0
 40
0.25
  1
A
 50
270.0
  7
STR
  0
TEXT
  8
CDIM
 10
5.40625
 20
9.6875
 30
0.0
 40
0.25
  1
B
 50
270.0
  7
STR
  0
TEXT
  8
CDIM
 10
17.84375
 20
12.9375
 30
0.0
 40
0.25
  1
T
 50
90.0
  7
STR
  0
TEXT
  8
CDIM
 10
17.84375
 20
9.75
 30
0.0
 40
0.25
  1
P
 50
90.0
  7
STR
  0
LINE
  8
CDIM
 10
4.0
 20
13.625556
 30
0.0
 11
4.0
 21
14.251113
 31
0.0
  0
LINE
  8
CDIM
 10
4.8125
 20
12.578556
 30
0.0
 11
4.8125
 21
14.251113
 31
0.0
  0
LINE
  8
CDIM
 10
5.063612
 20
14.0
 30
0.0
 11
5.314725
 21
14.0
 31
0.0
  0
LINE
  8
CDIM
 10
3.748888
 20
14.0
 30
0.0
 11
3.497775
 21
14.0
 31
0.0
  0
SOLID
  8
CDIM
 10
5.063612
 20
13.958148
 30
0.0
 11
5.063612
 21
14.041852
 31
0.0
 12
4.8125
 22
14.0
 32
0.0
 13
4.8125
 23
14.0
 33
0.0
  0
SOLID
  8
CDIM
 10
3.748888
 20
13.958148
 30
0.0
 11
3.748888
 21
14.041852
 31
0.0
 12
4.0
 22
14.0
 32
0.0
 13
4.0
 23
14.0
 33
0.0
  0
TEXT
  8
CDIM
 10
5.565837
 20
13.859377
 30
0.0
 40
0.281246
  1
0.81
  7
STR
  0
LINE
  8
CDIM
 10
4.0
 20
13.625556
 30
0.0
 11
4.0
 21
15.00445
 31
0.0
  0
LINE
  8
CDIM
 10
5.75
 20
13.625556
 30
0.0
 11
5.75
 21
13.71875
 31
0.0
  0
LINE
  8
CDIM
 10
6.001113
 20
14.753338
 30
0.0
 11
6.252225
 21
14.753338
 31
0.0
  0
LINE
  8
CDIM
 10
3.748888
 20
14.753338
 30
0.0
 11
3.497775
 21
14.753338
 31
0.0
  0
SOLID
  8
CDIM
 10
6.001113
 20
14.711485
 30
0.0
 11
6.001113
 21
14.79519
 31
0.0
 12
5.75
 22
14.753338
 32
0.0
 13
5.75
 23
14.753338
 33
0.0
  0
SOLID
  8
CDIM
 10
3.748888
 20
14.711485
 30
0.0
 11
3.748888
 21
14.79519
 31
0.0
 12
4.0
 22
14.753338
 32
0.0
 13
4.0
 23
14.753338
 33
0.0
  0
TEXT
  8
CDIM
 10
4.472088
 20
14.612715
 30
0.0
 40
0.281246
  1
1.75
  7
STR
  0
LINE
  8
CDIM
 10
9.75
 20
13.625556
 30
0.0
 11
9.75
 21
14.251113
 31
0.0
  0
LINE
  8
CDIM
 10
12.437
 20
12.875556
 30
0.0
 11
12.437
 21
14.251113
 31
0.0
  0
LINE
  8
CDIM
 10
10.001113
 20
14.0
 30
0.0
 11
10.420518
 21
14.0
 31
0.0
  0
LINE
  8
CDIM
 10
12.185887
 20
14.0
 30
0.0
 11
11.766481
 21
14.0
 31
0.0
  0
SOLID
  8
CDIM
 10
10.001113
 20
13.958148
 30
0.0
 11
10.001113
 21
14.041852
 31
0.0
 12
9.75
 22
14.0
 32
0.0
 13
9.75
 23
14.0
 33
0.0
  0
SOLID
  8
CDIM
 10
12.185887
 20
13.958148
 30
0.0
 11
12.185887
 21
14.041852
 31
0.0
 12
12.437
 22
14.0
 32
0.0
 13
12.437
 23
14.0
 33
0.0
  0
TEXT
  8
CDIM
 10
10.671631
 20
13.859377
 30
0.0
 40
0.281246
  1
2.69
  7
STR
  0
LINE
  8
CDIM
 10
9.75
 20
13.625556
 30
0.0
 11
9.75
 21
15.00445
 31
0.0
  0
LINE
  8
CDIM
 10
13.5
 20
13.625556
 30
0.0
 11
13.5
 21
15.00445
 31
0.0
  0
LINE
  8
CDIM
 10
10.001113
 20
14.753338
 30
0.0
 11
10.945322
 21
14.753338
 31
0.0
  0
LINE
  8
CDIM
 10
13.248888
 20
14.753338
 30
0.0
 11
12.304678
 21
14.753338
 31
0.0
  0
SOLID
  8
CDIM
 10
10.001113
 20
14.711485
 30
0.0
 11
10.001113
 21
14.79519
 31
0.0
 12
9.75
 22
14.753338
 32
0.0
 13
9.75
 23
14.753338
 33
0.0
  0
SOLID
  8
CDIM
 10
13.248888
 20
14.711485
 30
0.0
 11
13.248888
 21
14.79519
 31
0.0
 12
13.5
 22
14.753338
 32
0.0
 13
13.5
 23
14.753338
 33
0.0
  0
TEXT
  8
CDIM
 10
11.196435
 20
14.612715
 30
0.0
 40
0.281246
  1
3.75
  7
STR
  0
LINE
  8
CDIM
 10
9.624444
 20
13.5
 30
0.0
 11
8.873888
 21
13.5
 31
0.0
  0
LINE
  8
CDIM
 10
11.967444
 20
11.156
 30
0.0
 11
8.873888
 21
11.156
 31
0.0
  0
LINE
  8
CDIM
 10
9.125
 20
13.248888
 30
0.0
 11
9.125
 21
12.719735
 31
0.0
  0
LINE
  8
CDIM
 10
9.125
 20
11.407112
 30
0.0
 11
9.125
 21
11.936264
 31
0.0
  0
SOLID
  8
CDIM
 10
9.166852
 20
13.248888
 30
0.0
 11
9.083148
 21
13.248888
 31
0.0
 12
9.125
 22
13.5
 32
0.0
 13
9.125
 23
13.5
 33
0.0
  0
SOLID
  8
CDIM
 10
9.166852
 20
11.407112
 30
0.0
 11
9.083148
 21
11.407112
 31
0.0
 12
9.125
 22
11.156
 32
0.0
 13
9.125
 23
11.156
 33
0.0
  0
TEXT
  8
CDIM
 10
8.689738
 20
12.187377
 30
0.0
 40
0.281246
  1
2.34
  7
STR
  0
LINE
  8
CDIM
 10
9.624444
 20
13.5
 30
0.0
 11
8.12055
 21
13.5
 31
0.0
  0
LINE
  8
CDIM
 10
9.624444
 20
8.75
 30
0.0
 11
8.12055
 21
8.75
 31
0.0
  0
LINE
  8
CDIM
 10
8.371662
 20
13.248888
 30
0.0
 11
8.371662
 21
11.047986
 31
0.0
  0
LINE
  8
CDIM
 10
8.371662
 20
9.001113
 30
0.0
 11
8.371662
 21
10.264515
 31
0.0
  0
SOLID
  8
CDIM
 10
8.413515
 20
13.248888
 30
0.0
 11
8.32981
 21
13.248888
 31
0.0
 12
8.371662
 22
13.5
 32
0.0
 13
8.371662
 23
13.5
 33
0.0
  0
SOLID
  8
CDIM
 10
8.413515
 20
9.001113
 30
0.0
 11
8.32981
 21
9.001113
 31
0.0
 12
8.371662
 22
8.75
 32
0.0
 13
8.371662
 23
8.75
 33
0.0
  0
TEXT
  8
CDIM
 10
7.943097
 20
10.515627
 30
0.0
 40
0.281246
  1
4.75
  7
STR
  0
LINE
  8
CDIM
 10
13.625556
 20
13.5
 30
0.0
 11
14.376113
 21
13.5
 31
0.0
  0
LINE
  8
CDIM
 10
11.750556
 20
13.125
 30
0.0
 11
14.376113
 21
13.125
 31
0.0
  0
LINE
  8
CDIM
 10
14.125
 20
12.873888
 30
0.0
 11
14.125
 21
12.622775
 31
0.0
  0
LINE
  8
CDIM
 10
14.125
 20
13.751113
 30
0.0
 11
14.125
 21
14.002225
 31
0.0
  0
SOLID
  8
CDIM
 10
14.166852
 20
12.873888
 30
0.0
 11
14.083148
 21
12.873888
 31
0.0
 12
14.125
 22
13.125
 32
0.0
 13
14.125
 23
13.125
 33
0.0
  0
SOLID
  8
CDIM
 10
14.166852
 20
13.751113
 30
0.0
 11
14.083148
 21
13.751113
 31
0.0
 12
14.125
 22
13.5
 32
0.0
 13
14.125
 23
13.5
 33
0.0
  0
TEXT
  8
CDIM
 10
13.671894
 20
12.169652
 30
0.0
 40
0.281246
  1
0.37
  7
STR
  0
LINE
  8
CDIM
 10
13.625556
 20
13.5
 30
0.0
 11
15.12945
 21
13.5
 31
0.0
  0
LINE
  8
CDIM
 10
11.750556
 20
9.125
 30
0.0
 11
15.12945
 21
9.125
 31
0.0
  0
LINE
  8
CDIM
 10
14.878338
 20
13.248888
 30
0.0
 11
14.878338
 21
11.704236
 31
0.0
  0
LINE
  8
CDIM
 10
14.878338
 20
9.376112
 30
0.0
 11
14.878338
 21
10.920765
 31
0.0
  0
SOLID
  8
CDIM
 10
14.92019
 20
13.248888
 30
0.0
 11
14.836485
 21
13.248888
 31
0.0
 12
14.878338
 22
13.5
 32
0.0
 13
14.878338
 23
13.5
 33
0.0
  0
SOLID
  8
CDIM
 10
14.92019
 20
9.376112
 30
0.0
 11
14.836485
 21
9.376112
 31
0.0
 12
14.878338
 22
9.125
 32
0.0
 13
14.878338
 23
9.125
 33
0.0
  0
TEXT
  8
CDIM
 10
14.449772
 20
11.171877
 30
0.0
 40
0.281246
  1
4.38
  7
STR
  0
LINE
  8
CDIM
 10
9.75
 20
8.624444
 30
0.0
 11
9.75
 21
7.998888
 31
0.0
  0
LINE
  8
CDIM
 10
11.625
 20
8.999444
 30
0.0
 11
11.625
 21
7.998888
 31
0.0
  0
LINE
  8
CDIM
 10
10.001113
 20
8.25
 30
0.0
 11
10.034608
 21
8.25
 31
0.0
  0
LINE
  8
CDIM
 10
11.373888
 20
8.25
 30
0.0
 11
11.340393
 21
8.25
 31
0.0
  0
SOLID
  8
CDIM
 10
10.001113
 20
8.208148
 30
0.0
 11
10.001113
 21
8.291852
 31
0.0
 12
9.75
 22
8.25
 32
0.0
 13
9.75
 23
8.25
 33
0.0
  0
SOLID
  8
CDIM
 10
11.373888
 20
8.208148
 30
0.0
 11
11.373888
 21
8.291852
 31
0.0
 12
11.625
 22
8.25
 32
0.0
 13
11.625
 23
8.25
 33
0.0
  0
TEXT
  8
CDIM
 10
10.28572
 20
8.109377
 30
0.0
 40
0.281246
  1
1.88
  7
STR
  0
LINE
  8
CDIM
 10
5.875556
 20
13.5
 30
0.0
 11
6.626113
 21
13.5
 31
0.0
  0
LINE
  8
CDIM
 10
5.391056
 20
12.0
 30
0.0
 11
6.626113
 21
12.0
 31
0.0
  0
LINE
  8
CDIM
 10
6.375
 20
13.248888
 30
0.0
 11
6.375
 21
13.141735
 31
0.0
  0
LINE
  8
CDIM
 10
6.375
 20
12.251112
 30
0.0
 11
6.375
 21
12.358264
 31
0.0
  0
SOLID
  8
CDIM
 10
6.416852
 20
13.248888
 30
0.0
 11
6.333148
 21
13.248888
 31
0.0
 12
6.375
 22
13.5
 32
0.0
 13
6.375
 23
13.5
 33
0.0
  0
SOLID
  8
CDIM
 10
6.416852
 20
12.251112
 30
0.0
 11
6.333148
 21
12.251112
 31
0.0
 12
6.375
 22
12.0
 32
0.0
 13
6.375
 23
12.0
 33
0.0
  0
TEXT
  8
CDIM
 10
5.97322
 20
12.609377
 30
0.0
 40
0.281246
  1
1.50
  7
STR
  0
LINE
  8
CDIM
 10
5.875556
 20
13.5
 30
0.0
 11
7.37945
 21
13.5
 31
0.0
  0
LINE
  8
CDIM
 10
5.430056
 20
10.375
 30
0.0
 11
7.37945
 21
10.375
 31
0.0
  0
LINE
  8
CDIM
 10
7.128338
 20
13.248888
 30
0.0
 11
7.128338
 21
11.954235
 31
0.0
  0
LINE
  8
CDIM
 10
7.128338
 20
10.626112
 30
0.0
 11
7.128338
 21
11.170764
 31
0.0
  0
SOLID
  8
CDIM
 10
7.17019
 20
13.248888
 30
0.0
 11
7.086485
 21
13.248888
 31
0.0
 12
7.128338
 22
13.5
 32
0.0
 13
7.128338
 23
13.5
 33
0.0
  0
SOLID
  8
CDIM
 10
7.17019
 20
10.626112
 30
0.0
 11
7.086485
 21
10.626112
 31
0.0
 12
7.128338
 22
10.375
 32
0.0
 13
7.128338
 23
10.375
 33
0.0
  0
TEXT
  8
CDIM
 10
6.726558
 20
11.421877
 30
0.0
 40
0.281246
  1
3.13
  7
STR
  0
LINE
  8
CDIM
 10
19.25
 20
13.625556
 30
0.0
 11
19.25
 21
14.251113
 31
0.0
  0
LINE
  8
CDIM
 10
18.4375
 20
12.891056
 30
0.0
 11
18.4375
 21
14.251113
 31
0.0
  0
LINE
  8
CDIM
 10
18.186387
 20
14.0
 30
0.0
 11
17.935275
 21
14.0
 31
0.0
  0
LINE
  8
CDIM
 10
19.501113
 20
14.0
 30
0.0
 11
19.752225
 21
14.0
 31
0.0
  0
SOLID
  8
CDIM
 10
18.186387
 20
13.958148
 30
0.0
 11
18.186387
 21
14.041852
 31
0.0
 12
18.4375
 22
14.0
 32
0.0
 13
18.4375
 23
14.0
 33
0.0
  0
SOLID
  8
CDIM
 10
19.501113
 20
13.958148
 30
0.0
 11
19.501113
 21
14.041852
 31
0.0
 12
19.25
 22
14.0
 32
0.0
 13
19.25
 23
14.0
 33
0.0
  0
TEXT
  8
CDIM
 10
17.041316
 20
13.859377
 30
0.0
 40
0.281246
  1
0.81
  7
STR
  0
LINE
  8
CDIM
 10
17.374444
 20
13.5
 30
0.0
 11
16.623888
 21
13.5
 31
0.0
  0
LINE
  8
CDIM
 10
17.858944
 20
12.3125
 30
0.0
 11
16.623888
 21
12.3125
 31
0.0
  0
LINE
  8
CDIM
 10
16.875
 20
12.061387
 30
0.0
 11
16.875
 21
11.810275
 31
0.0
  0
LINE
  8
CDIM
 10
16.875
 20
13.751113
 30
0.0
 11
16.875
 21
14.002225
 31
0.0
  0
SOLID
  8
CDIM
 10
16.916852
 20
12.061387
 30
0.0
 11
16.833148
 21
12.061387
 31
0.0
 12
16.875
 22
12.3125
 32
0.0
 13
16.875
 23
12.3125
 33
0.0
  0
SOLID
  8
CDIM
 10
16.916852
 20
13.751113
 30
0.0
 11
16.833148
 21
13.751113
 31
0.0
 12
16.875
 22
13.5
 32
0.0
 13
16.875
 23
13.5
 33
0.0
  0
TEXT
  8
CDIM
 10
16.511178
 20
12.732152
 30
0.0
 40
0.281246
  1
1.19
  7
STR
  0
LINE
  8
CDIM
 10
17.374444
 20
13.5
 30
0.0
 11
15.87055
 21
13.5
 31
0.0
  0
LINE
  8
CDIM
 10
17.858944
 20
10.71875
 30
0.0
 11
15.87055
 21
10.71875
 31
0.0
  0
LINE
  8
CDIM
 10
16.121663
 20
13.248888
 30
0.0
 11
16.121663
 21
12.34486
 31
0.0
  0
LINE
  8
CDIM
 10
16.121663
 20
10.969862
 30
0.0
 11
16.121663
 21
11.561389
 31
0.0
  0
SOLID
  8
CDIM
 10
16.163515
 20
13.248888
 30
0.0
 11
16.07981
 21
13.248888
 31
0.0
 12
16.121663
 22
13.5
 32
0.0
 13
16.121663
 23
13.5
 33
0.0
  0
SOLID
  8
CDIM
 10
16.163515
 20
10.969862
 30
0.0
 11
16.07981
 21
10.969862
 31
0.0
 12
16.121663
 22
10.71875
 32
0.0
 13
16.121663
 23
10.71875
 33
0.0
  0
TEXT
  8
CDIM
 10
15.693097
 20
11.812502
 30
0.0
 40
0.281246
  1
2.78
  7
STR
  0
LINE
  8
CDIM
 10
9.75
 20
5.375556
 30
0.0
 11
9.75
 21
6.001113
 31
0.0
  0
LINE
  8
CDIM
 10
10.875
 20
5.125556
 30
0.0
 11
10.875
 21
6.001113
 31
0.0
  0
LINE
  8
CDIM
 10
11.126112
 20
5.75
 30
0.0
 11
11.377225
 21
5.75
 31
0.0
  0
LINE
  8
CDIM
 10
9.498888
 20
5.75
 30
0.0
 11
9.247775
 21
5.75
 31
0.0
  0
SOLID
  8
CDIM
 10
11.126112
 20
5.708148
 30
0.0
 11
11.126112
 21
5.791852
 31
0.0
 12
10.875
 22
5.75
 32
0.0
 13
10.875
 23
5.75
 33
0.0
  0
SOLID
  8
CDIM
 10
9.498888
 20
5.708148
 30
0.0
 11
9.498888
 21
5.791852
 31
0.0
 12
9.75
 22
5.75
 32
0.0
 13
9.75
 23
5.75
 33
0.0
  0
TEXT
  8
CDIM
 10
9.940837
 20
5.609377
 30
0.0
 40
0.281246
  1
1.12
  7
STR
  0
LINE
  8
CDIM
 10
9.75
 20
5.375556
 30
0.0
 11
9.75
 21
6.75445
 31
0.0
  0
LINE
  8
CDIM
 10
12.375
 20
5.125556
 30
0.0
 11
12.375
 21
6.75445
 31
0.0
  0
LINE
  8
CDIM
 10
10.001113
 20
6.503338
 30
0.0
 11
10.382822
 21
6.503338
 31
0.0
  0
LINE
  8
CDIM
 10
12.123887
 20
6.503338
 30
0.0
 11
11.742178
 21
6.503338
 31
0.0
  0
SOLID
  8
CDIM
 10
10.001113
 20
6.461485
 30
0.0
 11
10.001113
 21
6.54519
 31
0.0
 12
9.75
 22
6.503338
 32
0.0
 13
9.75
 23
6.503338
 33
0.0
  0
SOLID
  8
CDIM
 10
12.123887
 20
6.461485
 30
0.0
 11
12.123887
 21
6.54519
 31
0.0
 12
12.375
 22
6.503338
 32
0.0
 13
12.375
 23
6.503338
 33
0.0
  0
TEXT
  8
CDIM
 10
10.633935
 20
6.362715
 30
0.0
 40
0.281246
  1
2.62
  7
STR
  0
LINE
  8
CDIM
 10
9.624444
 20
3.5
 30
0.0
 11
8.873888
 21
3.5
 31
0.0
  0
LINE
  8
CDIM
 10
10.468194
 20
4.75
 30
0.0
 11
8.873888
 21
4.75
 31
0.0
  0
LINE
  8
CDIM
 10
9.125
 20
5.001112
 30
0.0
 11
9.125
 21
5.252225
 31
0.0
  0
LINE
  8
CDIM
 10
9.125
 20
3.248888
 30
0.0
 11
9.125
 21
2.997775
 31
0.0
  0
SOLID
  8
CDIM
 10
9.166852
 20
5.001112
 30
0.0
 11
9.083148
 21
5.001112
 31
0.0
 12
9.125
 22
4.75
 32
0.0
 13
9.125
 23
4.75
 33
0.0
  0
SOLID
  8
CDIM
 10
9.166852
 20
3.248888
 30
0.0
 11
9.083148
 21
3.248888
 31
0.0
 12
9.125
 22
3.5
 32
0.0
 13
9.125
 23
3.5
 33
0.0
  0
TEXT
  8
CDIM
 10
8.689725
 20
4.017852
 30
0.0
 40
0.281246
  1
1.25
  7
STR
  0
LINE
  8
CDIM
 10
5.75
 20
14.28125
 30
0.0
 11
5.75
 21
15.00445
 31
0.0
  0
ENDBLK
  8
0
  0
BLOCK
  8
CSOLID
  2
100CROSS
 70
    64
 10
5.625
 20
4.59375
 30
0.0
  0
INSERT
  8
0
  2
050CROSS
 10
5.625
 20
4.59375
 30
0.0
 43
0.0
  0
ENDBLK
  8
0
  0
BLOCK
  8
0
  2
050CROSS
 70
    64
 10
5.0
 20
5.0
 30
0.0
  0
LINE
  8
0
 10
5.0
 20
5.28125
 30
0.0
 11
5.0
 21
5.78125
 31
0.0
  0
LINE
  8
0
 10
5.0
 20
4.875
 30
0.0
 11
5.0
 21
5.125
 31
0.0
  0
LINE
  8
0
 10
5.0
 20
4.15625
 30
0.0
 11
5.0
 21
4.71875
 31
0.0
  0
LINE
  8
0
 10
5.25
 20
5.0
 30
0.0
 11
5.8125
 21
5.0
 31
0.0
  0
LINE
  8
0
 10
4.90625
 20
5.0
 30
0.0
 11
5.09375
 21
5.0
 31
0.0
  0
LINE
  8
0
 10
4.1875
 20
5.0
 30
0.0
 11
4.75
 21
5.0
 31
0.0
  0
ENDBLK
  8
0
  0
BLOCK
  8
CSOLID
  2
025NPTFT
 70
    64
 10
11.75
 20
9.75
 30
0.0
  0
INSERT
  8
CCENTER
  2
100CROSS
 10
11.75
 20
9.75
 30
0.0
 43
0.0
  0
CIRCLE
  8
CHIDDEN
 10
11.75
 20
9.75
 30
0.0
 40
0.28125
  0
CIRCLE
  8
CSOLID
 10
11.75
 20
9.75
 30
0.0
 40
0.5
  0
CIRCLE
  8
CSOLID
 10
11.75
 20
9.75
 30
0.0
 40
0.25
  0
ENDBLK
  8
CSOLID
  0
BLOCK
  8
CSOLID
  2
050NPTFT
 70
    64
 10
6.625
 20
14.28125
 30
0.0
  0
CIRCLE
  8
CSOLID
 10
6.625
 20
14.28125
 30
0.0
 40
0.492
  0
CIRCLE
  8
CSOLID
 10
6.625
 20
14.28125
 30
0.0
 40
0.453
  0
CIRCLE
  8
CSOLID
 10
6.625
 20
14.28125
 30
0.0
 40
0.8125
  0
INSERT
  8
CCENTER
  2
100CROSS
 10
6.625
 20
14.28125
 30
0.0
 41
1.33
 42
1.33
 43
0.0
  0
CIRCLE
  8
CHIDDEN
 10
6.625
 20
14.28125
 30
0.0
 40
0.53125
  0
ENDBLK
  8
CSOLID
  0
ENDSEC
  0
SECTION
  2
ENTITIES
  0
POLYLINE
  8
DAMAN
 66
     1
 10
0.0
 20
0.0
 30
0.0
 70
     1
  0
VERTEX
  8
DAMAN
 10
7.4375
 20
10.03125
 30
0.0
  0
VERTEX
  8
DAMAN
 10
7.4375
 20
14.78125
 30
0.0
  0
VERTEX
  8
DAMAN
 10
9.1875
 20
14.78125
 30
0.0
  0
VERTEX
  8
DAMAN
 10
9.1875
 20
10.03125
 30
0.0
  0
SEQEND
  8
DAMAN
  0
POLYLINE
  8
DAMAN
 66
     1
 10
0.0
 20
0.0
 30
0.0
 70
     1
  0
VERTEX
  8
DAMAN
 10
16.9375
 20
10.03125
 30
0.0
  0
VERTEX
  8
DAMAN
 10
16.9375
 20
14.78125
 30
0.0
  0
VERTEX
  8
DAMAN
 10
18.6875
 20
14.78125
 30
0.0
  0
VERTEX
  8
DAMAN
 10
18.6875
 20
10.03125
 30
0.0
  0
SEQEND
  8
DAMAN
  0
POLYLINE
  8
DAMAN
 66
     1
 10
0.0
 20
0.0
 30
0.0
 70
     1
  0
VERTEX
  8
DAMAN
 10
11.1875
 20
10.03125
 30
0.0
  0
VERTEX
  8
DAMAN
 10
11.1875
 20
14.78125
 30
0.0
  0
VERTEX
  8
DAMAN
 10
14.9375
 20
14.78125
 30
0.0
  0
VERTEX
  8
DAMAN
 10
14.9375
 20
10.03125
 30
0.0
  0
SEQEND
  8
DAMAN
  0
POLYLINE
  8
DAMAN
 66
     1
 10
0.0
 20
0.0
 30
0.0
 70
     1
  0
VERTEX
  8
DAMAN
 10
11.1875
 20
6.78125
 30
0.0
  0
VERTEX
  8
DAMAN
 10
11.1875
 20
8.53125
 30
0.0
  0
VERTEX
  8
DAMAN
 10
14.9375
 20
8.53125
 30
0.0
  0
VERTEX
  8
DAMAN
 10
14.9375
 20
6.78125
 30
0.0
  0
SEQEND
  8
DAMAN
  0
INSERT
  8
DAMAN
  2
100CROSS
 10
13.8125
 20
11.39125
 30
0.0
 41
0.25
 42
0.25
 43
0.0
  0
CIRCLE
  8
DAMAN
 10
13.8125
 20
11.39125
 30
0.0
 40
0.125
  0
CIRCLE
  8
DAMAN
 10
12.1875
 20
10.93825
 30
0.0
 40
0.125
  0
INSERT
  8
DAMAN
  2
100CROSS
 10
12.1875
 20
10.93825
 30
0.0
 41
0.25
 42
0.25
 43
0.0
  0
INSERT
  8
DAMAN
  2
100CROSS
 10
14.4375
 20
11.3905
 30
0.0
 41
0.171
 42
0.171
 43
0.0
  0
CIRCLE
  8
DAMAN
 10
14.4375
 20
11.3905
 30
0.0
 40
0.0855
  0
CIRCLE
  8
DAMAN
 10
11.6875
 20
13.6875
 30
0.0
 40
0.0855
  0
INSERT
  8
DAMAN
  2
100CROSS
 10
11.6875
 20
13.6875
 30
0.0
 41
0.171
 42
0.171
 43
0.0
  0
INSERT
  8
DAMAN
  2
100CROSS
 10
13.8745
 20
13.68725
 30
0.0
 41
0.688
 42
0.688
 43
0.0
  0
CIRCLE
  8
DAMAN
 10
13.8745
 20
13.68725
 30
0.0
 40
0.344
  0
CIRCLE
  8
DAMAN
 10
13.8745
 20
12.43725
 30
0.0
 40
0.344
  0
INSERT
  8
DAMAN
  2
100CROSS
 10
13.8745
 20
12.43725
 30
0.0
 41
0.688
 42
0.688
 43
0.0
  0
INSERT
  8
DAMAN
  2
100CROSS
 10
12.2495
 20
11.81225
 30
0.0
 41
0.688
 42
0.688
 43
0.0
  0
CIRCLE
  8
DAMAN
 10
12.2495
 20
11.81225
 30
0.0
 40
0.344
  0
CIRCLE
  8
DAMAN
 10
12.2495
 20
13.06225
 30
0.0
 40
0.344
  0
INSERT
  8
DAMAN
  2
100CROSS
 10
12.2495
 20
13.06225
 30
0.0
 41
0.688
 42
0.688
 43
0.0
  0
INSERT
  8
DAMAN
  2
100CROSS
 10
14.5005
 20
13.06225
 30
0.0
 41
0.25
 42
0.25
 43
0.0
  0
CIRCLE
  8
DAMAN
 10
14.5005
 20
13.06225
 30
0.0
 40
0.1055
  0
CIRCLE
  8
DAMAN
 10
11.6255
 20
12.43725
 30
0.0
 40
0.1055
  0
INSERT
  8
DAMAN
  2
100CROSS
 10
11.6255
 20
12.43725
 30
0.0
 41
0.25
 42
0.25
 43
0.0
  0
INSERT
  8
DAMAN
  2
100CROSS
 10
14.4375
 20
10.40625
 30
0.0
 41
0.375
 42
0.375
 43
0.0
  0
CIRCLE
  8
DAMAN
 10
14.4375
 20
10.40625
 30
0.0
 40
0.15625
  0
INSERT
  8
DAMAN
  2
100CROSS
 10
14.4375
 20
14.40625
 30
0.0
 41
0.375
 42
0.375
 43
0.0
  0
CIRCLE
  8
DAMAN
 10
14.4375
 20
14.40625
 30
0.0
 40
0.15625
  0
INSERT
  8
DAMAN
  2
100CROSS
 10
11.6875
 20
10.40625
 30
0.0
 41
0.375
 42
0.375
 43
0.0
  0
CIRCLE
  8
DAMAN
 10
11.6875
 20
10.40625
 30
0.0
 40
0.15625
  0
CIRCLE
  8
DAMAN
 10
11.6875
 20
14.40625
 30
0.0
 40
0.15625
  0
INSERT
  8
DAMAN
  2
100CROSS
 10
11.6875
 20
14.40625
 30
0.0
 41
0.375
 42
0.375
 43
0.0
  0
CIRCLE
  8
DAMAN
 10
11.6875
 20
14.40625
 30
0.0
 40
0.1875
  0
CIRCLE
  8
DAMAN
 10
11.6875
 20
10.40625
 30
0.0
 40
0.1875
  0
CIRCLE
  8
DAMAN
 10
14.4375
 20
14.40625
 30
0.0
 40
0.1875
  0
CIRCLE
  8
DAMAN
 10
14.4375
 20
10.40625
 30
0.0
 40
0.1875
  0
CIRCLE
  8
DAMAN
 10
11.625
 20
12.4375
 30
0.0
 40
0.125
  0
CIRCLE
  8
DAMAN
 10
14.5
 20
13.0625
 30
0.0
 40
0.125
  0
INSERT
  8
DAMAN
  2
100CROSS
 10
13.0625
 20
14.40625
 30
0.0
 41
0.625
 42
0.625
 43
0.625
  0
INSERT
  8
DAMAN
  2
100CROSS
 10
13.0625
 20
10.40625
 30
0.0
 41
-0.625
 42
0.625
 50
180.0
 43
0.625
  0
CIRCLE
  8
DAMAN
 10
13.0625
 20
10.40625
 30
0.0
 40
0.3125
  0
CIRCLE
  8
DAMAN
 10
13.0625
 20
10.40625
 30
0.0
 40
0.203125
  0
CIRCLE
  8
DAMAN
 10
13.0625
 20
14.40625
 30
0.0
 40
0.3125
  0
CIRCLE
  8
DAMAN
 10
13.0625
 20
14.40625
 30
0.0
 40
0.203125
  0
LINE
  8
DAMAN
 10
12.655375
 20
8.03125
 30
0.0
 11
13.53125
 21
8.03125
 31
0.0
  0
CIRCLE
  8
DAMAN
 10
17.875
 20
12.0
 30
0.0
 40
0.492
  0
CIRCLE
  8
DAMAN
 10
17.875
 20
12.0
 30
0.0
 40
0.453
  0
ARC
  8
DAMAN
 10
17.875
 20
12.0
 30
0.0
 40
0.8125
 50
101.254713
 51
78.745287
  0
INSERT
  8
DAMAN
  2
100CROSS
 10
17.875
 20
12.0
 30
0.0
 41
1.33
 42
1.33
 43
0.0
  0
CIRCLE
  8
DAMAN
 10
17.875
 20
12.0
 30
0.0
 40
0.53125
  0
CIRCLE
  8
DAMAN
 10
17.875
 20
13.59375
 30
0.0
 40
0.492
  0
CIRCLE
  8
DAMAN
 10
17.875
 20
13.59375
 30
0.0
 40
0.453
  0
ARC
  8
DAMAN
 10
17.875
 20
13.59375
 30
0.0
 40
0.8125
 50
281.254713
 51
258.745287
  0
INSERT
  8
DAMAN
  2
100CROSS
 10
17.875
 20
13.59375
 30
0.0
 41
1.33
 42
1.33
 43
0.0
  0
CIRCLE
  8
DAMAN
 10
17.875
 20
13.59375
 30
0.0
 40
0.53125
  0
TEXT
  8
DAMAN
 10
11.625
 20
8.0625
 30
0.0
 40
0.25
  1
Y
  7
STR
  0
TEXT
  8
DAMAN
 10
14.375
 20
8.0625
 30
0.0
 40
0.25
  1
X
  7
STR
  0
TEXT
  8
DAMAN
 10
8.875
 20
14.125
 30
0.0
 40
0.25
  1
A
 50
270.0
  7
STR
  0
TEXT
  8
DAMAN
 10
8.84375
 20
10.96875
 30
0.0
 40
0.25
  1
B
 50
270.0
  7
STR
  0
TEXT
  8
DAMAN
 10
17.28125
 20
14.21875
 30
0.0
 40
0.25
  1
T
 50
90.0
  7
STR
  0
TEXT
  8
DAMAN
 10
17.28125
 20
11.03125
 30
0.0
 40
0.25
  1
P
 50
90.0
  7
STR
  0
INSERT
  8
DAMAN
  2
100CROSS
 10
12.3125
 20
8.03125
 30
0.0
 43
0.0
  0
CIRCLE
  8
DAMAN
 10
12.3125
 20
8.03125
 30
0.0
 40
0.28125
  0
CIRCLE
  8
DAMAN
 10
12.3125
 20
8.03125
 30
0.0
 40
0.5
  0
CIRCLE
  8
DAMAN
 10
12.3125
 20
8.03125
 30
0.0
 40
0.25
  0
INSERT
  8
DAMAN
  2
100CROSS
 10
13.8125
 20
8.03125
 30
0.0
 43
0.0
  0
CIRCLE
  8
DAMAN
 10
13.8125
 20
8.03125
 30
0.0
 40
0.28125
  0
CIRCLE
  8
DAMAN
 10
13.8125
 20
8.03125
 30
0.0
 40
0.5
  0
CIRCLE
  8
DAMAN
 10
13.8125
 20
8.03125
 30
0.0
 40
0.25
  0
CIRCLE
  8
DAMAN
 10
8.25
 20
11.65625
 30
0.0
 40
0.492
  0
CIRCLE
  8
DAMAN
 10
8.25
 20
11.65625
 30
0.0
 40
0.453
  0
CIRCLE
  8
DAMAN
 10
8.25
 20
11.65625
 30
0.0
 40
0.8125
  0
INSERT
  8
DAMAN
  2
100CROSS
 10
8.25
 20
11.65625
 30
0.0
 41
1.33
 42
1.33
 43
0.0
  0
CIRCLE
  8
DAMAN
 10
8.25
 20
11.65625
 30
0.0
 40
0.53125
  0
CIRCLE
  8
DAMAN
 10
8.25
 20
13.28125
 30
0.0
 40
0.492
  0
CIRCLE
  8
DAMAN
 10
8.25
 20
13.28125
 30
0.0
 40
0.453
  0
CIRCLE
  8
DAMAN
 10
8.25
 20
13.28125
 30
0.0
 40
0.8125
  0
INSERT
  8
DAMAN
  2
100CROSS
 10
8.25
 20
13.28125
 30
0.0
 41
1.33
 42
1.33
 43
0.0
  0
CIRCLE
  8
DAMAN
 10
8.25
 20
13.28125
 30
0.0
 40
0.53125
  0
TEXT
  8
DAMAN
 10
12.1875
 20
7.03125
 30
0.0
 40
0.188
  1
DAMAN ****
  0
ENDSEC
  0
EOF
