  0
SECTION
  2
HEADER
  9
$ACADVER
  1
AC1014
  9
$ACADMAINTVER
 70
     9
  9
$DWGCODEPAGE
  3
ANSI_1252
  9
$INSBASE
 10
0.0
 20
0.0
 30
0.0
  9
$EXTMIN
 10
4.748591481859214
 20
4.155375012375685
 30
-0.0015258207003583
  9
$EXTMAX
 10
28.2516018383155
 20
19.90641029162216
 30
0.0000000349246037
  9
$LIMMIN
 10
0.0
 20
0.0
  9
$LIMMAX
 10
12.0
 20
9.0
  9
$ORTHOMODE
 70
     1
  9
$REGENMODE
 70
     1
  9
$FILLMODE
 70
     1
  9
$QTEXTMODE
 70
     0
  9
$MIRRTEXT
 70
     1
  9
$DRAGMODE
 70
     2
  9
$LTSCALE
 40
1.0
  9
$OSMODE
 70
    37
  9
$ATTMODE
 70
     1
  9
$TEXTSIZE
 40
0.188
  9
$TRACEWID
 40
0.05
  9
$TEXTSTYLE
  7
STANDARD
  9
$CLAYER
  8
DAMAN
  9
$CELTYPE
  6
BYLAYER
  9
$CECOLOR
 62
   256
  9
$CELTSCALE
 40
1.0
  9
$DELOBJ
 70
     1
  9
$DISPSILH
 70
     0
  9
$DIMSCALE
 40
1.0
  9
$DIMASZ
 40
0.18
  9
$DIMEXO
 40
0.0625
  9
$DIMDLI
 40
0.38
  9
$DIMRND
 40
0.0
  9
$DIMDLE
 40
0.0
  9
$DIMEXE
 40
0.18
  9
$DIMTP
 40
0.0
  9
$DIMTM
 40
0.0
  9
$DIMTXT
 40
0.18
  9
$DIMCEN
 40
0.09
  9
$DIMTSZ
 40
0.0
  9
$DIMTOL
 70
     0
  9
$DIMLIM
 70
     0
  9
$DIMTIH
 70
     1
  9
$DIMTOH
 70
     1
  9
$DIMSE1
 70
     0
  9
$DIMSE2
 70
     0
  9
$DIMTAD
 70
     0
  9
$DIMZIN
 70
     0
  9
$DIMBLK
  1

  9
$DIMASO
 70
     1
  9
$DIMSHO
 70
     1
  9
$DIMPOST
  1

  9
$DIMAPOST
  1

  9
$DIMALT
 70
     0
  9
$DIMALTD
 70
     2
  9
$DIMALTF
 40
25.4
  9
$DIMLFAC
 40
1.0
  9
$DIMTOFL
 70
     0
  9
$DIMTVP
 40
0.0
  9
$DIMTIX
 70
     0
  9
$DIMSOXD
 70
     0
  9
$DIMSAH
 70
     0
  9
$DIMBLK1
  1

  9
$DIMBLK2
  1

  9
$DIMSTYLE
  2
STANDARD
  9
$DIMCLRD
 70
     0
  9
$DIMCLRE
 70
     0
  9
$DIMCLRT
 70
     0
  9
$DIMTFAC
 40
1.0
  9
$DIMGAP
 40
0.09
  9
$DIMJUST
 70
     0
  9
$DIMSD1
 70
     0
  9
$DIMSD2
 70
     0
  9
$DIMTOLJ
 70
     1
  9
$DIMTZIN
 70
     0
  9
$DIMALTZ
 70
     0
  9
$DIMALTTZ
 70
     0
  9
$DIMFIT
 70
     3
  9
$DIMUPT
 70
     0
  9
$DIMUNIT
 70
     2
  9
$DIMDEC
 70
     4
  9
$DIMTDEC
 70
     4
  9
$DIMALTU
 70
     2
  9
$DIMALTTD
 70
     2
  9
$DIMTXSTY
  7
STANDARD
  9
$DIMAUNIT
 70
     0
  9
$LUNITS
 70
     2
  9
$LUPREC
 70
     4
  9
$SKETCHINC
 40
0.1
  9
$FILLETRAD
 40
0.0
  9
$AUNITS
 70
     0
  9
$AUPREC
 70
     0
  9
$MENU
  1
tom
  9
$ELEVATION
 40
0.0
  9
$PELEVATION
 40
0.0
  9
$THICKNESS
 40
0.0
  9
$LIMCHECK
 70
     0
  9
$BLIPMODE
 70
     0
  9
$CHAMFERA
 40
0.0
  9
$CHAMFERB
 40
0.0
  9
$CHAMFERC
 40
0.0
  9
$CHAMFERD
 40
0.0
  9
$SKPOLY
 70
     0
  9
$TDCREATE
 40
2449743.311672685
  9
$TDUPDATE
 40
2453434.468116921
  9
$TDINDWG
 40
0.0002569792
  9
$TDUSRTIMER
 40
0.0002569792
  9
$USRTIMER
 70
     1
  9
$ANGBASE
 50
0.0
  9
$ANGDIR
 70
     0
  9
$PDMODE
 70
     0
  9
$PDSIZE
 40
0.0
  9
$PLINEWID
 40
0.0
  9
$COORDS
 70
     1
  9
$SPLFRAME
 70
     0
  9
$SPLINETYPE
 70
     6
  9
$SPLINESEGS
 70
     8
  9
$ATTDIA
 70
     0
  9
$ATTREQ
 70
     1
  9
$HANDLING
 70
-16383
  9
$HANDSEED
  5
22F
  9
$SURFTAB1
 70
     6
  9
$SURFTAB2
 70
     6
  9
$SURFTYPE
 70
     6
  9
$SURFU
 70
     6
  9
$SURFV
 70
     6
  9
$UCSNAME
  2

  9
$UCSORG
 10
0.0
 20
0.0
 30
0.0
  9
$UCSXDIR
 10
1.0
 20
0.0
 30
0.0
  9
$UCSYDIR
 10
0.0
 20
1.0
 30
0.0
  9
$PUCSNAME
  2

  9
$PUCSORG
 10
0.0
 20
0.0
 30
0.0
  9
$PUCSXDIR
 10
1.0
 20
0.0
 30
0.0
  9
$PUCSYDIR
 10
0.0
 20
1.0
 30
0.0
  9
$USERI1
 70
     0
  9
$USERI2
 70
     0
  9
$USERI3
 70
     0
  9
$USERI4
 70
     0
  9
$USERI5
 70
     0
  9
$USERR1
 40
0.0
  9
$USERR2
 40
0.0
  9
$USERR3
 40
0.0
  9
$USERR4
 40
0.0
  9
$USERR5
 40
0.0
  9
$WORLDVIEW
 70
     1
  9
$SHADEDGE
 70
     3
  9
$SHADEDIF
 70
    70
  9
$TILEMODE
 70
     1
  9
$MAXACTVP
 70
    16
  9
$PINSBASE
 10
0.0
 20
0.0
 30
0.0
  9
$PLIMCHECK
 70
     0
  9
$PEXTMIN
 10
1.000000000000000E+20
 20
1.000000000000000E+20
 30
1.000000000000000E+20
  9
$PEXTMAX
 10
-1.000000000000000E+20
 20
-1.000000000000000E+20
 30
-1.000000000000000E+20
  9
$PLIMMIN
 10
0.0
 20
0.0
  9
$PLIMMAX
 10
12.0
 20
9.0
  9
$UNITMODE
 70
     0
  9
$VISRETAIN
 70
     0
  9
$PLINEGEN
 70
     0
  9
$PSLTSCALE
 70
     1
  9
$TREEDEPTH
 70
  3020
  9
$PICKSTYLE
 70
     1
  9
$CMLSTYLE
  2
STANDARD
  9
$CMLJUST
 70
     0
  9
$CMLSCALE
 40
1.0
  9
$PROXYGRAPHICS
 70
     1
  9
$MEASUREMENT
 70
     0
  0
ENDSEC
  0
SECTION
  2
CLASSES
  0
CLASS
  1
ACDBDICTIONARYWDFLT
  2
AcDbDictionaryWithDefault
  3
AutoCAD 2000
 90
        0
280
     0
281
     0
  0
CLASS
  1
ACDBPLACEHOLDER
  2
AcDbPlaceHolder
  3
AutoCAD 2000
 90
        0
280
     0
281
     0
  0
CLASS
  1
LAYOUT
  2
AcDbLayout
  3
AutoCAD 2000
 90
        0
280
     0
281
     0
  0
CLASS
  1
LONG_TRANSACTION
  2
AcDbLongTransaction
  3
AutoCAD 2000
 90
        0
280
     0
281
     0
  0
CLASS
  1
LWPOLYLINE
  2
AcDbPolyline
  3
AutoCAD 2000
 90
        0
280
     0
281
     1
  0
CLASS
  1
HATCH
  2
AcDbHatch
  3
AutoCAD 2000
 90
        0
280
     0
281
     1
  0
CLASS
  1
XRECORD
  2
AcDbXrecord
  3
AutoCAD 2000
 90
        0
280
     0
281
     0
  0
ENDSEC
  0
SECTION
  2
TABLES
  0
TABLE
  2
VPORT
  5
8
330
0
100
AcDbSymbolTable
 70
     2
  0
VPORT
  5
20A
330
8
100
AcDbSymbolTableRecord
100
AcDbViewportTableRecord
  2
*ACTIVE
 70
     0
 10
0.0
 20
0.0
 11
1.0
 21
1.0
 12
16.50009666008735
 22
12.03089265199892
 13
0.0
 23
0.0
 14
0.03125
 24
0.03125
 15
0.0
 25
0.0
 16
0.0
 26
0.0
 36
1.0
 17
0.0
 27
0.0
 37
0.0
 40
15.91482420762685
 41
1.647569444444444
 42
50.0
 43
0.0
 44
0.0
 50
0.0
 51
0.0
 71
     0
 72
   100
 73
     1
 74
     1
 75
     1
 76
     0
 77
     0
 78
     0
  0
ENDTAB
  0
TABLE
  2
LTYPE
  5
5
330
0
100
AcDbSymbolTable
 70
     4
  0
LTYPE
  5
13
330
5
100
AcDbSymbolTableRecord
100
AcDbLinetypeTableRecord
  2
BYBLOCK
 70
     0
  3

 72
    65
 73
     0
 40
0.0
  0
LTYPE
  5
14
330
5
100
AcDbSymbolTableRecord
100
AcDbLinetypeTableRecord
  2
BYLAYER
 70
     0
  3

 72
    65
 73
     0
 40
0.0
  0
LTYPE
  5
15
330
5
100
AcDbSymbolTableRecord
100
AcDbLinetypeTableRecord
  2
CONTINUOUS
 70
     0
  3
Solid line
 72
    65
 73
     0
 40
0.0
  0
LTYPE
  5
24
330
5
100
AcDbSymbolTableRecord
100
AcDbLinetypeTableRecord
  2
HIDDEN
 70
     0
  3
_ _ _ _ _ _ _ _ _ _ _ _ _ _ _ _ _ _ _ _ _ _ _
 72
    65
 73
     2
 40
0.375
 49
0.25
 74
     0
 49
-0.125
 74
     0
  0
LTYPE
  5
25
330
5
100
AcDbSymbolTableRecord
100
AcDbLinetypeTableRecord
  2
CENTER
 70
     0
  3
____ _ ____ _ ____ _ ____ _ ____ _ ____ _ ____
 72
    65
 73
     4
 40
2.0
 49
1.25
 74
     0
 49
-0.25
 74
     0
 49
0.25
 74
     0
 49
-0.25
 74
     0
  0
LTYPE
  5
26
330
5
100
AcDbSymbolTableRecord
100
AcDbLinetypeTableRecord
  2
PHANTOM
 70
     0
  3
_____ _ _ _____ _ _ _____ _ _ _____ _ _ ____
 72
    65
 73
     6
 40
2.5
 49
1.25
 74
     0
 49
-0.25
 74
     0
 49
0.25
 74
     0
 49
-0.25
 74
     0
 49
0.25
 74
     0
 49
-0.25
 74
     0
  0
ENDTAB
  0
TABLE
  2
LAYER
  5
2
330
0
100
AcDbSymbolTable
 70
    10
  0
LAYER
  5
10
330
2
100
AcDbSymbolTableRecord
100
AcDbLayerTableRecord
  2
0
 70
     0
 62
     7
  6
CONTINUOUS
  0
LAYER
  5
22
330
2
100
AcDbSymbolTableRecord
100
AcDbLayerTableRecord
  2
DAMAN
 70
     0
 62
     5
  6
CONTINUOUS
  0
LAYER
  5
27
330
2
100
AcDbSymbolTableRecord
100
AcDbLayerTableRecord
  2
BORDER
 70
     0
 62
     7
  6
CONTINUOUS
  0
LAYER
  5
28
330
2
100
AcDbSymbolTableRecord
100
AcDbLayerTableRecord
  2
CSOLID
 70
     0
 62
     3
  6
CONTINUOUS
  0
LAYER
  5
29
330
2
100
AcDbSymbolTableRecord
100
AcDbLayerTableRecord
  2
SOLID
 70
     0
 62
     4
  6
CONTINUOUS
  0
LAYER
  5
2A
330
2
100
AcDbSymbolTableRecord
100
AcDbLayerTableRecord
  2
CDIM
 70
     0
 62
     2
  6
CONTINUOUS
  0
LAYER
  5
2B
330
2
100
AcDbSymbolTableRecord
100
AcDbLayerTableRecord
  2
CHIDDEN
 70
     0
 62
     3
  6
HIDDEN
  0
LAYER
  5
2C
330
2
100
AcDbSymbolTableRecord
100
AcDbLayerTableRecord
  2
DIM
 70
     0
 62
     5
  6
CONTINUOUS
  0
LAYER
  5
2D
330
2
100
AcDbSymbolTableRecord
100
AcDbLayerTableRecord
  2
CCENTER
 70
     0
 62
     4
  6
CENTER
  0
LAYER
  5
2E
330
2
100
AcDbSymbolTableRecord
100
AcDbLayerTableRecord
  2
PHANTOM
 70
     0
 62
     1
  6
PHANTOM
  0
ENDTAB
  0
TABLE
  2
STYLE
  5
3
330
0
100
AcDbSymbolTable
 70
     2
  0
STYLE
  5
11
330
3
100
AcDbSymbolTableRecord
100
AcDbTextStyleTableRecord
  2
STANDARD
 70
     0
 40
0.0
 41
1.0
 50
0.0
 71
     0
 42
0.188
  3
txt
  4

  0
STYLE
  5
2F
330
3
100
AcDbSymbolTableRecord
100
AcDbTextStyleTableRecord
  2
STR
 70
     0
 40
0.0
 41
1.0
 50
0.0
 71
     0
 42
0.25
  3
SIMPLEX
  4

  0
ENDTAB
  0
TABLE
  2
VIEW
  5
6
330
0
100
AcDbSymbolTable
 70
     0
  0
ENDTAB
  0
TABLE
  2
UCS
  5
7
330
0
100
AcDbSymbolTable
 70
     0
  0
ENDTAB
  0
TABLE
  2
APPID
  5
9
330
0
100
AcDbSymbolTable
 70
     1
  0
APPID
  5
12
330
9
100
AcDbSymbolTableRecord
100
AcDbRegAppTableRecord
  2
ACAD
 70
     0
  0
ENDTAB
  0
TABLE
  2
DIMSTYLE
  5
A
330
0
100
AcDbSymbolTable
 70
     1
  0
DIMSTYLE
105
209
330
A
100
AcDbSymbolTableRecord
100
AcDbDimStyleTableRecord
  2
STANDARD
 70
     0
  3

  4

  5

  6

  7

 40
1.0
 41
0.18
 42
0.0625
 43
0.38
 44
0.18
 45
0.0
 46
0.0
 47
0.0
 48
0.0
140
0.18
141
0.09
142
0.0
143
25.4
144
1.0
145
0.0
146
1.0
147
0.09
 71
     0
 72
     0
 73
     1
 74
     1
 75
     0
 76
     0
 77
     0
 78
     0
170
     0
171
     2
172
     0
173
     0
174
     0
175
     0
176
     0
177
     0
178
     0
270
     2
271
     4
272
     4
273
     2
274
     2
340
11
275
     0
280
     0
281
     0
282
     0
283
     1
284
     0
285
     0
286
     0
287
     3
288
     0
  0
ENDTAB
  0
TABLE
  2
BLOCK_RECORD
  5
1
330
0
100
AcDbSymbolTable
 70
    12
  0
BLOCK_RECORD
  5
1E
102
{ACAD_XDICTIONARY
360
22D
102
}
330
1
100
AcDbSymbolTableRecord
100
AcDbBlockTableRecord
  2
*MODEL_SPACE
  0
BLOCK_RECORD
  5
1A
102
{ACAD_XDICTIONARY
360
22B
102
}
330
1
100
AcDbSymbolTableRecord
100
AcDbBlockTableRecord
  2
*PAPER_SPACE
  0
BLOCK_RECORD
  5
32
330
1
100
AcDbSymbolTableRecord
100
AcDbBlockTableRecord
  2
D07SPRV
  0
BLOCK_RECORD
  5
34
330
1
100
AcDbSymbolTableRecord
100
AcDbBlockTableRecord
  2
056SAET
  0
BLOCK_RECORD
  5
37
330
1
100
AcDbSymbolTableRecord
100
AcDbBlockTableRecord
  2
106SAET
  0
BLOCK_RECORD
  5
3B
330
1
100
AcDbSymbolTableRecord
100
AcDbBlockTableRecord
  2
100CROSS
  0
BLOCK_RECORD
  5
40
330
1
100
AcDbSymbolTableRecord
100
AcDbBlockTableRecord
  2
SUNT3AT
  0
BLOCK_RECORD
  5
155
330
1
100
AcDbSymbolTableRecord
100
AcDbBlockTableRecord
  2
050CROSS
  0
BLOCK_RECORD
  5
170
330
1
100
AcDbSymbolTableRecord
100
AcDbBlockTableRecord
  2
075NPTFT
  0
BLOCK_RECORD
  5
172
330
1
100
AcDbSymbolTableRecord
100
AcDbBlockTableRecord
  2
750NPTFT
  0
BLOCK_RECORD
  5
17B
330
1
100
AcDbSymbolTableRecord
100
AcDbBlockTableRecord
  2
12SAET
  0
BLOCK_RECORD
  5
183
330
1
100
AcDbSymbolTableRecord
100
AcDbBlockTableRecord
  2
06SAET
  0
BLOCK_RECORD
  5
18A
330
1
100
AcDbSymbolTableRecord
100
AcDbBlockTableRecord
  2
025NPTFT
  0
BLOCK_RECORD
  5
191
330
1
100
AcDbSymbolTableRecord
100
AcDbBlockTableRecord
  2
T3AT
  0
ENDTAB
  0
ENDSEC
  0
SECTION
  2
BLOCKS
  0
BLOCK
  5
1F
330
1E
100
AcDbEntity
  8
0
100
AcDbBlockBegin
  2
*MODEL_SPACE
 70
     0
 10
0.0
 20
0.0
 30
0.0
  3
*MODEL_SPACE
  1

  0
ENDBLK
  5
20
330
1E
100
AcDbEntity
  8
0
100
AcDbBlockEnd
  0
BLOCK
  5
1B
330
1A
100
AcDbEntity
 67
     1
  8
0
100
AcDbBlockBegin
  2
*PAPER_SPACE
 70
     0
 10
0.0
 20
0.0
 30
0.0
  3
*PAPER_SPACE
  1

  0
ENDBLK
  5
1C
330
1A
100
AcDbEntity
 67
     1
  8
0
100
AcDbBlockEnd
  0
BLOCK
  5
33
330
32
100
AcDbEntity
  8
0
100
AcDbBlockBegin
  2
D07SPRV
 70
     0
 10
0.0
 20
0.0
 30
0.0
  3
D07SPRV
  1

  0
INSERT
  5
35
330
32
100
AcDbEntity
  8
SOLID
100
AcDbBlockReference
  2
056SAET
 10
12.3125
 20
5.0
 30
0.0
  0
INSERT
  5
36
330
32
100
AcDbEntity
  8
SOLID
100
AcDbBlockReference
  2
056SAET
 10
10.6875
 20
5.0
 30
0.0
  0
INSERT
  5
38
330
32
100
AcDbEntity
  8
SOLID
100
AcDbBlockReference
  2
106SAET
 10
4.75
 20
11.75
 30
0.0
  0
INSERT
  5
39
330
32
100
AcDbEntity
  8
DIM
100
AcDbBlockReference
  2
106SAET
 10
24.1875
 20
10.5
 30
0.0
  0
INSERT
  5
3A
330
32
100
AcDbEntity
  8
DIM
100
AcDbBlockReference
  2
106SAET
 10
24.1875
 20
12.125
 30
0.0
  0
INSERT
  5
3C
330
32
100
AcDbEntity
  8
CCENTER
100
AcDbBlockReference
  2
100CROSS
 10
25.625
 20
12.875
 30
0.0
 41
0.625
 42
0.625
  0
CIRCLE
  5
3D
330
32
100
AcDbEntity
  8
CSOLID
100
AcDbCircle
 10
25.625
 20
12.875
 30
0.0
 40
0.203
  0
CIRCLE
  5
3E
330
32
100
AcDbEntity
  8
CSOLID
100
AcDbCircle
 10
25.0
 20
8.875
 30
0.0
 40
0.203
  0
INSERT
  5
3F
330
32
100
AcDbEntity
  8
CCENTER
100
AcDbBlockReference
  2
100CROSS
 10
25.0
 20
8.875
 30
0.0
 41
0.625
 42
0.625
  0
INSERT
  5
41
330
32
100
AcDbEntity
  8
SOLID
100
AcDbBlockReference
  2
SUNT3AT
 10
11.8125
 20
17.5
 30
0.0
  0
INSERT
  5
42
330
32
100
AcDbEntity
  8
CCENTER
100
AcDbBlockReference
  2
100CROSS
 10
11.5
 20
8.875
 30
0.0
 41
0.625
 42
0.625
  0
CIRCLE
  5
43
330
32
100
AcDbEntity
  8
CSOLID
100
AcDbCircle
 10
11.5
 20
8.875
 30
0.0
 40
0.203
  0
CIRCLE
  5
44
330
32
100
AcDbEntity
  8
CSOLID
100
AcDbCircle
 10
11.5
 20
8.875
 30
0.0
 40
0.3125
  0
CIRCLE
  5
45
330
32
100
AcDbEntity
  8
CSOLID
100
AcDbCircle
 10
10.875
 20
12.875
 30
0.0
 40
0.3125
  0
CIRCLE
  5
46
330
32
100
AcDbEntity
  8
CSOLID
100
AcDbCircle
 10
10.875
 20
12.875
 30
0.0
 40
0.203
  0
INSERT
  5
47
330
32
100
AcDbEntity
  8
CCENTER
100
AcDbBlockReference
  2
100CROSS
 10
10.875
 20
12.875
 30
0.0
 41
0.625
 42
0.625
  0
CIRCLE
  5
48
330
32
100
AcDbEntity
  8
CSOLID
100
AcDbCircle
 10
4.75
 20
10.12499999999999
 30
0.0
 40
0.4920000000000001
  0
CIRCLE
  5
49
330
32
100
AcDbEntity
  8
CSOLID
100
AcDbCircle
 10
4.75
 20
10.12499999999999
 30
0.0
 40
0.453
  0
CIRCLE
  5
4A
330
32
100
AcDbEntity
  8
CSOLID
100
AcDbCircle
 10
4.75
 20
10.12499999999999
 30
0.0
 40
0.8125
  0
INSERT
  5
4B
330
32
100
AcDbEntity
  8
CCENTER
100
AcDbBlockReference
  2
100CROSS
 10
4.75
 20
10.12499999999999
 30
0.0
 41
1.33
 42
1.33
  0
CIRCLE
  5
4C
330
32
100
AcDbEntity
  8
CHIDDEN
100
AcDbCircle
 10
4.75
 20
10.12499999999999
 30
0.0
 40
0.53125
  0
INSERT
  5
4D
330
32
100
AcDbEntity
  8
CCENTER
100
AcDbBlockReference
  2
100CROSS
 10
12.25
 20
9.859999999999999
 30
0.0
 41
0.25
 42
0.25
  0
CIRCLE
  5
4E
330
32
100
AcDbEntity
  8
CSOLID
100
AcDbCircle
 10
12.25
 20
9.859999999999999
 30
0.0
 40
0.125
  0
CIRCLE
  5
4F
330
32
100
AcDbEntity
  8
CSOLID
100
AcDbCircle
 10
10.625
 20
9.407
 30
0.0
 40
0.125
  0
INSERT
  5
50
330
32
100
AcDbEntity
  8
CCENTER
100
AcDbBlockReference
  2
100CROSS
 10
10.625
 20
9.407
 30
0.0
 41
0.25
 42
0.25
  0
INSERT
  5
51
330
32
100
AcDbEntity
  8
CCENTER
100
AcDbBlockReference
  2
100CROSS
 10
12.875
 20
9.859249999999999
 30
0.0
 41
0.171
 42
0.171
  0
CIRCLE
  5
52
330
32
100
AcDbEntity
  8
CSOLID
100
AcDbCircle
 10
12.875
 20
9.859249999999999
 30
0.0
 40
0.0855
  0
CIRCLE
  5
53
330
32
100
AcDbEntity
  8
CSOLID
100
AcDbCircle
 10
10.12499999999999
 20
12.15625
 30
0.0
 40
0.0855
  0
INSERT
  5
54
330
32
100
AcDbEntity
  8
CCENTER
100
AcDbBlockReference
  2
100CROSS
 10
10.12499999999999
 20
12.15625
 30
0.0
 41
0.171
 42
0.171
  0
INSERT
  5
55
330
32
100
AcDbEntity
  8
CCENTER
100
AcDbBlockReference
  2
100CROSS
 10
12.312
 20
12.156
 30
0.0
 41
0.6879999999999999
 42
0.6879999999999999
  0
CIRCLE
  5
56
330
32
100
AcDbEntity
  8
CSOLID
100
AcDbCircle
 10
12.312
 20
12.156
 30
0.0
 40
0.3439999999999999
  0
CIRCLE
  5
57
330
32
100
AcDbEntity
  8
CSOLID
100
AcDbCircle
 10
12.312
 20
10.906
 30
0.0
 40
0.3439999999999999
  0
INSERT
  5
58
330
32
100
AcDbEntity
  8
CCENTER
100
AcDbBlockReference
  2
100CROSS
 10
12.312
 20
10.906
 30
0.0
 41
0.6879999999999999
 42
0.6879999999999999
  0
INSERT
  5
59
330
32
100
AcDbEntity
  8
CCENTER
100
AcDbBlockReference
  2
100CROSS
 10
10.687
 20
10.281
 30
0.0
 41
0.6879999999999999
 42
0.6879999999999999
  0
CIRCLE
  5
5A
330
32
100
AcDbEntity
  8
CSOLID
100
AcDbCircle
 10
10.687
 20
10.281
 30
0.0
 40
0.3439999999999999
  0
CIRCLE
  5
5B
330
32
100
AcDbEntity
  8
CSOLID
100
AcDbCircle
 10
10.687
 20
11.531
 30
0.0
 40
0.3439999999999999
  0
INSERT
  5
5C
330
32
100
AcDbEntity
  8
CCENTER
100
AcDbBlockReference
  2
100CROSS
 10
10.687
 20
11.531
 30
0.0
 41
0.6879999999999999
 42
0.6879999999999999
  0
INSERT
  5
5D
330
32
100
AcDbEntity
  8
CCENTER
100
AcDbBlockReference
  2
100CROSS
 10
12.938
 20
11.531
 30
0.0
 41
0.25
 42
0.25
  0
CIRCLE
  5
5E
330
32
100
AcDbEntity
  8
CSOLID
100
AcDbCircle
 10
12.938
 20
11.531
 30
0.0
 40
0.1055
  0
CIRCLE
  5
5F
330
32
100
AcDbEntity
  8
CSOLID
100
AcDbCircle
 10
10.06299999999999
 20
10.906
 30
0.0
 40
0.1055
  0
INSERT
  5
60
330
32
100
AcDbEntity
  8
CCENTER
100
AcDbBlockReference
  2
100CROSS
 10
10.06299999999999
 20
10.906
 30
0.0
 41
0.25
 42
0.25
  0
INSERT
  5
61
330
32
100
AcDbEntity
  8
CCENTER
100
AcDbBlockReference
  2
100CROSS
 10
12.875
 20
8.875
 30
0.0
 41
0.375
 42
0.375
  0
CIRCLE
  5
62
330
32
100
AcDbEntity
  8
CSOLID
100
AcDbCircle
 10
12.875
 20
8.875
 30
0.0
 40
0.15625
  0
INSERT
  5
63
330
32
100
AcDbEntity
  8
CCENTER
100
AcDbBlockReference
  2
100CROSS
 10
12.875
 20
12.875
 30
0.0
 41
0.375
 42
0.375
  0
CIRCLE
  5
64
330
32
100
AcDbEntity
  8
CSOLID
100
AcDbCircle
 10
12.875
 20
12.875
 30
0.0
 40
0.15625
  0
INSERT
  5
65
330
32
100
AcDbEntity
  8
CCENTER
100
AcDbBlockReference
  2
100CROSS
 10
10.12499999999999
 20
8.875
 30
0.0
 41
0.375
 42
0.375
  0
CIRCLE
  5
66
330
32
100
AcDbEntity
  8
CSOLID
100
AcDbCircle
 10
10.12499999999999
 20
8.875
 30
0.0
 40
0.15625
  0
CIRCLE
  5
67
330
32
100
AcDbEntity
  8
CSOLID
100
AcDbCircle
 10
10.12499999999999
 20
12.875
 30
0.0
 40
0.15625
  0
INSERT
  5
68
330
32
100
AcDbEntity
  8
CCENTER
100
AcDbBlockReference
  2
100CROSS
 10
10.12499999999999
 20
12.875
 30
0.0
 41
0.375
 42
0.375
  0
CIRCLE
  5
69
330
32
100
AcDbEntity
  8
CHIDDEN
100
AcDbCircle
 10
10.12499999999999
 20
12.875
 30
0.0
 40
0.1875
  0
CIRCLE
  5
6A
330
32
100
AcDbEntity
  8
CHIDDEN
100
AcDbCircle
 10
10.12499999999999
 20
8.875
 30
0.0
 40
0.1875
  0
CIRCLE
  5
6B
330
32
100
AcDbEntity
  8
CHIDDEN
100
AcDbCircle
 10
12.875
 20
12.875
 30
0.0
 40
0.1875
  0
CIRCLE
  5
6C
330
32
100
AcDbEntity
  8
CHIDDEN
100
AcDbCircle
 10
12.875
 20
8.875
 30
0.0
 40
0.1875
  0
CIRCLE
  5
6D
330
32
100
AcDbEntity
  8
CHIDDEN
100
AcDbCircle
 10
10.0625
 20
10.90624999999999
 30
0.0
 40
0.125
  0
CIRCLE
  5
6E
330
32
100
AcDbEntity
  8
CHIDDEN
100
AcDbCircle
 10
12.9375
 20
11.53124999999999
 30
0.0
 40
0.125
  0
CIRCLE
  5
6F
330
32
100
AcDbEntity
  8
CSOLID
100
AcDbCircle
 10
18.25
 20
12.0625
 30
0.0
 40
0.4920000000000001
  0
CIRCLE
  5
70
330
32
100
AcDbEntity
  8
CSOLID
100
AcDbCircle
 10
18.25
 20
12.0625
 30
0.0
 40
0.453
  0
CIRCLE
  5
71
330
32
100
AcDbEntity
  8
CSOLID
100
AcDbCircle
 10
18.25
 20
12.0625
 30
0.0
 40
0.8125
  0
INSERT
  5
72
330
32
100
AcDbEntity
  8
CCENTER
100
AcDbBlockReference
  2
100CROSS
 10
18.25
 20
12.0625
 30
0.0
 41
1.33
 42
1.33
  0
CIRCLE
  5
73
330
32
100
AcDbEntity
  8
CHIDDEN
100
AcDbCircle
 10
18.25
 20
12.0625
 30
0.0
 40
0.53125
  0
CIRCLE
  5
74
330
32
100
AcDbEntity
  8
CSOLID
100
AcDbCircle
 10
18.25
 20
10.46875
 30
0.0
 40
0.4920000000000001
  0
CIRCLE
  5
75
330
32
100
AcDbEntity
  8
CSOLID
100
AcDbCircle
 10
18.25
 20
10.46875
 30
0.0
 40
0.453
  0
CIRCLE
  5
76
330
32
100
AcDbEntity
  8
CSOLID
100
AcDbCircle
 10
18.25
 20
10.46875
 30
0.0
 40
0.8125
  0
INSERT
  5
77
330
32
100
AcDbEntity
  8
CCENTER
100
AcDbBlockReference
  2
100CROSS
 10
18.25
 20
10.46875
 30
0.0
 41
1.33
 42
1.33
  0
CIRCLE
  5
78
330
32
100
AcDbEntity
  8
CHIDDEN
100
AcDbCircle
 10
18.25
 20
10.46875
 30
0.0
 40
0.53125
  0
LWPOLYLINE
  5
79
330
32
100
AcDbEntity
  8
BORDER
100
AcDbPolyline
 90
        4
 70
     1
 43
0.0
 10
9.5
 20
18.75
 10
13.5
 20
18.75
 10
13.5
 20
16.25
 10
9.5
 20
16.25
  0
LWPOLYLINE
  5
7F
330
32
100
AcDbEntity
  8
BORDER
100
AcDbPolyline
 90
        4
 70
     1
 43
0.0
 10
3.5
 20
13.25
 10
6.0
 20
13.25
 10
6.0
 20
8.5
 10
3.5
 20
8.5
  0
LWPOLYLINE
  5
85
330
32
100
AcDbEntity
  8
BORDER
100
AcDbPolyline
 90
        4
 70
     1
 43
0.0
 10
9.5
 20
13.25
 10
13.5
 20
13.25
 10
13.5
 20
8.5
 10
9.5
 20
8.5
  0
LWPOLYLINE
  5
8B
330
32
100
AcDbEntity
  8
BORDER
100
AcDbPolyline
 90
        4
 70
     1
 43
0.0
 10
17.0
 20
13.25
 10
19.5
 20
13.25
 10
19.5
 20
8.5
 10
17.0
 20
8.5
  0
LWPOLYLINE
  5
91
330
32
100
AcDbEntity
  8
BORDER
100
AcDbPolyline
 90
        4
 70
     1
 43
0.0
 10
23.0
 20
13.25
 10
27.0
 20
13.25
 10
27.0
 20
8.5
 10
23.0
 20
8.5
  0
LWPOLYLINE
  5
97
330
32
100
AcDbEntity
  8
BORDER
100
AcDbPolyline
 90
        4
 70
     1
 43
0.0
 10
9.5
 20
5.5
 10
13.5
 20
5.5
 10
13.5
 20
3.0
 10
9.5
 20
3.0
  0
TEXT
  5
9D
330
32
100
AcDbEntity
  8
CDIM
100
AcDbText
 10
5.1875
 20
12.75
 30
0.0
 40
0.25
  1
A
 50
270.0
  7
STR
100
AcDbText
  0
TEXT
  5
9E
330
32
100
AcDbEntity
  8
CDIM
100
AcDbText
 10
5.1875
 20
9.28125
 30
0.0
 40
0.25
  1
B
 50
270.0
  7
STR
100
AcDbText
  0
TEXT
  5
9F
330
32
100
AcDbEntity
  8
CDIM
100
AcDbText
 10
17.5625
 20
12.71875
 30
0.0
 40
0.25
  1
T
 50
90.0
  7
STR
100
AcDbText
  0
TEXT
  5
A0
330
32
100
AcDbEntity
  8
CDIM
100
AcDbText
 10
17.5625
 20
9.71875
 30
0.0
 40
0.25
  1
P
 50
90.0
  7
STR
100
AcDbText
  0
TEXT
  5
A1
330
32
100
AcDbEntity
  8
CDIM
100
AcDbText
 10
23.34375
 20
12.6875
 30
0.0
 40
0.25
  1
T
  7
STR
100
AcDbText
  0
TEXT
  5
A2
330
32
100
AcDbEntity
  8
CDIM
100
AcDbText
 10
23.34375
 20
11.0
 30
0.0
 40
0.25
  1
P
  7
STR
100
AcDbText
  0
TEXT
  5
A3
330
32
100
AcDbEntity
  8
CDIM
100
AcDbText
 10
9.875
 20
5.09375
 30
0.0
 40
0.25
  1
Y
  7
STR
100
AcDbText
  0
TEXT
  5
A4
330
32
100
AcDbEntity
  8
CDIM
100
AcDbText
 10
12.90625
 20
5.09375
 30
0.0
 40
0.25
  1
X
  7
STR
100
AcDbText
  0
LINE
  5
A5
330
32
100
AcDbEntity
  8
CDIM
100
AcDbLine
 10
3.5
 20
13.432631
 30
0.0
 11
3.5
 21
14.262989
 31
0.0
  0
LINE
  5
A6
330
32
100
AcDbEntity
  8
CDIM
100
AcDbLine
 10
4.75
 20
12.424631
 30
0.0
 11
4.75
 21
14.262989
 31
0.0
  0
LINE
  5
A7
330
32
100
AcDbEntity
  8
CDIM
100
AcDbLine
 10
5.100651999999999
 20
14.0
 30
0.0
 11
5.451304
 21
14.0
 31
0.0
  0
LINE
  5
A8
330
32
100
AcDbEntity
  8
CDIM
100
AcDbLine
 10
3.149347999999999
 20
14.0
 30
0.0
 11
2.798696
 21
14.0
 31
0.0
  0
SOLID
  5
A9
330
32
100
AcDbEntity
  8
CDIM
100
AcDbTrace
 10
5.100651999999999
 20
13.941558
 30
0.0
 11
5.100651999999999
 21
14.058442
 31
0.0
 12
4.75
 22
14.0
 32
0.0
 13
4.75
 23
14.0
 33
0.0
  0
SOLID
  5
AA
330
32
100
AcDbEntity
  8
CDIM
100
AcDbTrace
 10
3.149347999999999
 20
13.941558
 30
0.0
 11
3.149347999999999
 21
14.058442
 31
0.0
 12
3.5
 22
14.0
 32
0.0
 13
3.5
 23
14.0
 33
0.0
  0
TEXT
  5
AB
330
32
100
AcDbEntity
  8
CDIM
100
AcDbText
 10
5.801955999999999
 20
13.795453
 30
0.0
 40
0.409094
  1
1.25
  7
STR
100
AcDbText
  0
LINE
  5
AC
330
32
100
AcDbEntity
  8
CDIM
100
AcDbLine
 10
3.5
 20
13.432631
 30
0.0
 11
3.5
 21
15.28572399999999
 31
0.0
  0
LINE
  5
AD
330
32
100
AcDbEntity
  8
CDIM
100
AcDbLine
 10
6.0
 20
13.432631
 30
0.0
 11
6.0
 21
13.65625
 31
0.0
  0
LINE
  5
AE
330
32
100
AcDbEntity
  8
CDIM
100
AcDbLine
 10
6.350651999999999
 20
15.022735
 30
0.0
 11
6.701303999999999
 21
15.022735
 31
0.0
  0
LINE
  5
AF
330
32
100
AcDbEntity
  8
CDIM
100
AcDbLine
 10
3.149347999999999
 20
15.022735
 30
0.0
 11
2.798696
 21
15.022735
 31
0.0
  0
SOLID
  5
B0
330
32
100
AcDbEntity
  8
CDIM
100
AcDbTrace
 10
6.350651999999999
 20
14.96429299999999
 30
0.0
 11
6.350651999999999
 21
15.08117699999999
 31
0.0
 12
6.0
 22
15.022735
 32
0.0
 13
6.0
 23
15.022735
 33
0.0
  0
SOLID
  5
B1
330
32
100
AcDbEntity
  8
CDIM
100
AcDbTrace
 10
3.149347999999999
 20
14.96429299999999
 30
0.0
 11
3.149347999999999
 21
15.08117699999999
 31
0.0
 12
3.5
 22
15.022735
 32
0.0
 13
3.5
 23
15.022735
 33
0.0
  0
TEXT
  5
B2
330
32
100
AcDbEntity
  8
CDIM
100
AcDbText
 10
4.208205999999999
 20
14.818188
 30
0.0
 40
0.409094
  1
2.50
  7
STR
100
AcDbText
  0
LINE
  5
B3
330
32
100
AcDbEntity
  8
CDIM
100
AcDbLine
 10
3.317369
 20
13.25
 30
0.0
 11
2.299510999999999
 21
13.25
 31
0.0
  0
LINE
  5
B4
330
32
100
AcDbEntity
  8
CDIM
100
AcDbLine
 10
4.234869
 20
11.75
 30
0.0
 11
2.299510999999999
 21
11.75
 31
0.0
  0
LINE
  5
B5
330
32
100
AcDbEntity
  8
CDIM
100
AcDbLine
 10
2.5625
 20
11.399348
 30
0.0
 11
2.5625
 21
11.048696
 31
0.0
  0
LINE
  5
B6
330
32
100
AcDbEntity
  8
CDIM
100
AcDbLine
 10
2.5625
 20
13.60065199999999
 30
0.0
 11
2.5625
 21
13.951304
 31
0.0
  0
SOLID
  5
B7
330
32
100
AcDbEntity
  8
CDIM
100
AcDbTrace
 10
2.620941999999999
 20
11.399348
 30
0.0
 11
2.504058
 21
11.399348
 31
0.0
 12
2.5625
 22
11.75
 32
0.0
 13
2.5625
 23
11.75
 33
0.0
  0
SOLID
  5
B8
330
32
100
AcDbEntity
  8
CDIM
100
AcDbTrace
 10
2.620941999999999
 20
13.60065199999999
 30
0.0
 11
2.504058
 21
13.60065199999999
 31
0.0
 12
2.5625
 22
13.25
 32
0.0
 13
2.5625
 23
13.25
 33
0.0
  0
TEXT
  5
B9
330
32
100
AcDbEntity
  8
CDIM
100
AcDbText
 10
2.036106
 20
12.281649
 30
0.0
 40
0.409094
  1
1.50
  7
STR
100
AcDbText
  0
LINE
  5
BA
330
32
100
AcDbEntity
  8
CDIM
100
AcDbLine
 10
3.317369
 20
13.25
 30
0.0
 11
1.276775999999999
 21
13.25
 31
0.0
  0
LINE
  5
BB
330
32
100
AcDbEntity
  8
CDIM
100
AcDbLine
 10
4.075369
 20
10.12499999999999
 30
0.0
 11
1.276775999999999
 21
10.12499999999999
 31
0.0
  0
LINE
  5
BC
330
32
100
AcDbEntity
  8
CDIM
100
AcDbLine
 10
1.539765
 20
12.899348
 30
0.0
 11
1.539765
 21
12.242699
 31
0.0
  0
LINE
  5
BD
330
32
100
AcDbEntity
  8
CDIM
100
AcDbLine
 10
1.539765
 20
10.47565199999999
 30
0.0
 11
1.539765
 21
11.132301
 31
0.0
  0
SOLID
  5
BE
330
32
100
AcDbEntity
  8
CDIM
100
AcDbTrace
 10
1.598206999999999
 20
12.899348
 30
0.0
 11
1.481322999999999
 21
12.899348
 31
0.0
 12
1.539765
 22
13.25
 32
0.0
 13
1.539765
 23
13.25
 33
0.0
  0
SOLID
  5
BF
330
32
100
AcDbEntity
  8
CDIM
100
AcDbTrace
 10
1.598206999999999
 20
10.47565199999999
 30
0.0
 11
1.481322999999999
 21
10.47565199999999
 31
0.0
 12
1.539765
 22
10.12499999999999
 32
0.0
 13
1.539765
 23
10.12499999999999
 33
0.0
  0
TEXT
  5
C0
330
32
100
AcDbEntity
  8
CDIM
100
AcDbText
 10
0.9553450000000001
 20
11.482953
 30
0.0
 40
0.409094
  1
3.12
  7
STR
100
AcDbText
  0
LINE
  5
C1
330
32
100
AcDbEntity
  8
CDIM
100
AcDbLine
 10
9.317368999999999
 20
13.25
 30
0.0
 11
8.299511
 21
13.25
 31
0.0
  0
LINE
  5
C2
330
32
100
AcDbEntity
  8
CDIM
100
AcDbLine
 10
11.785369
 20
10.906
 30
0.0
 11
8.299511
 21
10.906
 31
0.0
  0
LINE
  5
C3
330
32
100
AcDbEntity
  8
CDIM
100
AcDbLine
 10
8.5625
 20
12.899348
 30
0.0
 11
8.5625
 21
12.633199
 31
0.0
  0
LINE
  5
C4
330
32
100
AcDbEntity
  8
CDIM
100
AcDbLine
 10
8.5625
 20
11.256652
 30
0.0
 11
8.5625
 21
11.522801
 31
0.0
  0
SOLID
  5
C5
330
32
100
AcDbEntity
  8
CDIM
100
AcDbTrace
 10
8.620941999999999
 20
12.899348
 30
0.0
 11
8.504058
 21
12.899348
 31
0.0
 12
8.5625
 22
13.25
 32
0.0
 13
8.5625
 23
13.25
 33
0.0
  0
SOLID
  5
C6
330
32
100
AcDbEntity
  8
CDIM
100
AcDbTrace
 10
8.620941999999999
 20
11.256652
 30
0.0
 11
8.504058
 21
11.256652
 31
0.0
 12
8.5625
 22
10.906
 32
0.0
 13
8.5625
 23
10.906
 33
0.0
  0
TEXT
  5
C7
330
32
100
AcDbEntity
  8
CDIM
100
AcDbText
 10
7.929377999999999
 20
11.873453
 30
0.0
 40
0.409094
  1
2.34
  7
STR
100
AcDbText
  0
LINE
  5
C8
330
32
100
AcDbEntity
  8
CDIM
100
AcDbLine
 10
9.317368999999999
 20
13.25
 30
0.0
 11
7.276775999999999
 21
13.25
 31
0.0
  0
LINE
  5
C9
330
32
100
AcDbEntity
  8
CDIM
100
AcDbLine
 10
9.317368999999999
 20
8.5
 30
0.0
 11
7.276775999999999
 21
8.5
 31
0.0
  0
LINE
  5
CA
330
32
100
AcDbEntity
  8
CDIM
100
AcDbLine
 10
7.539764999999999
 20
12.899348
 30
0.0
 11
7.539764999999999
 21
10.805199
 31
0.0
  0
LINE
  5
CB
330
32
100
AcDbEntity
  8
CDIM
100
AcDbLine
 10
7.539764999999999
 20
8.850652
 30
0.0
 11
7.539764999999999
 21
9.694801
 31
0.0
  0
SOLID
  5
CC
330
32
100
AcDbEntity
  8
CDIM
100
AcDbTrace
 10
7.598207
 20
12.899348
 30
0.0
 11
7.481322999999999
 21
12.899348
 31
0.0
 12
7.539764999999999
 22
13.25
 32
0.0
 13
7.539764999999999
 23
13.25
 33
0.0
  0
SOLID
  5
CD
330
32
100
AcDbEntity
  8
CDIM
100
AcDbTrace
 10
7.598207
 20
8.850652
 30
0.0
 11
7.481322999999999
 21
8.850652
 31
0.0
 12
7.539764999999999
 22
8.5
 32
0.0
 13
7.539764999999999
 23
8.5
 33
0.0
  0
TEXT
  5
CE
330
32
100
AcDbEntity
  8
CDIM
100
AcDbText
 10
6.916383999999999
 20
10.04545299999999
 30
0.0
 40
0.409094
  1
4.75
  7
STR
100
AcDbText
  0
LINE
  5
CF
330
32
100
AcDbEntity
  8
CDIM
100
AcDbLine
 10
9.5
 20
13.432631
 30
0.0
 11
9.5
 21
14.262989
 31
0.0
  0
LINE
  5
D0
330
32
100
AcDbEntity
  8
CDIM
100
AcDbLine
 10
12.312
 20
12.682631
 30
0.0
 11
12.312
 21
14.262989
 31
0.0
  0
LINE
  5
D1
330
32
100
AcDbEntity
  8
CDIM
100
AcDbLine
 10
9.850652
 20
14.0
 30
0.0
 11
10.01963
 21
14.0
 31
0.0
  0
LINE
  5
D2
330
32
100
AcDbEntity
  8
CDIM
100
AcDbLine
 10
11.961348
 20
14.0
 30
0.0
 11
11.79237
 21
14.0
 31
0.0
  0
SOLID
  5
D3
330
32
100
AcDbEntity
  8
CDIM
100
AcDbTrace
 10
9.850652
 20
13.941558
 30
0.0
 11
9.850652
 21
14.058442
 31
0.0
 12
9.5
 22
14.0
 32
0.0
 13
9.5
 23
14.0
 33
0.0
  0
SOLID
  5
D4
330
32
100
AcDbEntity
  8
CDIM
100
AcDbTrace
 10
11.961348
 20
13.941558
 30
0.0
 11
11.961348
 21
14.058442
 31
0.0
 12
12.312
 22
14.0
 32
0.0
 13
12.312
 23
14.0
 33
0.0
  0
TEXT
  5
D5
330
32
100
AcDbEntity
  8
CDIM
100
AcDbText
 10
10.370282
 20
13.795453
 30
0.0
 40
0.409094
  1
2.81
  7
STR
100
AcDbText
  0
LINE
  5
D6
330
32
100
AcDbEntity
  8
CDIM
100
AcDbLine
 10
9.5
 20
13.432631
 30
0.0
 11
9.5
 21
15.28572399999999
 31
0.0
  0
LINE
  5
D7
330
32
100
AcDbEntity
  8
CDIM
100
AcDbLine
 10
13.5
 20
13.432631
 30
0.0
 11
13.5
 21
15.28572399999999
 31
0.0
  0
LINE
  5
D8
330
32
100
AcDbEntity
  8
CDIM
100
AcDbLine
 10
9.850652
 20
15.022735
 30
0.0
 11
10.525967
 21
15.022735
 31
0.0
  0
LINE
  5
D9
330
32
100
AcDbEntity
  8
CDIM
100
AcDbLine
 10
13.149348
 20
15.022735
 30
0.0
 11
12.474033
 21
15.022735
 31
0.0
  0
SOLID
  5
DA
330
32
100
AcDbEntity
  8
CDIM
100
AcDbTrace
 10
9.850652
 20
14.96429299999999
 30
0.0
 11
9.850652
 21
15.08117699999999
 31
0.0
 12
9.5
 22
15.022735
 32
0.0
 13
9.5
 23
15.022735
 33
0.0
  0
SOLID
  5
DB
330
32
100
AcDbEntity
  8
CDIM
100
AcDbTrace
 10
13.149348
 20
14.96429299999999
 30
0.0
 11
13.149348
 21
15.08117699999999
 31
0.0
 12
13.5
 22
15.022735
 32
0.0
 13
13.5
 23
15.022735
 33
0.0
  0
TEXT
  5
DC
330
32
100
AcDbEntity
  8
CDIM
100
AcDbText
 10
10.876619
 20
14.818188
 30
0.0
 40
0.409094
  1
4.00
  7
STR
100
AcDbText
  0
LINE
  5
DD
330
32
100
AcDbEntity
  8
CDIM
100
AcDbLine
 10
13.682631
 20
13.25
 30
0.0
 11
14.700489
 21
13.25
 31
0.0
  0
LINE
  5
DE
330
32
100
AcDbEntity
  8
CDIM
100
AcDbLine
 10
11.260631
 20
12.875
 30
0.0
 11
14.700489
 21
12.875
 31
0.0
  0
LINE
  5
DF
330
32
100
AcDbEntity
  8
CDIM
100
AcDbLine
 10
14.4375
 20
12.524348
 30
0.0
 11
14.4375
 21
12.173696
 31
0.0
  0
LINE
  5
E0
330
32
100
AcDbEntity
  8
CDIM
100
AcDbLine
 10
14.4375
 20
13.60065199999999
 30
0.0
 11
14.4375
 21
13.951304
 31
0.0
  0
SOLID
  5
E1
330
32
100
AcDbEntity
  8
CDIM
100
AcDbTrace
 10
14.495942
 20
12.524348
 30
0.0
 11
14.379058
 21
12.524348
 31
0.0
 12
14.4375
 22
12.875
 32
0.0
 13
14.4375
 23
12.875
 33
0.0
  0
SOLID
  5
E2
330
32
100
AcDbEntity
  8
CDIM
100
AcDbTrace
 10
14.495942
 20
13.60065199999999
 30
0.0
 11
14.379058
 21
13.60065199999999
 31
0.0
 12
14.4375
 22
13.25
 32
0.0
 13
14.4375
 23
13.25
 33
0.0
  0
TEXT
  5
E3
330
32
100
AcDbEntity
  8
CDIM
100
AcDbText
 10
13.80193299999999
 20
11.56289899999999
 30
0.0
 40
0.409094
  1
0.37
  7
STR
100
AcDbText
  0
LINE
  5
E4
330
32
100
AcDbEntity
  8
CDIM
100
AcDbLine
 10
13.682631
 20
13.25
 30
0.0
 11
15.723224
 21
13.25
 31
0.0
  0
LINE
  5
E5
330
32
100
AcDbEntity
  8
CDIM
100
AcDbLine
 10
11.995131
 20
8.875
 30
0.0
 11
15.723224
 21
8.875
 31
0.0
  0
LINE
  5
E6
330
32
100
AcDbEntity
  8
CDIM
100
AcDbLine
 10
15.460235
 20
12.899348
 30
0.0
 11
15.460235
 21
11.617699
 31
0.0
  0
LINE
  5
E7
330
32
100
AcDbEntity
  8
CDIM
100
AcDbLine
 10
15.460235
 20
9.225652
 30
0.0
 11
15.460235
 21
10.507301
 31
0.0
  0
SOLID
  5
E8
330
32
100
AcDbEntity
  8
CDIM
100
AcDbTrace
 10
15.51867699999999
 20
12.899348
 30
0.0
 11
15.401793
 21
12.899348
 31
0.0
 12
15.460235
 22
13.25
 32
0.0
 13
15.460235
 23
13.25
 33
0.0
  0
SOLID
  5
E9
330
32
100
AcDbEntity
  8
CDIM
100
AcDbTrace
 10
15.51867699999999
 20
9.225652
 30
0.0
 11
15.401793
 21
9.225652
 31
0.0
 12
15.460235
 22
8.875
 32
0.0
 13
15.460235
 23
8.875
 33
0.0
  0
TEXT
  5
EA
330
32
100
AcDbEntity
  8
CDIM
100
AcDbText
 10
14.836854
 20
10.857953
 30
0.0
 40
0.409094
  1
4.37
  7
STR
100
AcDbText
  0
LINE
  5
EB
330
32
100
AcDbEntity
  8
CDIM
100
AcDbLine
 10
9.5
 20
8.317368999999999
 30
0.0
 11
9.5
 21
7.487010999999999
 31
0.0
  0
LINE
  5
EC
330
32
100
AcDbEntity
  8
CDIM
100
AcDbLine
 10
10.875
 20
12.489369
 30
0.0
 11
10.875
 21
7.487010999999999
 31
0.0
  0
LINE
  5
ED
330
32
100
AcDbEntity
  8
CDIM
100
AcDbLine
 10
11.225652
 20
7.75
 30
0.0
 11
11.57630399999999
 21
7.75
 31
0.0
  0
LINE
  5
EE
330
32
100
AcDbEntity
  8
CDIM
100
AcDbLine
 10
9.149347999999999
 20
7.75
 30
0.0
 11
8.798696000000001
 21
7.75
 31
0.0
  0
SOLID
  5
EF
330
32
100
AcDbEntity
  8
CDIM
100
AcDbTrace
 10
11.225652
 20
7.691558
 30
0.0
 11
11.225652
 21
7.808441999999999
 31
0.0
 12
10.875
 22
7.75
 32
0.0
 13
10.875
 23
7.75
 33
0.0
  0
SOLID
  5
F0
330
32
100
AcDbEntity
  8
CDIM
100
AcDbTrace
 10
9.149347999999999
 20
7.691558
 30
0.0
 11
9.149347999999999
 21
7.808441999999999
 31
0.0
 12
9.5
 22
7.75
 32
0.0
 13
9.5
 23
7.75
 33
0.0
  0
TEXT
  5
F1
330
32
100
AcDbEntity
  8
CDIM
100
AcDbText
 10
11.926956
 20
7.545453
 30
0.0
 40
0.409094
  1
1.38
  7
STR
100
AcDbText
  0
LINE
  5
F2
330
32
100
AcDbEntity
  8
CDIM
100
AcDbLine
 10
9.5
 20
8.317368999999999
 30
0.0
 11
9.5
 21
6.464275999999999
 31
0.0
  0
LINE
  5
F3
330
32
100
AcDbEntity
  8
CDIM
100
AcDbLine
 10
11.5
 20
8.489368999999999
 30
0.0
 11
11.5
 21
8.0
 31
0.0
  0
LINE
  5
F4
330
32
100
AcDbEntity
  8
CDIM
100
AcDbLine
 10
11.850652
 20
6.727264999999999
 30
0.0
 11
12.20130399999999
 21
6.727264999999999
 31
0.0
  0
LINE
  5
F5
330
32
100
AcDbEntity
  8
CDIM
100
AcDbLine
 10
9.149347999999999
 20
6.727264999999999
 30
0.0
 11
8.798696000000001
 21
6.727264999999999
 31
0.0
  0
SOLID
  5
F6
330
32
100
AcDbEntity
  8
CDIM
100
AcDbTrace
 10
11.850652
 20
6.668822999999999
 30
0.0
 11
11.850652
 21
6.785707
 31
0.0
 12
11.5
 22
6.727264999999999
 32
0.0
 13
11.5
 23
6.727264999999999
 33
0.0
  0
SOLID
  5
F7
330
32
100
AcDbEntity
  8
CDIM
100
AcDbTrace
 10
9.149347999999999
 20
6.668822999999999
 30
0.0
 11
9.149347999999999
 21
6.785707
 31
0.0
 12
9.5
 22
6.727264999999999
 32
0.0
 13
9.5
 23
6.727264999999999
 33
0.0
  0
TEXT
  5
F8
330
32
100
AcDbEntity
  8
CDIM
100
AcDbText
 10
9.895706
 20
6.522718
 30
0.0
 40
0.409094
  1
2.00
  7
STR
100
AcDbText
  0
LINE
  5
F9
330
32
100
AcDbEntity
  8
CDIM
100
AcDbLine
 10
9.5
 20
2.817368999999999
 30
0.0
 11
9.5
 21
1.987011
 31
0.0
  0
LINE
  5
FA
330
32
100
AcDbEntity
  8
CDIM
100
AcDbLine
 10
10.6875
 20
4.536119
 30
0.0
 11
10.6875
 21
1.987011
 31
0.0
  0
LINE
  5
FB
330
32
100
AcDbEntity
  8
CDIM
100
AcDbLine
 10
11.038152
 20
2.25
 30
0.0
 11
11.38880399999999
 21
2.25
 31
0.0
  0
LINE
  5
FC
330
32
100
AcDbEntity
  8
CDIM
100
AcDbLine
 10
9.149347999999999
 20
2.25
 30
0.0
 11
8.798696000000001
 21
2.25
 31
0.0
  0
SOLID
  5
FD
330
32
100
AcDbEntity
  8
CDIM
100
AcDbTrace
 10
11.038152
 20
2.191558
 30
0.0
 11
11.038152
 21
2.308441999999999
 31
0.0
 12
10.6875
 22
2.25
 32
0.0
 13
10.6875
 23
2.25
 33
0.0
  0
SOLID
  5
FE
330
32
100
AcDbEntity
  8
CDIM
100
AcDbTrace
 10
9.149347999999999
 20
2.191558
 30
0.0
 11
9.149347999999999
 21
2.308441999999999
 31
0.0
 12
9.5
 22
2.25
 32
0.0
 13
9.5
 23
2.25
 33
0.0
  0
TEXT
  5
FF
330
32
100
AcDbEntity
  8
CDIM
100
AcDbText
 10
11.739456
 20
2.045452999999999
 30
0.0
 40
0.409094
  1
1.19
  7
STR
100
AcDbText
  0
LINE
  5
100
330
32
100
AcDbEntity
  8
CDIM
100
AcDbLine
 10
9.5
 20
2.817368999999999
 30
0.0
 11
9.5
 21
0.964276
 31
0.0
  0
LINE
  5
101
330
32
100
AcDbEntity
  8
CDIM
100
AcDbLine
 10
12.3125
 20
4.536119
 30
0.0
 11
12.3125
 21
2.71875
 31
0.0
  0
LINE
  5
102
330
32
100
AcDbEntity
  8
CDIM
100
AcDbLine
 10
9.850652
 20
1.227265
 30
0.0
 11
10.01988
 21
1.227265
 31
0.0
  0
LINE
  5
103
330
32
100
AcDbEntity
  8
CDIM
100
AcDbLine
 10
11.96184799999999
 20
1.227265
 30
0.0
 11
11.79262
 21
1.227265
 31
0.0
  0
SOLID
  5
104
330
32
100
AcDbEntity
  8
CDIM
100
AcDbTrace
 10
9.850652
 20
1.168822999999999
 30
0.0
 11
9.850652
 21
1.285706999999999
 31
0.0
 12
9.5
 22
1.227265
 32
0.0
 13
9.5
 23
1.227265
 33
0.0
  0
SOLID
  5
105
330
32
100
AcDbEntity
  8
CDIM
100
AcDbTrace
 10
11.96184799999999
 20
1.168822999999999
 30
0.0
 11
11.96184799999999
 21
1.285706999999999
 31
0.0
 12
12.3125
 22
1.227265
 32
0.0
 13
12.3125
 23
1.227265
 33
0.0
  0
TEXT
  5
106
330
32
100
AcDbEntity
  8
CDIM
100
AcDbText
 10
10.370532
 20
1.022718
 30
0.0
 40
0.409094
  1
2.81
  7
STR
100
AcDbText
  0
LINE
  5
107
330
32
100
AcDbEntity
  8
CDIM
100
AcDbLine
 10
19.5
 20
13.432631
 30
0.0
 11
19.5
 21
14.262989
 31
0.0
  0
LINE
  5
108
330
32
100
AcDbEntity
  8
CDIM
100
AcDbLine
 10
18.25
 20
12.698131
 30
0.0
 11
18.25
 21
14.262989
 31
0.0
  0
LINE
  5
109
330
32
100
AcDbEntity
  8
CDIM
100
AcDbLine
 10
17.899348
 20
14.0
 30
0.0
 11
17.548696
 21
14.0
 31
0.0
  0
LINE
  5
10A
330
32
100
AcDbEntity
  8
CDIM
100
AcDbLine
 10
19.850652
 20
14.0
 30
0.0
 11
20.201304
 21
14.0
 31
0.0
  0
SOLID
  5
10B
330
32
100
AcDbEntity
  8
CDIM
100
AcDbTrace
 10
17.899348
 20
13.941558
 30
0.0
 11
17.899348
 21
14.058442
 31
0.0
 12
18.25
 22
14.0
 32
0.0
 13
18.25
 23
14.0
 33
0.0
  0
SOLID
  5
10C
330
32
100
AcDbEntity
  8
CDIM
100
AcDbTrace
 10
19.850652
 20
13.941558
 30
0.0
 11
19.850652
 21
14.058442
 31
0.0
 12
19.5
 22
14.0
 32
0.0
 13
19.5
 23
14.0
 33
0.0
  0
TEXT
  5
10D
330
32
100
AcDbEntity
  8
CDIM
100
AcDbText
 10
16.029204
 20
13.795453
 30
0.0
 40
0.409094
  1
1.25
  7
STR
100
AcDbText
  0
LINE
  5
10E
330
32
100
AcDbEntity
  8
CDIM
100
AcDbLine
 10
19.682631
 20
13.25
 30
0.0
 11
20.700489
 21
13.25
 31
0.0
  0
LINE
  5
10F
330
32
100
AcDbEntity
  8
CDIM
100
AcDbLine
 10
18.885631
 20
12.0625
 30
0.0
 11
20.700489
 21
12.0625
 31
0.0
  0
LINE
  5
110
330
32
100
AcDbEntity
  8
CDIM
100
AcDbLine
 10
20.4375
 20
11.711848
 30
0.0
 11
20.4375
 21
11.361196
 31
0.0
  0
LINE
  5
111
330
32
100
AcDbEntity
  8
CDIM
100
AcDbLine
 10
20.4375
 20
13.60065199999999
 30
0.0
 11
20.4375
 21
13.951304
 31
0.0
  0
SOLID
  5
112
330
32
100
AcDbEntity
  8
CDIM
100
AcDbTrace
 10
20.495942
 20
11.711848
 30
0.0
 11
20.37905799999999
 21
11.711848
 31
0.0
 12
20.4375
 22
12.0625
 32
0.0
 13
20.4375
 23
12.0625
 33
0.0
  0
SOLID
  5
113
330
32
100
AcDbEntity
  8
CDIM
100
AcDbTrace
 10
20.495942
 20
13.60065199999999
 30
0.0
 11
20.37905799999999
 21
13.60065199999999
 31
0.0
 12
20.4375
 22
13.25
 32
0.0
 13
20.4375
 23
13.25
 33
0.0
  0
TEXT
  5
114
330
32
100
AcDbEntity
  8
CDIM
100
AcDbText
 10
19.946009
 20
12.50039899999999
 30
0.0
 40
0.409094
  1
1.19
  7
STR
100
AcDbText
  0
LINE
  5
115
330
32
100
AcDbEntity
  8
CDIM
100
AcDbLine
 10
19.682631
 20
13.25
 30
0.0
 11
21.723224
 21
13.25
 31
0.0
  0
LINE
  5
116
330
32
100
AcDbEntity
  8
CDIM
100
AcDbLine
 10
18.885631
 20
10.46875
 30
0.0
 11
21.723224
 21
10.46875
 31
0.0
  0
LINE
  5
117
330
32
100
AcDbEntity
  8
CDIM
100
AcDbLine
 10
21.460235
 20
12.899348
 30
0.0
 11
21.460235
 21
12.195824
 31
0.0
  0
LINE
  5
118
330
32
100
AcDbEntity
  8
CDIM
100
AcDbLine
 10
21.460235
 20
10.819402
 30
0.0
 11
21.460235
 21
11.085426
 31
0.0
  0
SOLID
  5
119
330
32
100
AcDbEntity
  8
CDIM
100
AcDbTrace
 10
21.51867699999999
 20
12.899348
 30
0.0
 11
21.40179299999999
 21
12.899348
 31
0.0
 12
21.460235
 22
13.25
 32
0.0
 13
21.460235
 23
13.25
 33
0.0
  0
SOLID
  5
11A
330
32
100
AcDbEntity
  8
CDIM
100
AcDbTrace
 10
21.51867699999999
 20
10.819402
 30
0.0
 11
21.40179299999999
 21
10.819402
 31
0.0
 12
21.460235
 22
10.46875
 32
0.0
 13
21.460235
 23
10.46875
 33
0.0
  0
TEXT
  5
11B
330
32
100
AcDbEntity
  8
CDIM
100
AcDbText
 10
20.836854
 20
11.436078
 30
0.0
 40
0.409094
  1
2.78
  7
STR
100
AcDbText
  0
LINE
  5
11C
330
32
100
AcDbEntity
  8
CDIM
100
AcDbLine
 10
27.182631
 20
13.25
 30
0.0
 11
28.200489
 21
13.25
 31
0.0
  0
LINE
  5
11D
330
32
100
AcDbEntity
  8
CDIM
100
AcDbLine
 10
24.862131
 20
12.125
 30
0.0
 11
28.200489
 21
12.125
 31
0.0
  0
LINE
  5
11E
330
32
100
AcDbEntity
  8
CDIM
100
AcDbLine
 10
27.9375
 20
11.774348
 30
0.0
 11
27.9375
 21
11.423696
 31
0.0
  0
LINE
  5
11F
330
32
100
AcDbEntity
  8
CDIM
100
AcDbLine
 10
27.9375
 20
13.60065199999999
 30
0.0
 11
27.9375
 21
13.951304
 31
0.0
  0
SOLID
  5
120
330
32
100
AcDbEntity
  8
CDIM
100
AcDbTrace
 10
27.995942
 20
11.774348
 30
0.0
 11
27.879058
 21
11.774348
 31
0.0
 12
27.9375
 22
12.125
 32
0.0
 13
27.9375
 23
12.125
 33
0.0
  0
SOLID
  5
121
330
32
100
AcDbEntity
  8
CDIM
100
AcDbTrace
 10
27.995942
 20
13.60065199999999
 30
0.0
 11
27.879058
 21
13.60065199999999
 31
0.0
 12
27.9375
 22
13.25
 32
0.0
 13
27.9375
 23
13.25
 33
0.0
  0
TEXT
  5
122
330
32
100
AcDbEntity
  8
CDIM
100
AcDbText
 10
27.42652899999999
 20
12.437899
 30
0.0
 40
0.409094
  1
1.12
  7
STR
100
AcDbText
  0
LINE
  5
123
330
32
100
AcDbEntity
  8
CDIM
100
AcDbLine
 10
27.182631
 20
13.25
 30
0.0
 11
29.223224
 21
13.25
 31
0.0
  0
LINE
  5
124
330
32
100
AcDbEntity
  8
CDIM
100
AcDbLine
 10
24.901381
 20
10.5
 30
0.0
 11
29.223224
 21
10.5
 31
0.0
  0
LINE
  5
125
330
32
100
AcDbEntity
  8
CDIM
100
AcDbLine
 10
28.960235
 20
12.899348
 30
0.0
 11
28.960235
 21
12.273949
 31
0.0
  0
LINE
  5
126
330
32
100
AcDbEntity
  8
CDIM
100
AcDbLine
 10
28.960235
 20
10.850652
 30
0.0
 11
28.960235
 21
11.163551
 31
0.0
  0
SOLID
  5
127
330
32
100
AcDbEntity
  8
CDIM
100
AcDbTrace
 10
29.018677
 20
12.899348
 30
0.0
 11
28.90179299999999
 21
12.899348
 31
0.0
 12
28.960235
 22
13.25
 32
0.0
 13
28.960235
 23
13.25
 33
0.0
  0
SOLID
  5
128
330
32
100
AcDbEntity
  8
CDIM
100
AcDbTrace
 10
29.018677
 20
10.850652
 30
0.0
 11
28.90179299999999
 21
10.850652
 31
0.0
 12
28.960235
 22
10.5
 32
0.0
 13
28.960235
 23
10.5
 33
0.0
  0
TEXT
  5
129
330
32
100
AcDbEntity
  8
CDIM
100
AcDbText
 10
28.336854
 20
11.514203
 30
0.0
 40
0.409094
  1
2.75
  7
STR
100
AcDbText
  0
LINE
  5
12A
330
32
100
AcDbEntity
  8
CDIM
100
AcDbLine
 10
27.0
 20
13.432631
 30
0.0
 11
27.0
 21
14.262989
 31
0.0
  0
LINE
  5
12B
330
32
100
AcDbEntity
  8
CDIM
100
AcDbLine
 10
24.1875
 20
12.799631
 30
0.0
 11
24.1875
 21
14.262989
 31
0.0
  0
LINE
  5
12C
330
32
100
AcDbEntity
  8
CDIM
100
AcDbLine
 10
26.649348
 20
14.0
 30
0.0
 11
26.48012
 21
14.0
 31
0.0
  0
LINE
  5
12D
330
32
100
AcDbEntity
  8
CDIM
100
AcDbLine
 10
24.538152
 20
14.0
 30
0.0
 11
24.70738
 21
14.0
 31
0.0
  0
SOLID
  5
12E
330
32
100
AcDbEntity
  8
CDIM
100
AcDbTrace
 10
26.649348
 20
13.941558
 30
0.0
 11
26.649348
 21
14.058442
 31
0.0
 12
27.0
 22
14.0
 32
0.0
 13
27.0
 23
14.0
 33
0.0
  0
SOLID
  5
12F
330
32
100
AcDbEntity
  8
CDIM
100
AcDbTrace
 10
24.538152
 20
13.941558
 30
0.0
 11
24.538152
 21
14.058442
 31
0.0
 12
24.1875
 22
14.0
 32
0.0
 13
24.1875
 23
14.0
 33
0.0
  0
TEXT
  5
130
330
32
100
AcDbEntity
  8
CDIM
100
AcDbText
 10
25.058032
 20
13.795453
 30
0.0
 40
0.409094
  1
2.81
  7
STR
100
AcDbText
  0
LINE
  5
131
330
32
100
AcDbEntity
  8
CDIM
100
AcDbLine
 10
9.317368999999999
 20
18.75
 30
0.0
 11
8.299511
 21
18.75
 31
0.0
  0
LINE
  5
132
330
32
100
AcDbEntity
  8
CDIM
100
AcDbLine
 10
11.19236899999999
 20
17.5
 30
0.0
 11
8.299511
 21
17.5
 31
0.0
  0
LINE
  5
133
330
32
100
AcDbEntity
  8
CDIM
100
AcDbLine
 10
8.5625
 20
17.14934799999999
 30
0.0
 11
8.5625
 21
16.79869599999999
 31
0.0
  0
LINE
  5
134
330
32
100
AcDbEntity
  8
CDIM
100
AcDbLine
 10
8.5625
 20
19.100652
 30
0.0
 11
8.5625
 21
19.451304
 31
0.0
  0
SOLID
  5
135
330
32
100
AcDbEntity
  8
CDIM
100
AcDbTrace
 10
8.620941999999999
 20
17.14934799999999
 30
0.0
 11
8.504058
 21
17.14934799999999
 31
0.0
 12
8.5625
 22
17.5
 32
0.0
 13
8.5625
 23
17.5
 33
0.0
  0
SOLID
  5
136
330
32
100
AcDbEntity
  8
CDIM
100
AcDbTrace
 10
8.620941999999999
 20
19.100652
 30
0.0
 11
8.504058
 21
19.100652
 31
0.0
 12
8.5625
 22
18.75
 32
0.0
 13
8.5625
 23
18.75
 33
0.0
  0
TEXT
  5
137
330
32
100
AcDbEntity
  8
CDIM
100
AcDbText
 10
7.973606
 20
17.93789899999999
 30
0.0
 40
0.409094
  1
1.25
  7
STR
100
AcDbText
  0
LINE
  5
138
330
32
100
AcDbEntity
  8
CDIM
100
AcDbLine
 10
9.5
 20
18.932631
 30
0.0
 11
9.5
 21
19.762989
 31
0.0
  0
LINE
  5
139
330
32
100
AcDbEntity
  8
CDIM
100
AcDbLine
 10
11.8125
 20
18.22263099999999
 30
0.0
 11
11.8125
 21
19.762989
 31
0.0
  0
LINE
  5
13A
330
32
100
AcDbEntity
  8
CDIM
100
AcDbLine
 10
12.163152
 20
19.5
 30
0.0
 11
12.51380399999999
 21
19.5
 31
0.0
  0
LINE
  5
13B
330
32
100
AcDbEntity
  8
CDIM
100
AcDbLine
 10
9.149347999999999
 20
19.5
 30
0.0
 11
8.798696000000001
 21
19.5
 31
0.0
  0
SOLID
  5
13C
330
32
100
AcDbEntity
  8
CDIM
100
AcDbTrace
 10
12.163152
 20
19.44155799999999
 30
0.0
 11
12.163152
 21
19.558442
 31
0.0
 12
11.8125
 22
19.5
 32
0.0
 13
11.8125
 23
19.5
 33
0.0
  0
SOLID
  5
13D
330
32
100
AcDbEntity
  8
CDIM
100
AcDbTrace
 10
9.149347999999999
 20
19.44155799999999
 30
0.0
 11
9.149347999999999
 21
19.558442
 31
0.0
 12
9.5
 22
19.5
 32
0.0
 13
9.5
 23
19.5
 33
0.0
  0
TEXT
  5
13E
330
32
100
AcDbEntity
  8
CDIM
100
AcDbText
 10
10.145706
 20
19.295453
 30
0.0
 40
0.409094
  1
2.31
  7
STR
100
AcDbText
  0
LINE
  5
13F
330
32
100
AcDbEntity
  8
CDIM
100
AcDbLine
 10
6.0
 20
14.40625
 30
0.0
 11
6.0
 21
15.28572399999999
 31
0.0
  0
LINE
  5
140
330
32
100
AcDbEntity
  8
CDIM
100
AcDbLine
 10
11.5
 20
7.4375
 30
0.0
 11
11.5
 21
6.464275999999999
 31
0.0
  0
SOLID
  5
141
330
32
100
AcDbEntity
  8
CDIM
100
AcDbTrace
 10
12.638964
 20
17.23431
 30
0.0
 11
12.666946
 21
17.347795
 31
0.0
 12
12.3125
 22
17.375
 32
0.0
 13
12.3125
 23
17.375
 33
0.0
  0
LINE
  5
142
330
32
100
AcDbEntity
  8
CDIM
100
AcDbLine
 10
12.652955
 20
17.291052
 30
0.0
 11
14.59375
 21
16.8125
 31
0.0
  0
LINE
  5
143
330
32
100
AcDbEntity
  8
CDIM
100
AcDbLine
 10
14.59375
 20
16.8125
 30
0.0
 11
14.9375
 21
16.8125
 31
0.0
  0
TEXT
  5
144
330
32
100
AcDbEntity
  8
CDIM
100
AcDbText
 10
15.28815199999999
 20
16.607953
 30
0.0
 40
0.409094
  1
Relief valve cavity
  7
STR
100
AcDbText
  0
LINE
  5
145
330
32
100
AcDbEntity
  8
CDIM
100
AcDbLine
 10
12.3125
 20
1.8125
 30
0.0
 11
12.3125
 21
0.964276
 31
0.0
  0
LINE
  5
146
330
32
100
AcDbEntity
  8
CDIM
100
AcDbLine
 10
9.317368999999999
 20
3.0
 30
0.0
 11
8.299511
 21
3.0
 31
0.0
  0
LINE
  5
147
330
32
100
AcDbEntity
  8
CDIM
100
AcDbLine
 10
10.25486899999999
 20
5.0
 30
0.0
 11
8.299511
 21
5.0
 31
0.0
  0
LINE
  5
148
330
32
100
AcDbEntity
  8
CDIM
100
AcDbLine
 10
8.5625
 20
3.350651999999999
 30
0.0
 11
8.5625
 21
3.444801
 31
0.0
  0
LINE
  5
149
330
32
100
AcDbEntity
  8
CDIM
100
AcDbLine
 10
8.5625
 20
4.649348
 30
0.0
 11
8.5625
 21
4.555198999999999
 31
0.0
  0
SOLID
  5
14A
330
32
100
AcDbEntity
  8
CDIM
100
AcDbTrace
 10
8.620941999999999
 20
3.350651999999999
 30
0.0
 11
8.504058
 21
3.350651999999999
 31
0.0
 12
8.5625
 22
3.0
 32
0.0
 13
8.5625
 23
3.0
 33
0.0
  0
SOLID
  5
14B
330
32
100
AcDbEntity
  8
CDIM
100
AcDbTrace
 10
8.620941999999999
 20
4.649348
 30
0.0
 11
8.504058
 21
4.649348
 31
0.0
 12
8.5625
 22
5.0
 32
0.0
 13
8.5625
 23
5.0
 33
0.0
  0
TEXT
  5
14C
330
32
100
AcDbEntity
  8
CDIM
100
AcDbText
 10
7.939118999999999
 20
3.795452999999999
 30
0.0
 40
0.409094
  1
2.00
  7
STR
100
AcDbText
  0
ENDBLK
  5
14D
330
32
100
AcDbEntity
  8
0
100
AcDbBlockEnd
  0
BLOCK
  5
14E
330
34
100
AcDbEntity
  8
0
100
AcDbBlockBegin
  2
056SAET
 70
     0
 10
11.75
 20
9.75
 30
0.0
  3
056SAET
  1

  0
INSERT
  5
14F
330
34
100
AcDbEntity
  8
CCENTER
100
AcDbBlockReference
  2
100CROSS
 10
11.75
 20
9.75
 30
0.0
  0
CIRCLE
  5
150
330
34
100
AcDbEntity
  8
CHIDDEN
100
AcDbCircle
 10
11.75
 20
9.75
 30
0.0
 40
0.28125
  0
CIRCLE
  5
151
330
34
100
AcDbEntity
  8
CSOLID
100
AcDbCircle
 10
11.75
 20
9.75
 30
0.0
 40
0.5
  0
CIRCLE
  5
152
330
34
100
AcDbEntity
  8
CSOLID
100
AcDbCircle
 10
11.75
 20
9.75
 30
0.0
 40
0.25
  0
ENDBLK
  5
153
330
34
100
AcDbEntity
  8
0
100
AcDbBlockEnd
  0
BLOCK
  5
160
330
37
100
AcDbEntity
  8
0
100
AcDbBlockBegin
  2
106SAET
 70
     0
 10
6.625
 20
14.28125
 30
0.0
  3
106SAET
  1

  0
CIRCLE
  5
161
330
37
100
AcDbEntity
  8
CSOLID
100
AcDbCircle
 10
6.625
 20
14.28125
 30
0.0
 40
0.4920000000000001
  0
CIRCLE
  5
162
330
37
100
AcDbEntity
  8
CSOLID
100
AcDbCircle
 10
6.625
 20
14.28125
 30
0.0
 40
0.453
  0
CIRCLE
  5
163
330
37
100
AcDbEntity
  8
CSOLID
100
AcDbCircle
 10
6.625
 20
14.28125
 30
0.0
 40
0.8125
  0
INSERT
  5
164
330
37
100
AcDbEntity
  8
CCENTER
100
AcDbBlockReference
  2
100CROSS
 10
6.625
 20
14.28125
 30
0.0
 41
1.33
 42
1.33
  0
CIRCLE
  5
165
330
37
100
AcDbEntity
  8
CHIDDEN
100
AcDbCircle
 10
6.625
 20
14.28125
 30
0.0
 40
0.53125
  0
ENDBLK
  5
166
330
37
100
AcDbEntity
  8
0
100
AcDbBlockEnd
  0
BLOCK
  5
154
330
3B
100
AcDbEntity
  8
CSOLID
100
AcDbBlockBegin
  2
100CROSS
 70
     0
 10
5.625
 20
4.59375
 30
0.0
  3
100CROSS
  1

  0
INSERT
  5
156
330
3B
100
AcDbEntity
  8
0
100
AcDbBlockReference
  2
050CROSS
 10
5.625
 20
4.59375
 30
0.0
  0
ENDBLK
  5
157
330
3B
100
AcDbEntity
  8
0
100
AcDbBlockEnd
  0
BLOCK
  5
167
330
40
100
AcDbEntity
  8
0
100
AcDbBlockBegin
  2
SUNT3AT
 70
     0
 10
12.3125
 20
17.125
 30
0.0
  3
SUNT3AT
  1

  0
CIRCLE
  5
168
330
40
100
AcDbEntity
  8
CHIDDEN
100
AcDbCircle
 10
12.3125
 20
17.125
 30
0.0
 40
0.5
  0
CIRCLE
  5
169
330
40
100
AcDbEntity
  8
CSOLID
100
AcDbCircle
 10
12.3125
 20
17.125
 30
0.0
 40
0.5400000000000001
  0
CIRCLE
  5
16A
330
40
100
AcDbEntity
  8
CSOLID
100
AcDbCircle
 10
12.3125
 20
17.125
 30
0.0
 40
0.5155
  0
CIRCLE
  5
16B
330
40
100
AcDbEntity
  8
CSOLID
100
AcDbCircle
 10
12.3125
 20
17.125
 30
0.0
 40
0.469
  0
CIRCLE
  5
16C
330
40
100
AcDbEntity
  8
CSOLID
100
AcDbCircle
 10
12.3125
 20
17.125
 30
0.0
 40
0.4375
  0
CIRCLE
  5
16D
330
40
100
AcDbEntity
  8
CSOLID
100
AcDbCircle
 10
12.3125
 20
17.125
 30
0.0
 40
0.3439999999999999
  0
INSERT
  5
16E
330
40
100
AcDbEntity
  8
CCENTER
100
AcDbBlockReference
  2
100CROSS
 10
12.3125
 20
17.125
 30
0.0
  0
ENDBLK
  5
16F
330
40
100
AcDbEntity
  8
0
100
AcDbBlockEnd
  0
BLOCK
  5
158
330
155
100
AcDbEntity
  8
0
100
AcDbBlockBegin
  2
050CROSS
 70
     0
 10
5.0
 20
5.0
 30
0.0
  3
050CROSS
  1

  0
LINE
  5
159
330
155
100
AcDbEntity
  8
0
100
AcDbLine
 10
5.0
 20
5.28125
 30
0.0
 11
5.0
 21
5.78125
 31
0.0
  0
LINE
  5
15A
330
155
100
AcDbEntity
  8
0
100
AcDbLine
 10
5.0
 20
4.875
 30
0.0
 11
5.0
 21
5.125
 31
0.0
  0
LINE
  5
15B
330
155
100
AcDbEntity
  8
0
100
AcDbLine
 10
5.0
 20
4.15625
 30
0.0
 11
5.0
 21
4.71875
 31
0.0
  0
LINE
  5
15C
330
155
100
AcDbEntity
  8
0
100
AcDbLine
 10
5.25
 20
5.0
 30
0.0
 11
5.8125
 21
5.0
 31
0.0
  0
LINE
  5
15D
330
155
100
AcDbEntity
  8
0
100
AcDbLine
 10
4.90625
 20
5.0
 30
0.0
 11
5.09375
 21
5.0
 31
0.0
  0
LINE
  5
15E
330
155
100
AcDbEntity
  8
0
100
AcDbLine
 10
4.1875
 20
5.0
 30
0.0
 11
4.75
 21
5.0
 31
0.0
  0
ENDBLK
  5
15F
330
155
100
AcDbEntity
  8
0
100
AcDbBlockEnd
  0
BLOCK
  5
171
330
170
100
AcDbEntity
  8
0
100
AcDbBlockBegin
  2
075NPTFT
 70
     0
 10
0.0
 20
0.0
 30
0.0
  3
075NPTFT
  1

  0
INSERT
  5
173
330
170
100
AcDbEntity
  8
DAMAN
100
AcDbBlockReference
  2
750NPTFT
 10
-6.410892999999999
 20
-4.555543
 30
0.0
  0
ENDBLK
  5
174
330
170
100
AcDbEntity
  8
0
100
AcDbBlockEnd
  0
BLOCK
  5
175
330
172
100
AcDbEntity
  8
0
100
AcDbBlockBegin
  2
750NPTFT
 70
     0
 10
0.0
 20
0.0
 30
0.0
  3
750NPTFT
  1

  0
INSERT
  5
176
330
172
100
AcDbEntity
  8
DAMAN
 62
     5
100
AcDbBlockReference
  2
100CROSS
 10
6.410892999999999
 20
4.555543
 30
0.0
 41
0.98
 42
0.98
  0
CIRCLE
  5
177
330
172
100
AcDbEntity
  8
DAMAN
 62
     5
100
AcDbCircle
 10
6.410892999999999
 20
4.555543
 30
0.0
 40
0.4910670000000001
  0
CIRCLE
  5
178
330
172
100
AcDbEntity
  8
DAMAN
 62
     5
100
AcDbCircle
 10
6.410892999999999
 20
4.555543
 30
0.0
 40
0.453
  0
CIRCLE
  5
179
330
172
100
AcDbEntity
  8
DAMAN
 62
     5
100
AcDbCircle
 10
6.410892999999999
 20
4.555543
 30
0.0
 40
0.53125
  0
ENDBLK
  5
17A
330
172
100
AcDbEntity
  8
0
100
AcDbBlockEnd
  0
BLOCK
  5
17C
330
17B
100
AcDbEntity
  8
0
100
AcDbBlockBegin
  2
12SAET
 70
     0
 10
0.0
 20
0.0
 30
0.0
  3
12SAET
  1

  0
CIRCLE
  5
17D
330
17B
100
AcDbEntity
  8
DAMAN
100
AcDbCircle
 10
0.0
 20
0.0
 30
0.0
 40
0.4920000000000001
  0
CIRCLE
  5
17E
330
17B
100
AcDbEntity
  8
DAMAN
100
AcDbCircle
 10
0.0
 20
0.0
 30
0.0
 40
0.453
  0
CIRCLE
  5
17F
330
17B
100
AcDbEntity
  8
DAMAN
100
AcDbCircle
 10
0.0
 20
0.0
 30
0.0
 40
0.8125
  0
INSERT
  5
180
330
17B
100
AcDbEntity
  8
DAMAN
100
AcDbBlockReference
  2
100CROSS
 10
0.0
 20
0.0
 30
0.0
 41
1.33
 42
1.33
  0
CIRCLE
  5
181
330
17B
100
AcDbEntity
  8
DAMAN
100
AcDbCircle
 10
0.0
 20
0.0
 30
0.0
 40
0.53125
  0
ENDBLK
  5
182
330
17B
100
AcDbEntity
  8
0
100
AcDbBlockEnd
  0
BLOCK
  5
184
330
183
100
AcDbEntity
  8
0
100
AcDbBlockBegin
  2
06SAET
 70
     0
 10
0.0
 20
0.0
 30
0.0
  3
06SAET
  1

  0
INSERT
  5
185
330
183
100
AcDbEntity
  8
DAMAN
100
AcDbBlockReference
  2
100CROSS
 10
0.0
 20
0.0
 30
0.0
  0
CIRCLE
  5
186
330
183
100
AcDbEntity
  8
DAMAN
100
AcDbCircle
 10
0.0
 20
0.0
 30
0.0
 40
0.28125
  0
CIRCLE
  5
187
330
183
100
AcDbEntity
  8
DAMAN
100
AcDbCircle
 10
0.0
 20
0.0
 30
0.0
 40
0.5
  0
CIRCLE
  5
188
330
183
100
AcDbEntity
  8
DAMAN
100
AcDbCircle
 10
0.0
 20
0.0
 30
0.0
 40
0.25
  0
ENDBLK
  5
189
330
183
100
AcDbEntity
  8
0
100
AcDbBlockEnd
  0
BLOCK
  5
18B
330
18A
100
AcDbEntity
  8
CDIM
100
AcDbBlockBegin
  2
025NPTFT
 70
     0
 10
11.75
 20
9.75
 30
0.0
  3
025NPTFT
  1

  0
INSERT
  5
18C
330
18A
100
AcDbEntity
  8
CCENTER
100
AcDbBlockReference
  2
100CROSS
 10
11.75
 20
9.75
 30
0.0
  0
CIRCLE
  5
18D
330
18A
100
AcDbEntity
  8
CHIDDEN
100
AcDbCircle
 10
11.75
 20
9.75
 30
0.0
 40
0.28125
  0
CIRCLE
  5
18E
330
18A
100
AcDbEntity
  8
CSOLID
100
AcDbCircle
 10
11.75
 20
9.75
 30
0.0
 40
0.5
  0
CIRCLE
  5
18F
330
18A
100
AcDbEntity
  8
CSOLID
100
AcDbCircle
 10
11.75
 20
9.75
 30
0.0
 40
0.25
  0
ENDBLK
  5
190
330
18A
100
AcDbEntity
  8
CDIM
100
AcDbBlockEnd
  0
BLOCK
  5
192
330
191
100
AcDbEntity
  8
0
100
AcDbBlockBegin
  2
T3AT
 70
     0
 10
0.0
 20
0.0
 30
0.0
  3
T3AT
  1

  0
CIRCLE
  5
193
330
191
100
AcDbEntity
  8
DAMAN
100
AcDbCircle
 10
0.0
 20
0.0
 30
0.0
 40
0.4665
  0
CIRCLE
  5
194
330
191
100
AcDbEntity
  8
DAMAN
100
AcDbCircle
 10
0.0
 20
0.0
 30
0.0
 40
0.4375
  0
CIRCLE
  5
195
330
191
100
AcDbEntity
  8
DAMAN
  6
HIDDEN
100
AcDbCircle
 10
0.0
 20
0.0
 30
0.0
 40
0.5
  0
INSERT
  5
196
330
191
100
AcDbEntity
  8
DAMAN
100
AcDbBlockReference
  2
100CROSS
 10
0.0
 20
0.0
 30
0.0
 41
0.88
 42
0.88
  0
CIRCLE
  5
197
330
191
100
AcDbEntity
  8
DAMAN
100
AcDbCircle
 10
0.0
 20
0.0
 30
0.0
 40
0.5160000000000001
  0
CIRCLE
  5
198
330
191
100
AcDbEntity
  8
DAMAN
100
AcDbCircle
 10
0.0
 20
0.0
 30
0.0
 40
0.5390000000000001
  0
CIRCLE
  5
199
330
191
100
AcDbEntity
  8
DAMAN
100
AcDbCircle
 10
0.0
 20
0.0
 30
0.0
 40
0.3439999999999999
  0
ENDBLK
  5
19A
330
191
100
AcDbEntity
  8
0
100
AcDbBlockEnd
  0
ENDSEC
  0
SECTION
  2
ENTITIES
  0
INSERT
  5
19B
330
1E
100
AcDbEntity
  8
DAMAN
100
AcDbBlockReference
  2
100CROSS
 10
26.875
 20
14.03125
 30
0.0
 41
0.3125
 42
0.3125
 43
0.5
  0
CIRCLE
  5
19C
330
1E
100
AcDbEntity
  8
DAMAN
100
AcDbCircle
 10
26.875
 20
14.03125
 30
0.0
 40
0.203
  0
CIRCLE
  5
19D
330
1E
100
AcDbEntity
  8
DAMAN
100
AcDbCircle
 10
26.25
 20
10.03125
 30
0.0
 40
0.203
  0
INSERT
  5
19E
330
1E
100
AcDbEntity
  8
DAMAN
100
AcDbBlockReference
  2
100CROSS
 10
26.25
 20
10.03125
 30
0.0
 41
0.3125
 42
0.3125
 43
0.5
  0
INSERT
  5
19F
330
1E
100
AcDbEntity
  8
DAMAN
100
AcDbBlockReference
  2
100CROSS
 10
12.75
 20
10.03125
 30
0.0
 41
0.625
 42
0.625
  0
CIRCLE
  5
1A0
330
1E
100
AcDbEntity
  8
DAMAN
100
AcDbCircle
 10
12.75
 20
10.03125
 30
0.0
 40
0.203
  0
CIRCLE
  5
1A1
330
1E
100
AcDbEntity
  8
DAMAN
100
AcDbCircle
 10
12.75
 20
10.03125
 30
0.0
 40
0.3125
  0
CIRCLE
  5
1A2
330
1E
100
AcDbEntity
  8
DAMAN
100
AcDbCircle
 10
12.125
 20
14.03125
 30
0.0
 40
0.3125
  0
CIRCLE
  5
1A3
330
1E
100
AcDbEntity
  8
DAMAN
100
AcDbCircle
 10
12.125
 20
14.03125
 30
0.0
 40
0.203
  0
INSERT
  5
1A4
330
1E
100
AcDbEntity
  8
DAMAN
100
AcDbBlockReference
  2
100CROSS
 10
12.125
 20
14.03125
 30
0.0
 41
0.625
 42
0.625
  0
CIRCLE
  5
1A5
330
1E
100
AcDbEntity
  8
DAMAN
100
AcDbCircle
 10
6.0
 20
11.28125
 30
0.0
 40
0.4920000000000001
  0
CIRCLE
  5
1A6
330
1E
100
AcDbEntity
  8
DAMAN
100
AcDbCircle
 10
6.0
 20
11.28125
 30
0.0
 40
0.453
  0
CIRCLE
  5
1A7
330
1E
100
AcDbEntity
  8
DAMAN
100
AcDbCircle
 10
6.0
 20
11.28125
 30
0.0
 40
0.8125
  0
INSERT
  5
1A8
330
1E
100
AcDbEntity
  8
DAMAN
100
AcDbBlockReference
  2
100CROSS
 10
6.0
 20
11.28125
 30
0.0
 41
1.33
 42
1.33
  0
CIRCLE
  5
1A9
330
1E
100
AcDbEntity
  8
DAMAN
100
AcDbCircle
 10
6.0
 20
11.28125
 30
0.0
 40
0.53125
  0
INSERT
  5
1AA
330
1E
100
AcDbEntity
  8
DAMAN
100
AcDbBlockReference
  2
100CROSS
 10
13.5
 20
11.01625
 30
0.0
 41
0.25
 42
0.25
  0
CIRCLE
  5
1AB
330
1E
100
AcDbEntity
  8
DAMAN
100
AcDbCircle
 10
13.5
 20
11.01625
 30
0.0
 40
0.125
  0
CIRCLE
  5
1AC
330
1E
100
AcDbEntity
  8
DAMAN
100
AcDbCircle
 10
11.875
 20
10.56324999999999
 30
0.0
 40
0.125
  0
INSERT
  5
1AD
330
1E
100
AcDbEntity
  8
DAMAN
100
AcDbBlockReference
  2
100CROSS
 10
11.875
 20
10.56324999999999
 30
0.0
 41
0.25
 42
0.25
  0
INSERT
  5
1AE
330
1E
100
AcDbEntity
  8
DAMAN
100
AcDbBlockReference
  2
100CROSS
 10
14.125
 20
11.0155
 30
0.0
 41
0.171
 42
0.171
  0
CIRCLE
  5
1AF
330
1E
100
AcDbEntity
  8
DAMAN
100
AcDbCircle
 10
14.125
 20
11.0155
 30
0.0
 40
0.0855
  0
CIRCLE
  5
1B0
330
1E
100
AcDbEntity
  8
DAMAN
100
AcDbCircle
 10
11.37499999999999
 20
13.3125
 30
0.0
 40
0.0855
  0
INSERT
  5
1B1
330
1E
100
AcDbEntity
  8
DAMAN
100
AcDbBlockReference
  2
100CROSS
 10
11.37499999999999
 20
13.3125
 30
0.0
 41
0.171
 42
0.171
  0
INSERT
  5
1B2
330
1E
100
AcDbEntity
  8
DAMAN
100
AcDbBlockReference
  2
100CROSS
 10
13.562
 20
13.31225
 30
0.0
 41
0.6879999999999999
 42
0.6879999999999999
  0
CIRCLE
  5
1B3
330
1E
100
AcDbEntity
  8
DAMAN
100
AcDbCircle
 10
13.562
 20
13.31225
 30
0.0
 40
0.3439999999999999
  0
CIRCLE
  5
1B4
330
1E
100
AcDbEntity
  8
DAMAN
100
AcDbCircle
 10
13.562
 20
12.06225
 30
0.0
 40
0.3439999999999999
  0
INSERT
  5
1B5
330
1E
100
AcDbEntity
  8
DAMAN
100
AcDbBlockReference
  2
100CROSS
 10
13.562
 20
12.06225
 30
0.0
 41
0.6879999999999999
 42
0.6879999999999999
  0
INSERT
  5
1B6
330
1E
100
AcDbEntity
  8
DAMAN
100
AcDbBlockReference
  2
100CROSS
 10
11.937
 20
11.43725
 30
0.0
 41
0.6879999999999999
 42
0.6879999999999999
  0
CIRCLE
  5
1B7
330
1E
100
AcDbEntity
  8
DAMAN
100
AcDbCircle
 10
11.937
 20
11.43725
 30
0.0
 40
0.3439999999999999
  0
CIRCLE
  5
1B8
330
1E
100
AcDbEntity
  8
DAMAN
100
AcDbCircle
 10
11.937
 20
12.68725
 30
0.0
 40
0.3439999999999999
  0
INSERT
  5
1B9
330
1E
100
AcDbEntity
  8
DAMAN
100
AcDbBlockReference
  2
100CROSS
 10
11.937
 20
12.68725
 30
0.0
 41
0.6879999999999999
 42
0.6879999999999999
  0
INSERT
  5
1BA
330
1E
100
AcDbEntity
  8
DAMAN
100
AcDbBlockReference
  2
100CROSS
 10
14.188
 20
12.68725
 30
0.0
 41
0.25
 42
0.25
  0
CIRCLE
  5
1BB
330
1E
100
AcDbEntity
  8
DAMAN
100
AcDbCircle
 10
14.188
 20
12.68725
 30
0.0
 40
0.1055
  0
CIRCLE
  5
1BC
330
1E
100
AcDbEntity
  8
DAMAN
100
AcDbCircle
 10
11.31299999999999
 20
12.06225
 30
0.0
 40
0.1055
  0
INSERT
  5
1BD
330
1E
100
AcDbEntity
  8
DAMAN
100
AcDbBlockReference
  2
100CROSS
 10
11.31299999999999
 20
12.06225
 30
0.0
 41
0.25
 42
0.25
  0
INSERT
  5
1BE
330
1E
100
AcDbEntity
  8
DAMAN
100
AcDbBlockReference
  2
100CROSS
 10
14.125
 20
10.03125
 30
0.0
 41
0.375
 42
0.375
  0
CIRCLE
  5
1BF
330
1E
100
AcDbEntity
  8
DAMAN
100
AcDbCircle
 10
14.125
 20
10.03125
 30
0.0
 40
0.15625
  0
INSERT
  5
1C0
330
1E
100
AcDbEntity
  8
DAMAN
100
AcDbBlockReference
  2
100CROSS
 10
14.125
 20
14.03125
 30
0.0
 41
0.375
 42
0.375
  0
CIRCLE
  5
1C1
330
1E
100
AcDbEntity
  8
DAMAN
100
AcDbCircle
 10
14.125
 20
14.03125
 30
0.0
 40
0.15625
  0
INSERT
  5
1C2
330
1E
100
AcDbEntity
  8
DAMAN
100
AcDbBlockReference
  2
100CROSS
 10
11.37499999999999
 20
10.03125
 30
0.0
 41
0.375
 42
0.375
  0
CIRCLE
  5
1C3
330
1E
100
AcDbEntity
  8
DAMAN
100
AcDbCircle
 10
11.37499999999999
 20
10.03125
 30
0.0
 40
0.15625
  0
CIRCLE
  5
1C4
330
1E
100
AcDbEntity
  8
DAMAN
100
AcDbCircle
 10
11.37499999999999
 20
14.03125
 30
0.0
 40
0.15625
  0
INSERT
  5
1C5
330
1E
100
AcDbEntity
  8
DAMAN
100
AcDbBlockReference
  2
100CROSS
 10
11.37499999999999
 20
14.03125
 30
0.0
 41
0.375
 42
0.375
  0
CIRCLE
  5
1C6
330
1E
100
AcDbEntity
  8
DAMAN
100
AcDbCircle
 10
11.37499999999999
 20
14.03125
 30
0.0
 40
0.1875
  0
CIRCLE
  5
1C7
330
1E
100
AcDbEntity
  8
DAMAN
100
AcDbCircle
 10
11.37499999999999
 20
10.03125
 30
0.0
 40
0.1875
  0
CIRCLE
  5
1C8
330
1E
100
AcDbEntity
  8
DAMAN
100
AcDbCircle
 10
14.125
 20
14.03125
 30
0.0
 40
0.1875
  0
CIRCLE
  5
1C9
330
1E
100
AcDbEntity
  8
DAMAN
100
AcDbCircle
 10
14.125
 20
10.03125
 30
0.0
 40
0.1875
  0
CIRCLE
  5
1CA
330
1E
100
AcDbEntity
  8
DAMAN
100
AcDbCircle
 10
11.3125
 20
12.0625
 30
0.0
 40
0.125
  0
CIRCLE
  5
1CB
330
1E
100
AcDbEntity
  8
DAMAN
100
AcDbCircle
 10
14.1875
 20
12.6875
 30
0.0
 40
0.125
  0
CIRCLE
  5
1CC
330
1E
100
AcDbEntity
  8
DAMAN
100
AcDbCircle
 10
19.5
 20
13.21875
 30
0.0
 40
0.4920000000000001
  0
CIRCLE
  5
1CD
330
1E
100
AcDbEntity
  8
DAMAN
100
AcDbCircle
 10
19.5
 20
13.21875
 30
0.0
 40
0.453
  0
CIRCLE
  5
1CE
330
1E
100
AcDbEntity
  8
DAMAN
100
AcDbCircle
 10
19.5
 20
13.21875
 30
0.0
 40
0.8125
  0
INSERT
  5
1CF
330
1E
100
AcDbEntity
  8
DAMAN
100
AcDbBlockReference
  2
100CROSS
 10
19.5
 20
13.21875
 30
0.0
 41
1.33
 42
1.33
  0
CIRCLE
  5
1D0
330
1E
100
AcDbEntity
  8
DAMAN
100
AcDbCircle
 10
19.5
 20
13.21875
 30
0.0
 40
0.53125
  0
CIRCLE
  5
1D1
330
1E
100
AcDbEntity
  8
DAMAN
100
AcDbCircle
 10
19.5
 20
11.625
 30
0.0
 40
0.4920000000000001
  0
CIRCLE
  5
1D2
330
1E
100
AcDbEntity
  8
DAMAN
100
AcDbCircle
 10
19.5
 20
11.625
 30
0.0
 40
0.453
  0
CIRCLE
  5
1D3
330
1E
100
AcDbEntity
  8
DAMAN
100
AcDbCircle
 10
19.5
 20
11.625
 30
0.0
 40
0.8125
  0
INSERT
  5
1D4
330
1E
100
AcDbEntity
  8
DAMAN
100
AcDbBlockReference
  2
100CROSS
 10
19.5
 20
11.625
 30
0.0
 41
1.33
 42
1.33
  0
CIRCLE
  5
1D5
330
1E
100
AcDbEntity
  8
DAMAN
100
AcDbCircle
 10
19.5
 20
11.625
 30
0.0
 40
0.53125
  0
LWPOLYLINE
  5
1D6
330
1E
100
AcDbEntity
  8
DAMAN
100
AcDbPolyline
 90
        4
 70
     1
 43
0.0
 10
10.74999999999999
 20
19.90625
 10
14.75
 20
19.90625
 10
14.75
 20
17.40625
 10
10.74999999999999
 20
17.40625
  0
LWPOLYLINE
  5
1DC
330
1E
100
AcDbEntity
  8
DAMAN
100
AcDbPolyline
 90
        4
 70
     1
 43
0.0
 10
4.75
 20
14.40625
 10
7.25
 20
14.40625
 10
7.25
 20
9.65625
 10
4.75
 20
9.65625
  0
LWPOLYLINE
  5
1E2
330
1E
100
AcDbEntity
  8
DAMAN
100
AcDbPolyline
 90
        4
 70
     1
 43
0.0
 10
10.74999999999999
 20
14.40625
 10
14.75
 20
14.40625
 10
14.75
 20
9.65625
 10
10.74999999999999
 20
9.65625
  0
LWPOLYLINE
  5
1E8
330
1E
100
AcDbEntity
  8
DAMAN
100
AcDbPolyline
 90
        4
 70
     1
 43
0.0
 10
18.25
 20
14.40625
 10
20.75
 20
14.40625
 10
20.75
 20
9.65625
 10
18.25
 20
9.65625
  0
LWPOLYLINE
  5
1EE
330
1E
100
AcDbEntity
  8
DAMAN
100
AcDbPolyline
 90
        4
 70
     1
 43
0.0
 10
24.25
 20
14.40625
 10
28.25
 20
14.40625
 10
28.25
 20
9.65625
 10
24.25
 20
9.65625
  0
LWPOLYLINE
  5
1F4
330
1E
100
AcDbEntity
  8
DAMAN
100
AcDbPolyline
 90
        4
 70
     1
 43
0.0
 10
10.74999999999999
 20
6.65625
 10
14.75
 20
6.65625
 10
14.75
 20
4.15625
 10
10.74999999999999
 20
4.15625
  0
TEXT
  5
1FA
330
1E
100
AcDbEntity
  8
DAMAN
100
AcDbText
 10
6.4375
 20
13.90625
 30
0.0
 40
0.25
  1
A
 50
270.0
  7
STR
100
AcDbText
  0
TEXT
  5
1FB
330
1E
100
AcDbEntity
  8
DAMAN
100
AcDbText
 10
6.4375
 20
10.43749999999999
 30
0.0
 40
0.25
  1
B
 50
270.0
  7
STR
100
AcDbText
  0
TEXT
  5
1FC
330
1E
100
AcDbEntity
  8
DAMAN
100
AcDbText
 10
18.8125
 20
13.875
 30
0.0
 40
0.25
  1
T
 50
90.0
  7
STR
100
AcDbText
  0
TEXT
  5
1FD
330
1E
100
AcDbEntity
  8
DAMAN
100
AcDbText
 10
18.8125
 20
10.875
 30
0.0
 40
0.25
  1
P
 50
90.0
  7
STR
100
AcDbText
  0
TEXT
  5
1FE
330
1E
100
AcDbEntity
  8
DAMAN
100
AcDbText
 10
24.59375
 20
13.84375
 30
0.0
 40
0.25
  1
T
  7
STR
100
AcDbText
  0
TEXT
  5
1FF
330
1E
100
AcDbEntity
  8
DAMAN
100
AcDbText
 10
24.59375
 20
12.15625
 30
0.0
 40
0.25
  1
P
  7
STR
100
AcDbText
  0
TEXT
  5
200
330
1E
100
AcDbEntity
  8
DAMAN
100
AcDbText
 10
11.125
 20
6.25
 30
0.0
 40
0.25
  1
Y
  7
STR
100
AcDbText
  0
TEXT
  5
201
330
1E
100
AcDbEntity
  8
DAMAN
100
AcDbText
 10
14.15625
 20
6.25
 30
0.0
 40
0.25
  1
X
  7
STR
100
AcDbText
  0
INSERT
  5
202
330
1E
100
AcDbEntity
  8
DAMAN
100
AcDbBlockReference
  2
12SAET
 10
25.4375
 20
13.28125
 30
0.0
  0
INSERT
  5
203
330
1E
100
AcDbEntity
  8
DAMAN
100
AcDbBlockReference
  2
12SAET
 10
25.4375
 20
11.65625
 30
0.0
  0
INSERT
  5
204
330
1E
100
AcDbEntity
  8
DAMAN
100
AcDbBlockReference
  2
12SAET
 10
6.0
 20
12.90625
 30
0.0
  0
INSERT
  5
205
330
1E
100
AcDbEntity
  8
DAMAN
100
AcDbBlockReference
  2
06SAET
 10
11.9375
 20
6.15625
 30
0.0
  0
INSERT
  5
206
330
1E
100
AcDbEntity
  8
DAMAN
100
AcDbBlockReference
  2
06SAET
 10
13.5625
 20
6.15625
 30
0.0
  0
INSERT
  5
207
330
1E
100
AcDbEntity
  8
DAMAN
100
AcDbBlockReference
  2
T3AT
 10
13.0625
 20
18.65625
 30
0.0
  0
TEXT
  5
208
330
1E
100
AcDbEntity
  8
DAMAN
100
AcDbText
 10
11.65625
 20
4.96875
 30
0.0
 40
0.188
  1
DAMAN ****
100
AcDbText
  0
ENDSEC
  0
SECTION
  2
OBJECTS
  0
DICTIONARY
  5
C
330
0
100
AcDbDictionary
  3
ACAD_GROUP
350
D
  3
ACAD_LAYOUT
350
19
  3
ACAD_MLINESTYLE
350
16
  3
ACAD_PLOTSETTINGS
350
18
  3
ACAD_PLOTSTYLENAME
350
E
  3
ACDBHEADERROUNDTRIPXREC
350
20B
  0
DICTIONARY
  5
22D
330
1E
100
AcDbDictionary
280
     1
  3
ACAD_LAYOUTSELFREF
360
22E
  0
DICTIONARY
  5
22B
330
1A
100
AcDbDictionary
280
     1
  3
ACAD_LAYOUTSELFREF
360
22C
  0
DICTIONARY
  5
D
102
{ACAD_REACTORS
330
C
102
}
330
C
100
AcDbDictionary
  0
DICTIONARY
  5
19
102
{ACAD_REACTORS
330
C
102
}
330
C
100
AcDbDictionary
  0
DICTIONARY
  5
16
102
{ACAD_REACTORS
330
C
102
}
330
C
100
AcDbDictionary
  3
STANDARD
350
17
  0
DICTIONARY
  5
18
102
{ACAD_REACTORS
330
C
102
}
330
C
100
AcDbDictionary
  0
ACDBDICTIONARYWDFLT
  5
E
102
{ACAD_REACTORS
330
C
102
}
330
C
100
AcDbDictionary
281
     1
  3
Normal
350
F
100
AcDbDictionaryWithDefault
340
F
  0
DICTIONARY
  5
20B
102
{ACAD_REACTORS
330
C
102
}
330
C
100
AcDbDictionary
  3
CEPSNTYPE
350
215
  3
FINGERPRINTGUID
350
216
  3
HYPERLINKBASE
350
20E
  3
INSUNITS
350
214
  3
LAYOUTDICT
350
210
  3
LWETCUNION
350
213
  3
PLOTSETDICT
350
211
  3
PLOTSTYLNAMDICT
350
212
  3
PSVPSCALE
350
218
  3
PUCSBASE
350
21B
  3
PUCSORGBACK
350
221
  3
PUCSORGBOTTOM
350
21D
  3
PUCSORGFRONT
350
220
  3
PUCSORGLEFT
350
21E
  3
PUCSORGRIGHT
350
21F
  3
PUCSORGTOP
350
21C
  3
PUCSORTHOREF
350
219
  3
PUCSORTHOVIEW
350
21A
  3
STYLESHEET
350
20F
  3
TSTACKALIGN
350
20C
  3
TSTACKSIZE
350
20D
  3
UCSBASE
350
224
  3
UCSORGBACK
350
22A
  3
UCSORGBOTTOM
350
226
  3
UCSORGFRONT
350
229
  3
UCSORGLEFT
350
227
  3
UCSORGRIGHT
350
228
  3
UCSORGTOP
350
225
  3
UCSORTHOREF
350
222
  3
UCSORTHOVIEW
350
223
  3
VERSIONGUID
350
217
  0
XRECORD
  5
22E
102
{ACAD_REACTORS
330
22D
102
}
330
22D
100
AcDbXrecord
340
1E
  0
XRECORD
  5
22C
102
{ACAD_REACTORS
330
22B
102
}
330
22B
100
AcDbXrecord
340
1A
  0
MLINESTYLE
  5
17
102
{ACAD_REACTORS
330
16
102
}
330
16
100
AcDbMlineStyle
  2
STANDARD
 70
     0
  3

 62
   256
 51
90.0
 52
90.0
 71
     2
 49
0.5
 62
   256
  6
BYLAYER
 49
-0.5
 62
   256
  6
BYLAYER
  0
ACDBPLACEHOLDER
  5
F
102
{ACAD_REACTORS
330
E
102
}
330
E
100
AcDbPlaceHolder
280
     0
  0
XRECORD
  5
215
102
{ACAD_REACTORS
330
20B
102
}
330
20B
100
AcDbXrecord
 90
        0
  0
XRECORD
  5
216
102
{ACAD_REACTORS
330
20B
102
}
330
20B
100
AcDbXrecord
  1
{F6DAFEC1-195F-47C8-8532-6B9D84962963}
  0
XRECORD
  5
20E
102
{ACAD_REACTORS
330
20B
102
}
330
20B
100
AcDbXrecord
  1

  0
XRECORD
  5
214
102
{ACAD_REACTORS
330
20B
102
}
330
20B
100
AcDbXrecord
 90
        0
  0
XRECORD
  5
210
102
{ACAD_REACTORS
330
20B
102
}
330
20B
100
AcDbXrecord
340
19
  0
XRECORD
  5
213
102
{ACAD_REACTORS
330
20B
102
}
330
20B
100
AcDbXrecord
 90
    10781
  0
XRECORD
  5
211
102
{ACAD_REACTORS
330
20B
102
}
330
20B
100
AcDbXrecord
340
18
  0
XRECORD
  5
212
102
{ACAD_REACTORS
330
20B
102
}
330
20B
100
AcDbXrecord
340
E
  0
XRECORD
  5
218
102
{ACAD_REACTORS
330
20B
102
}
330
20B
100
AcDbXrecord
 40
0.0
  0
XRECORD
  5
21B
102
{ACAD_REACTORS
330
20B
102
}
330
20B
100
AcDbXrecord
340
0
  0
XRECORD
  5
221
102
{ACAD_REACTORS
330
20B
102
}
330
20B
100
AcDbXrecord
 10
0.0
 20
0.0
 30
0.0
  0
XRECORD
  5
21D
102
{ACAD_REACTORS
330
20B
102
}
330
20B
100
AcDbXrecord
 10
0.0
 20
0.0
 30
0.0
  0
XRECORD
  5
220
102
{ACAD_REACTORS
330
20B
102
}
330
20B
100
AcDbXrecord
 10
0.0
 20
0.0
 30
0.0
  0
XRECORD
  5
21E
102
{ACAD_REACTORS
330
20B
102
}
330
20B
100
AcDbXrecord
 10
0.0
 20
0.0
 30
0.0
  0
XRECORD
  5
21F
102
{ACAD_REACTORS
330
20B
102
}
330
20B
100
AcDbXrecord
 10
0.0
 20
0.0
 30
0.0
  0
XRECORD
  5
21C
102
{ACAD_REACTORS
330
20B
102
}
330
20B
100
AcDbXrecord
 10
0.0
 20
0.0
 30
0.0
  0
XRECORD
  5
219
102
{ACAD_REACTORS
330
20B
102
}
330
20B
100
AcDbXrecord
340
0
  0
XRECORD
  5
21A
102
{ACAD_REACTORS
330
20B
102
}
330
20B
100
AcDbXrecord
 70
     0
  0
XRECORD
  5
20F
102
{ACAD_REACTORS
330
20B
102
}
330
20B
100
AcDbXrecord
  1

  0
XRECORD
  5
20C
102
{ACAD_REACTORS
330
20B
102
}
330
20B
100
AcDbXrecord
 90
        1
  0
XRECORD
  5
20D
102
{ACAD_REACTORS
330
20B
102
}
330
20B
100
AcDbXrecord
 90
       70
  0
XRECORD
  5
224
102
{ACAD_REACTORS
330
20B
102
}
330
20B
100
AcDbXrecord
340
0
  0
XRECORD
  5
22A
102
{ACAD_REACTORS
330
20B
102
}
330
20B
100
AcDbXrecord
 10
0.0
 20
0.0
 30
0.0
  0
XRECORD
  5
226
102
{ACAD_REACTORS
330
20B
102
}
330
20B
100
AcDbXrecord
 10
0.0
 20
0.0
 30
0.0
  0
XRECORD
  5
229
102
{ACAD_REACTORS
330
20B
102
}
330
20B
100
AcDbXrecord
 10
0.0
 20
0.0
 30
0.0
  0
XRECORD
  5
227
102
{ACAD_REACTORS
330
20B
102
}
330
20B
100
AcDbXrecord
 10
0.0
 20
0.0
 30
0.0
  0
XRECORD
  5
228
102
{ACAD_REACTORS
330
20B
102
}
330
20B
100
AcDbXrecord
 10
0.0
 20
0.0
 30
0.0
  0
XRECORD
  5
225
102
{ACAD_REACTORS
330
20B
102
}
330
20B
100
AcDbXrecord
 10
0.0
 20
0.0
 30
0.0
  0
XRECORD
  5
222
102
{ACAD_REACTORS
330
20B
102
}
330
20B
100
AcDbXrecord
340
0
  0
XRECORD
  5
223
102
{ACAD_REACTORS
330
20B
102
}
330
20B
100
AcDbXrecord
 70
     0
  0
XRECORD
  5
217
102
{ACAD_REACTORS
330
20B
102
}
330
20B
100
AcDbXrecord
  1
{359D55FC-F6BE-4588-8455-23B39CE69577}
  0
ENDSEC
  0
EOF
