  0
SECTION
  2
HEADER
  9
$ACADVER
  1
AC1009
  9
$INSBASE
 10
0.0
 20
0.0
 30
0.0
  9
$EXTMIN
 10
2.205345
 20
2.120526
 30
0.0
  9
$EXTMAX
 10
30.833616
 20
20.919239
 30
0.0
  9
$LIMMIN
 10
0.0
 20
0.0
  9
$LIMMAX
 10
12.0
 20
9.0
  9
$ORTHOMODE
 70
     0
  9
$REGENMODE
 70
     1
  9
$FILLMODE
 70
     1
  9
$QTEXTMODE
 70
     0
  9
$MIRRTEXT
 70
     1
  9
$DRAGMODE
 70
     2
  9
$LTSCALE
 40
1.0
  9
$OSMODE
 70
     0
  9
$ATTMODE
 70
     1
  9
$TEXTSIZE
 40
0.188
  9
$TRACEWID
 40
0.05
  9
$TEXTSTYLE
  7
STANDARD
  9
$CLAYER
  8
DAMAN
  9
$CELTYPE
  6
BYLAYER
  9
$CECOLOR
 62
   256
  9
$DIMSCALE
 40
1.0
  9
$DIMASZ
 40
0.18
  9
$DIMEXO
 40
0.0625
  9
$DIMDLI
 40
0.38
  9
$DIMRND
 40
0.0
  9
$DIMDLE
 40
0.0
  9
$DIMEXE
 40
0.18
  9
$DIMTP
 40
0.0
  9
$DIMTM
 40
0.0
  9
$DIMTXT
 40
0.18
  9
$DIMCEN
 40
0.09
  9
$DIMTSZ
 40
0.0
  9
$DIMTOL
 70
     0
  9
$DIMLIM
 70
     0
  9
$DIMTIH
 70
     1
  9
$DIMTOH
 70
     1
  9
$DIMSE1
 70
     0
  9
$DIMSE2
 70
     0
  9
$DIMTAD
 70
     0
  9
$DIMZIN
 70
     0
  9
$DIMBLK
  1

  9
$DIMASO
 70
     1
  9
$DIMSHO
 70
     1
  9
$DIMPOST
  1

  9
$DIMAPOST
  1

  9
$DIMALT
 70
     0
  9
$DIMALTD
 70
     2
  9
$DIMALTF
 40
25.4
  9
$DIMLFAC
 40
1.0
  9
$DIMTOFL
 70
     0
  9
$DIMTVP
 40
0.0
  9
$DIMTIX
 70
     0
  9
$DIMSOXD
 70
     0
  9
$DIMSAH
 70
     0
  9
$DIMBLK1
  1

  9
$DIMBLK2
  1

  9
$DIMSTYLE
  2
*UNNAMED
  9
$DIMCLRD
 70
     0
  9
$DIMCLRE
 70
     0
  9
$DIMCLRT
 70
     0
  9
$DIMTFAC
 40
1.0
  9
$DIMGAP
 40
0.09
  9
$LUNITS
 70
     2
  9
$LUPREC
 70
     4
  9
$SKETCHINC
 40
0.1
  9
$FILLETRAD
 40
0.0
  9
$AUNITS
 70
     0
  9
$AUPREC
 70
     0
  9
$MENU
  1
tom
  9
$ELEVATION
 40
0.0
  9
$PELEVATION
 40
0.0
  9
$THICKNESS
 40
0.0
  9
$LIMCHECK
 70
     0
  9
$BLIPMODE
 70
     1
  9
$CHAMFERA
 40
0.0
  9
$CHAMFERB
 40
0.0
  9
$SKPOLY
 70
     0
  9
$TDCREATE
 40
2449743.326520671
  9
$TDUPDATE
 40
2449869.749790578
  9
$TDINDWG
 40
0.0080811574
  9
$TDUSRTIMER
 40
0.0080811574
  9
$USRTIMER
 70
     1
  9
$ANGBASE
 50
0.0
  9
$ANGDIR
 70
     0
  9
$PDMODE
 70
     0
  9
$PDSIZE
 40
0.0
  9
$PLINEWID
 40
0.0
  9
$COORDS
 70
     1
  9
$SPLFRAME
 70
     0
  9
$SPLINETYPE
 70
     6
  9
$SPLINESEGS
 70
     8
  9
$ATTDIA
 70
     0
  9
$ATTREQ
 70
     1
  9
$HANDLING
 70
     0
  9
$HANDSEED
  5
0
  9
$SURFTAB1
 70
     6
  9
$SURFTAB2
 70
     6
  9
$SURFTYPE
 70
     6
  9
$SURFU
 70
     6
  9
$SURFV
 70
     6
  9
$UCSNAME
  2

  9
$UCSORG
 10
0.0
 20
0.0
 30
0.0
  9
$UCSXDIR
 10
1.0
 20
0.0
 30
0.0
  9
$UCSYDIR
 10
0.0
 20
1.0
 30
0.0
  9
$PUCSNAME
  2

  9
$PUCSORG
 10
0.0
 20
0.0
 30
0.0
  9
$PUCSXDIR
 10
1.0
 20
0.0
 30
0.0
  9
$PUCSYDIR
 10
0.0
 20
1.0
 30
0.0
  9
$USERI1
 70
     0
  9
$USERI2
 70
     0
  9
$USERI3
 70
     0
  9
$USERI4
 70
     0
  9
$USERI5
 70
     0
  9
$USERR1
 40
0.0
  9
$USERR2
 40
0.0
  9
$USERR3
 40
0.0
  9
$USERR4
 40
0.0
  9
$USERR5
 40
0.0
  9
$WORLDVIEW
 70
     1
  9
$SHADEDGE
 70
     3
  9
$SHADEDIF
 70
    70
  9
$TILEMODE
 70
     1
  9
$MAXACTVP
 70
    16
  9
$PINSBASE
 10
0.0
 20
0.0
 30
0.0
  9
$PLIMCHECK
 70
     0
  9
$PEXTMIN
 10
1.000000E+20
 20
1.000000E+20
 30
1.000000E+20
  9
$PEXTMAX
 10
-1.000000E+20
 20
-1.000000E+20
 30
-1.000000E+20
  9
$PLIMMIN
 10
0.0
 20
0.0
  9
$PLIMMAX
 10
12.0
 20
9.0
  9
$UNITMODE
 70
     0
  9
$VISRETAIN
 70
     0
  9
$PLINEGEN
 70
     0
  9
$PSLTSCALE
 70
     1
  9
$TREEDEPTH
 70
  3020
  9
$DWGCODEPAGE
  3
ascii
  0
ENDSEC
  0
SECTION
  2
TABLES
  0
TABLE
  2
VPORT
 70
     2
  0
VPORT
  2
*ACTIVE
 70
     0
 10
0.0
 20
0.0
 11
1.0
 21
1.0
 12
15.416808
 22
11.288891
 13
0.0
 23
0.0
 14
0.03125
 24
0.03125
 15
0.0
 25
0.0
 16
0.0
 26
0.0
 36
1.0
 17
0.0
 27
0.0
 37
0.0
 40
22.577782
 41
1.365662
 42
50.0
 43
0.0
 44
0.0
 50
0.0
 51
0.0
 71
     0
 72
   100
 73
     1
 74
     1
 75
     1
 76
     0
 77
     0
 78
     0
  0
ENDTAB
  0
TABLE
  2
LTYPE
 70
     4
  0
LTYPE
  2
CONTINUOUS
 70
    64
  3
Solid line
 72
    65
 73
     0
 40
0.0
  0
LTYPE
  2
HIDDEN
 70
    64
  3
_ _ _ _ _ _ _ _ _ _ _ _ _ _ _ _ _ _ _ _ _ _ _
 72
    65
 73
     2
 40
0.375
 49
0.25
 49
-0.125
  0
LTYPE
  2
CENTER
 70
    64
  3
____ _ ____ _ ____ _ ____ _ ____ _ ____ _ ____
 72
    65
 73
     4
 40
2.0
 49
1.25
 49
-0.25
 49
0.25
 49
-0.25
  0
LTYPE
  2
PHANTOM
 70
    64
  3
_____ _ _ _____ _ _ _____ _ _ _____ _ _ ____
 72
    65
 73
     6
 40
2.5
 49
1.25
 49
-0.25
 49
0.25
 49
-0.25
 49
0.25
 49
-0.25
  0
ENDTAB
  0
TABLE
  2
LAYER
 70
    10
  0
LAYER
  2
0
 70
    64
 62
     7
  6
CONTINUOUS
  0
LAYER
  2
DAMAN
 70
    64
 62
     5
  6
CONTINUOUS
  0
LAYER
  2
BORDER
 70
    64
 62
     7
  6
CONTINUOUS
  0
LAYER
  2
CSOLID
 70
    64
 62
     3
  6
CONTINUOUS
  0
LAYER
  2
SOLID
 70
    64
 62
     4
  6
CONTINUOUS
  0
LAYER
  2
CDIM
 70
    64
 62
     2
  6
CONTINUOUS
  0
LAYER
  2
CHIDDEN
 70
    64
 62
     3
  6
HIDDEN
  0
LAYER
  2
DIM
 70
    64
 62
     5
  6
CONTINUOUS
  0
LAYER
  2
CCENTER
 70
    64
 62
     4
  6
CENTER
  0
LAYER
  2
PHANTOM
 70
     0
 62
     1
  6
PHANTOM
  0
ENDTAB
  0
TABLE
  2
STYLE
 70
     2
  0
STYLE
  2
STANDARD
 70
    64
 40
0.0
 41
1.0
 50
0.0
 71
     0
 42
0.188
  3
txt
  4

  0
STYLE
  2
STR
 70
    64
 40
0.0
 41
1.0
 50
0.0
 71
     0
 42
0.25
  3
SIMPLEX
  4

  0
ENDTAB
  0
TABLE
  2
VIEW
 70
     0
  0
ENDTAB
  0
TABLE
  2
UCS
 70
     0
  0
ENDTAB
  0
TABLE
  2
APPID
 70
     1
  0
APPID
  2
ACAD
 70
    64
  0
ENDTAB
  0
TABLE
  2
DIMSTYLE
 70
     0
  0
ENDTAB
  0
ENDSEC
  0
SECTION
  2
BLOCKS
  0
BLOCK
  8
0
  2
D07SPRV
 70
     0
 10
0.0
 20
0.0
 30
0.0
  3
D07SPRV
  0
INSERT
  8
SOLID
  2
056SAET
 10
12.3125
 20
5.0
 30
0.0
 43
0.0
  0
INSERT
  8
SOLID
  2
056SAET
 10
10.6875
 20
5.0
 30
0.0
 43
0.0
  0
INSERT
  8
SOLID
  2
106SAET
 10
4.75
 20
11.75
 30
0.0
 43
0.0
  0
INSERT
  8
DIM
  2
106SAET
 10
24.1875
 20
10.5
 30
0.0
 43
0.0
  0
INSERT
  8
DIM
  2
106SAET
 10
24.1875
 20
12.125
 30
0.0
 43
0.0
  0
INSERT
  8
CCENTER
  2
100CROSS
 10
25.625
 20
12.875
 30
0.0
 41
0.625
 42
0.625
 43
0.0
  0
CIRCLE
  8
CSOLID
 10
25.625
 20
12.875
 30
0.0
 40
0.203
  0
CIRCLE
  8
CSOLID
 10
25.0
 20
8.875
 30
0.0
 40
0.203
  0
INSERT
  8
CCENTER
  2
100CROSS
 10
25.0
 20
8.875
 30
0.0
 41
0.625
 42
0.625
 43
0.0
  0
INSERT
  8
SOLID
  2
SUNT3AT
 10
11.8125
 20
17.5
 30
0.0
 43
0.0
  0
INSERT
  8
CCENTER
  2
100CROSS
 10
11.5
 20
8.875
 30
0.0
 41
0.625
 42
0.625
 43
0.0
  0
CIRCLE
  8
CSOLID
 10
11.5
 20
8.875
 30
0.0
 40
0.203
  0
CIRCLE
  8
CSOLID
 10
11.5
 20
8.875
 30
0.0
 40
0.3125
  0
CIRCLE
  8
CSOLID
 10
10.875
 20
12.875
 30
0.0
 40
0.3125
  0
CIRCLE
  8
CSOLID
 10
10.875
 20
12.875
 30
0.0
 40
0.203
  0
INSERT
  8
CCENTER
  2
100CROSS
 10
10.875
 20
12.875
 30
0.0
 41
0.625
 42
0.625
 43
0.0
  0
CIRCLE
  8
CSOLID
 10
4.75
 20
10.125
 30
0.0
 40
0.492
  0
CIRCLE
  8
CSOLID
 10
4.75
 20
10.125
 30
0.0
 40
0.453
  0
CIRCLE
  8
CSOLID
 10
4.75
 20
10.125
 30
0.0
 40
0.8125
  0
INSERT
  8
CCENTER
  2
100CROSS
 10
4.75
 20
10.125
 30
0.0
 41
1.33
 42
1.33
 43
0.0
  0
CIRCLE
  8
CHIDDEN
 10
4.75
 20
10.125
 30
0.0
 40
0.53125
  0
INSERT
  8
CCENTER
  2
100CROSS
 10
12.25
 20
9.86
 30
0.0
 41
0.25
 42
0.25
 43
0.0
  0
CIRCLE
  8
CSOLID
 10
12.25
 20
9.86
 30
0.0
 40
0.125
  0
CIRCLE
  8
CSOLID
 10
10.625
 20
9.407
 30
0.0
 40
0.125
  0
INSERT
  8
CCENTER
  2
100CROSS
 10
10.625
 20
9.407
 30
0.0
 41
0.25
 42
0.25
 43
0.0
  0
INSERT
  8
CCENTER
  2
100CROSS
 10
12.875
 20
9.85925
 30
0.0
 41
0.171
 42
0.171
 43
0.0
  0
CIRCLE
  8
CSOLID
 10
12.875
 20
9.85925
 30
0.0
 40
0.0855
  0
CIRCLE
  8
CSOLID
 10
10.125
 20
12.15625
 30
0.0
 40
0.0855
  0
INSERT
  8
CCENTER
  2
100CROSS
 10
10.125
 20
12.15625
 30
0.0
 41
0.171
 42
0.171
 43
0.0
  0
INSERT
  8
CCENTER
  2
100CROSS
 10
12.312
 20
12.156
 30
0.0
 41
0.688
 42
0.688
 43
0.0
  0
CIRCLE
  8
CSOLID
 10
12.312
 20
12.156
 30
0.0
 40
0.344
  0
CIRCLE
  8
CSOLID
 10
12.312
 20
10.906
 30
0.0
 40
0.344
  0
INSERT
  8
CCENTER
  2
100CROSS
 10
12.312
 20
10.906
 30
0.0
 41
0.688
 42
0.688
 43
0.0
  0
INSERT
  8
CCENTER
  2
100CROSS
 10
10.687
 20
10.281
 30
0.0
 41
0.688
 42
0.688
 43
0.0
  0
CIRCLE
  8
CSOLID
 10
10.687
 20
10.281
 30
0.0
 40
0.344
  0
CIRCLE
  8
CSOLID
 10
10.687
 20
11.531
 30
0.0
 40
0.344
  0
INSERT
  8
CCENTER
  2
100CROSS
 10
10.687
 20
11.531
 30
0.0
 41
0.688
 42
0.688
 43
0.0
  0
INSERT
  8
CCENTER
  2
100CROSS
 10
12.938
 20
11.531
 30
0.0
 41
0.25
 42
0.25
 43
0.0
  0
CIRCLE
  8
CSOLID
 10
12.938
 20
11.531
 30
0.0
 40
0.1055
  0
CIRCLE
  8
CSOLID
 10
10.063
 20
10.906
 30
0.0
 40
0.1055
  0
INSERT
  8
CCENTER
  2
100CROSS
 10
10.063
 20
10.906
 30
0.0
 41
0.25
 42
0.25
 43
0.0
  0
INSERT
  8
CCENTER
  2
100CROSS
 10
12.875
 20
8.875
 30
0.0
 41
0.375
 42
0.375
 43
0.0
  0
CIRCLE
  8
CSOLID
 10
12.875
 20
8.875
 30
0.0
 40
0.15625
  0
INSERT
  8
CCENTER
  2
100CROSS
 10
12.875
 20
12.875
 30
0.0
 41
0.375
 42
0.375
 43
0.0
  0
CIRCLE
  8
CSOLID
 10
12.875
 20
12.875
 30
0.0
 40
0.15625
  0
INSERT
  8
CCENTER
  2
100CROSS
 10
10.125
 20
8.875
 30
0.0
 41
0.375
 42
0.375
 43
0.0
  0
CIRCLE
  8
CSOLID
 10
10.125
 20
8.875
 30
0.0
 40
0.15625
  0
CIRCLE
  8
CSOLID
 10
10.125
 20
12.875
 30
0.0
 40
0.15625
  0
INSERT
  8
CCENTER
  2
100CROSS
 10
10.125
 20
12.875
 30
0.0
 41
0.375
 42
0.375
 43
0.0
  0
CIRCLE
  8
CHIDDEN
 10
10.125
 20
12.875
 30
0.0
 40
0.1875
  0
CIRCLE
  8
CHIDDEN
 10
10.125
 20
8.875
 30
0.0
 40
0.1875
  0
CIRCLE
  8
CHIDDEN
 10
12.875
 20
12.875
 30
0.0
 40
0.1875
  0
CIRCLE
  8
CHIDDEN
 10
12.875
 20
8.875
 30
0.0
 40
0.1875
  0
CIRCLE
  8
CHIDDEN
 10
10.0625
 20
10.90625
 30
0.0
 40
0.125
  0
CIRCLE
  8
CHIDDEN
 10
12.9375
 20
11.53125
 30
0.0
 40
0.125
  0
CIRCLE
  8
CSOLID
 10
18.25
 20
12.0625
 30
0.0
 40
0.492
  0
CIRCLE
  8
CSOLID
 10
18.25
 20
12.0625
 30
0.0
 40
0.453
  0
CIRCLE
  8
CSOLID
 10
18.25
 20
12.0625
 30
0.0
 40
0.8125
  0
INSERT
  8
CCENTER
  2
100CROSS
 10
18.25
 20
12.0625
 30
0.0
 41
1.33
 42
1.33
 43
0.0
  0
CIRCLE
  8
CHIDDEN
 10
18.25
 20
12.0625
 30
0.0
 40
0.53125
  0
CIRCLE
  8
CSOLID
 10
18.25
 20
10.46875
 30
0.0
 40
0.492
  0
CIRCLE
  8
CSOLID
 10
18.25
 20
10.46875
 30
0.0
 40
0.453
  0
CIRCLE
  8
CSOLID
 10
18.25
 20
10.46875
 30
0.0
 40
0.8125
  0
INSERT
  8
CCENTER
  2
100CROSS
 10
18.25
 20
10.46875
 30
0.0
 41
1.33
 42
1.33
 43
0.0
  0
CIRCLE
  8
CHIDDEN
 10
18.25
 20
10.46875
 30
0.0
 40
0.53125
  0
POLYLINE
  8
BORDER
 66
     1
 10
0.0
 20
0.0
 30
0.0
 70
     1
  0
VERTEX
  8
BORDER
 10
9.5
 20
18.75
 30
0.0
  0
VERTEX
  8
BORDER
 10
13.5
 20
18.75
 30
0.0
  0
VERTEX
  8
BORDER
 10
13.5
 20
16.25
 30
0.0
  0
VERTEX
  8
BORDER
 10
9.5
 20
16.25
 30
0.0
  0
SEQEND
  8
BORDER
  0
POLYLINE
  8
BORDER
 66
     1
 10
0.0
 20
0.0
 30
0.0
 70
     1
  0
VERTEX
  8
BORDER
 10
3.5
 20
13.25
 30
0.0
  0
VERTEX
  8
BORDER
 10
6.0
 20
13.25
 30
0.0
  0
VERTEX
  8
BORDER
 10
6.0
 20
8.5
 30
0.0
  0
VERTEX
  8
BORDER
 10
3.5
 20
8.5
 30
0.0
  0
SEQEND
  8
BORDER
  0
POLYLINE
  8
BORDER
 66
     1
 10
0.0
 20
0.0
 30
0.0
 70
     1
  0
VERTEX
  8
BORDER
 10
9.5
 20
13.25
 30
0.0
  0
VERTEX
  8
BORDER
 10
13.5
 20
13.25
 30
0.0
  0
VERTEX
  8
BORDER
 10
13.5
 20
8.5
 30
0.0
  0
VERTEX
  8
BORDER
 10
9.5
 20
8.5
 30
0.0
  0
SEQEND
  8
BORDER
  0
POLYLINE
  8
BORDER
 66
     1
 10
0.0
 20
0.0
 30
0.0
 70
     1
  0
VERTEX
  8
BORDER
 10
17.0
 20
13.25
 30
0.0
  0
VERTEX
  8
BORDER
 10
19.5
 20
13.25
 30
0.0
  0
VERTEX
  8
BORDER
 10
19.5
 20
8.5
 30
0.0
  0
VERTEX
  8
BORDER
 10
17.0
 20
8.5
 30
0.0
  0
SEQEND
  8
BORDER
  0
POLYLINE
  8
BORDER
 66
     1
 10
0.0
 20
0.0
 30
0.0
 70
     1
  0
VERTEX
  8
BORDER
 10
23.0
 20
13.25
 30
0.0
  0
VERTEX
  8
BORDER
 10
27.0
 20
13.25
 30
0.0
  0
VERTEX
  8
BORDER
 10
27.0
 20
8.5
 30
0.0
  0
VERTEX
  8
BORDER
 10
23.0
 20
8.5
 30
0.0
  0
SEQEND
  8
BORDER
  0
POLYLINE
  8
BORDER
 66
     1
 10
0.0
 20
0.0
 30
0.0
 70
     1
  0
VERTEX
  8
BORDER
 10
9.5
 20
5.5
 30
0.0
  0
VERTEX
  8
BORDER
 10
13.5
 20
5.5
 30
0.0
  0
VERTEX
  8
BORDER
 10
13.5
 20
3.0
 30
0.0
  0
VERTEX
  8
BORDER
 10
9.5
 20
3.0
 30
0.0
  0
SEQEND
  8
BORDER
  0
TEXT
  8
CDIM
 10
5.1875
 20
12.75
 30
0.0
 40
0.25
  1
A
 50
270.0
  7
STR
  0
TEXT
  8
CDIM
 10
5.1875
 20
9.28125
 30
0.0
 40
0.25
  1
B
 50
270.0
  7
STR
  0
TEXT
  8
CDIM
 10
17.5625
 20
12.71875
 30
0.0
 40
0.25
  1
T
 50
90.0
  7
STR
  0
TEXT
  8
CDIM
 10
17.5625
 20
9.71875
 30
0.0
 40
0.25
  1
P
 50
90.0
  7
STR
  0
TEXT
  8
CDIM
 10
23.34375
 20
12.6875
 30
0.0
 40
0.25
  1
T
  7
STR
  0
TEXT
  8
CDIM
 10
23.34375
 20
11.0
 30
0.0
 40
0.25
  1
P
  7
STR
  0
TEXT
  8
CDIM
 10
9.875
 20
5.09375
 30
0.0
 40
0.25
  1
Y
  7
STR
  0
TEXT
  8
CDIM
 10
12.90625
 20
5.09375
 30
0.0
 40
0.25
  1
X
  7
STR
  0
LINE
  8
CDIM
 10
3.5
 20
13.432631
 30
0.0
 11
3.5
 21
14.262989
 31
0.0
  0
LINE
  8
CDIM
 10
4.75
 20
12.424631
 30
0.0
 11
4.75
 21
14.262989
 31
0.0
  0
LINE
  8
CDIM
 10
5.100652
 20
14.0
 30
0.0
 11
5.451304
 21
14.0
 31
0.0
  0
LINE
  8
CDIM
 10
3.149348
 20
14.0
 30
0.0
 11
2.798696
 21
14.0
 31
0.0
  0
SOLID
  8
CDIM
 10
5.100652
 20
13.941558
 30
0.0
 11
5.100652
 21
14.058442
 31
0.0
 12
4.75
 22
14.0
 32
0.0
 13
4.75
 23
14.0
 33
0.0
  0
SOLID
  8
CDIM
 10
3.149348
 20
13.941558
 30
0.0
 11
3.149348
 21
14.058442
 31
0.0
 12
3.5
 22
14.0
 32
0.0
 13
3.5
 23
14.0
 33
0.0
  0
TEXT
  8
CDIM
 10
5.801956
 20
13.795453
 30
0.0
 40
0.409094
  1
1.25
  7
STR
  0
LINE
  8
CDIM
 10
3.5
 20
13.432631
 30
0.0
 11
3.5
 21
15.285724
 31
0.0
  0
LINE
  8
CDIM
 10
6.0
 20
13.432631
 30
0.0
 11
6.0
 21
13.65625
 31
0.0
  0
LINE
  8
CDIM
 10
6.350652
 20
15.022735
 30
0.0
 11
6.701304
 21
15.022735
 31
0.0
  0
LINE
  8
CDIM
 10
3.149348
 20
15.022735
 30
0.0
 11
2.798696
 21
15.022735
 31
0.0
  0
SOLID
  8
CDIM
 10
6.350652
 20
14.964293
 30
0.0
 11
6.350652
 21
15.081177
 31
0.0
 12
6.0
 22
15.022735
 32
0.0
 13
6.0
 23
15.022735
 33
0.0
  0
SOLID
  8
CDIM
 10
3.149348
 20
14.964293
 30
0.0
 11
3.149348
 21
15.081177
 31
0.0
 12
3.5
 22
15.022735
 32
0.0
 13
3.5
 23
15.022735
 33
0.0
  0
TEXT
  8
CDIM
 10
4.208206
 20
14.818188
 30
0.0
 40
0.409094
  1
2.50
  7
STR
  0
LINE
  8
CDIM
 10
3.317369
 20
13.25
 30
0.0
 11
2.299511
 21
13.25
 31
0.0
  0
LINE
  8
CDIM
 10
4.234869
 20
11.75
 30
0.0
 11
2.299511
 21
11.75
 31
0.0
  0
LINE
  8
CDIM
 10
2.5625
 20
11.399348
 30
0.0
 11
2.5625
 21
11.048696
 31
0.0
  0
LINE
  8
CDIM
 10
2.5625
 20
13.600652
 30
0.0
 11
2.5625
 21
13.951304
 31
0.0
  0
SOLID
  8
CDIM
 10
2.620942
 20
11.399348
 30
0.0
 11
2.504058
 21
11.399348
 31
0.0
 12
2.5625
 22
11.75
 32
0.0
 13
2.5625
 23
11.75
 33
0.0
  0
SOLID
  8
CDIM
 10
2.620942
 20
13.600652
 30
0.0
 11
2.504058
 21
13.600652
 31
0.0
 12
2.5625
 22
13.25
 32
0.0
 13
2.5625
 23
13.25
 33
0.0
  0
TEXT
  8
CDIM
 10
2.036106
 20
12.281649
 30
0.0
 40
0.409094
  1
1.50
  7
STR
  0
LINE
  8
CDIM
 10
3.317369
 20
13.25
 30
0.0
 11
1.276776
 21
13.25
 31
0.0
  0
LINE
  8
CDIM
 10
4.075369
 20
10.125
 30
0.0
 11
1.276776
 21
10.125
 31
0.0
  0
LINE
  8
CDIM
 10
1.539765
 20
12.899348
 30
0.0
 11
1.539765
 21
12.242699
 31
0.0
  0
LINE
  8
CDIM
 10
1.539765
 20
10.475652
 30
0.0
 11
1.539765
 21
11.132301
 31
0.0
  0
SOLID
  8
CDIM
 10
1.598207
 20
12.899348
 30
0.0
 11
1.481323
 21
12.899348
 31
0.0
 12
1.539765
 22
13.25
 32
0.0
 13
1.539765
 23
13.25
 33
0.0
  0
SOLID
  8
CDIM
 10
1.598207
 20
10.475652
 30
0.0
 11
1.481323
 21
10.475652
 31
0.0
 12
1.539765
 22
10.125
 32
0.0
 13
1.539765
 23
10.125
 33
0.0
  0
TEXT
  8
CDIM
 10
0.955345
 20
11.482953
 30
0.0
 40
0.409094
  1
3.12
  7
STR
  0
LINE
  8
CDIM
 10
9.317369
 20
13.25
 30
0.0
 11
8.299511
 21
13.25
 31
0.0
  0
LINE
  8
CDIM
 10
11.785369
 20
10.906
 30
0.0
 11
8.299511
 21
10.906
 31
0.0
  0
LINE
  8
CDIM
 10
8.5625
 20
12.899348
 30
0.0
 11
8.5625
 21
12.633199
 31
0.0
  0
LINE
  8
CDIM
 10
8.5625
 20
11.256652
 30
0.0
 11
8.5625
 21
11.522801
 31
0.0
  0
SOLID
  8
CDIM
 10
8.620942
 20
12.899348
 30
0.0
 11
8.504058
 21
12.899348
 31
0.0
 12
8.5625
 22
13.25
 32
0.0
 13
8.5625
 23
13.25
 33
0.0
  0
SOLID
  8
CDIM
 10
8.620942
 20
11.256652
 30
0.0
 11
8.504058
 21
11.256652
 31
0.0
 12
8.5625
 22
10.906
 32
0.0
 13
8.5625
 23
10.906
 33
0.0
  0
TEXT
  8
CDIM
 10
7.929378
 20
11.873453
 30
0.0
 40
0.409094
  1
2.34
  7
STR
  0
LINE
  8
CDIM
 10
9.317369
 20
13.25
 30
0.0
 11
7.276776
 21
13.25
 31
0.0
  0
LINE
  8
CDIM
 10
9.317369
 20
8.5
 30
0.0
 11
7.276776
 21
8.5
 31
0.0
  0
LINE
  8
CDIM
 10
7.539765
 20
12.899348
 30
0.0
 11
7.539765
 21
10.805199
 31
0.0
  0
LINE
  8
CDIM
 10
7.539765
 20
8.850652
 30
0.0
 11
7.539765
 21
9.694801
 31
0.0
  0
SOLID
  8
CDIM
 10
7.598207
 20
12.899348
 30
0.0
 11
7.481323
 21
12.899348
 31
0.0
 12
7.539765
 22
13.25
 32
0.0
 13
7.539765
 23
13.25
 33
0.0
  0
SOLID
  8
CDIM
 10
7.598207
 20
8.850652
 30
0.0
 11
7.481323
 21
8.850652
 31
0.0
 12
7.539765
 22
8.5
 32
0.0
 13
7.539765
 23
8.5
 33
0.0
  0
TEXT
  8
CDIM
 10
6.916384
 20
10.045453
 30
0.0
 40
0.409094
  1
4.75
  7
STR
  0
LINE
  8
CDIM
 10
9.5
 20
13.432631
 30
0.0
 11
9.5
 21
14.262989
 31
0.0
  0
LINE
  8
CDIM
 10
12.312
 20
12.682631
 30
0.0
 11
12.312
 21
14.262989
 31
0.0
  0
LINE
  8
CDIM
 10
9.850652
 20
14.0
 30
0.0
 11
10.01963
 21
14.0
 31
0.0
  0
LINE
  8
CDIM
 10
11.961348
 20
14.0
 30
0.0
 11
11.79237
 21
14.0
 31
0.0
  0
SOLID
  8
CDIM
 10
9.850652
 20
13.941558
 30
0.0
 11
9.850652
 21
14.058442
 31
0.0
 12
9.5
 22
14.0
 32
0.0
 13
9.5
 23
14.0
 33
0.0
  0
SOLID
  8
CDIM
 10
11.961348
 20
13.941558
 30
0.0
 11
11.961348
 21
14.058442
 31
0.0
 12
12.312
 22
14.0
 32
0.0
 13
12.312
 23
14.0
 33
0.0
  0
TEXT
  8
CDIM
 10
10.370282
 20
13.795453
 30
0.0
 40
0.409094
  1
2.81
  7
STR
  0
LINE
  8
CDIM
 10
9.5
 20
13.432631
 30
0.0
 11
9.5
 21
15.285724
 31
0.0
  0
LINE
  8
CDIM
 10
13.5
 20
13.432631
 30
0.0
 11
13.5
 21
15.285724
 31
0.0
  0
LINE
  8
CDIM
 10
9.850652
 20
15.022735
 30
0.0
 11
10.525967
 21
15.022735
 31
0.0
  0
LINE
  8
CDIM
 10
13.149348
 20
15.022735
 30
0.0
 11
12.474033
 21
15.022735
 31
0.0
  0
SOLID
  8
CDIM
 10
9.850652
 20
14.964293
 30
0.0
 11
9.850652
 21
15.081177
 31
0.0
 12
9.5
 22
15.022735
 32
0.0
 13
9.5
 23
15.022735
 33
0.0
  0
SOLID
  8
CDIM
 10
13.149348
 20
14.964293
 30
0.0
 11
13.149348
 21
15.081177
 31
0.0
 12
13.5
 22
15.022735
 32
0.0
 13
13.5
 23
15.022735
 33
0.0
  0
TEXT
  8
CDIM
 10
10.876619
 20
14.818188
 30
0.0
 40
0.409094
  1
4.00
  7
STR
  0
LINE
  8
CDIM
 10
13.682631
 20
13.25
 30
0.0
 11
14.700489
 21
13.25
 31
0.0
  0
LINE
  8
CDIM
 10
11.260631
 20
12.875
 30
0.0
 11
14.700489
 21
12.875
 31
0.0
  0
LINE
  8
CDIM
 10
14.4375
 20
12.524348
 30
0.0
 11
14.4375
 21
12.173696
 31
0.0
  0
LINE
  8
CDIM
 10
14.4375
 20
13.600652
 30
0.0
 11
14.4375
 21
13.951304
 31
0.0
  0
SOLID
  8
CDIM
 10
14.495942
 20
12.524348
 30
0.0
 11
14.379058
 21
12.524348
 31
0.0
 12
14.4375
 22
12.875
 32
0.0
 13
14.4375
 23
12.875
 33
0.0
  0
SOLID
  8
CDIM
 10
14.495942
 20
13.600652
 30
0.0
 11
14.379058
 21
13.600652
 31
0.0
 12
14.4375
 22
13.25
 32
0.0
 13
14.4375
 23
13.25
 33
0.0
  0
TEXT
  8
CDIM
 10
13.801933
 20
11.562899
 30
0.0
 40
0.409094
  1
0.37
  7
STR
  0
LINE
  8
CDIM
 10
13.682631
 20
13.25
 30
0.0
 11
15.723224
 21
13.25
 31
0.0
  0
LINE
  8
CDIM
 10
11.995131
 20
8.875
 30
0.0
 11
15.723224
 21
8.875
 31
0.0
  0
LINE
  8
CDIM
 10
15.460235
 20
12.899348
 30
0.0
 11
15.460235
 21
11.617699
 31
0.0
  0
LINE
  8
CDIM
 10
15.460235
 20
9.225652
 30
0.0
 11
15.460235
 21
10.507301
 31
0.0
  0
SOLID
  8
CDIM
 10
15.518677
 20
12.899348
 30
0.0
 11
15.401793
 21
12.899348
 31
0.0
 12
15.460235
 22
13.25
 32
0.0
 13
15.460235
 23
13.25
 33
0.0
  0
SOLID
  8
CDIM
 10
15.518677
 20
9.225652
 30
0.0
 11
15.401793
 21
9.225652
 31
0.0
 12
15.460235
 22
8.875
 32
0.0
 13
15.460235
 23
8.875
 33
0.0
  0
TEXT
  8
CDIM
 10
14.836854
 20
10.857953
 30
0.0
 40
0.409094
  1
4.37
  7
STR
  0
LINE
  8
CDIM
 10
9.5
 20
8.317369
 30
0.0
 11
9.5
 21
7.487011
 31
0.0
  0
LINE
  8
CDIM
 10
10.875
 20
12.489369
 30
0.0
 11
10.875
 21
7.487011
 31
0.0
  0
LINE
  8
CDIM
 10
11.225652
 20
7.75
 30
0.0
 11
11.576304
 21
7.75
 31
0.0
  0
LINE
  8
CDIM
 10
9.149348
 20
7.75
 30
0.0
 11
8.798696
 21
7.75
 31
0.0
  0
SOLID
  8
CDIM
 10
11.225652
 20
7.691558
 30
0.0
 11
11.225652
 21
7.808442
 31
0.0
 12
10.875
 22
7.75
 32
0.0
 13
10.875
 23
7.75
 33
0.0
  0
SOLID
  8
CDIM
 10
9.149348
 20
7.691558
 30
0.0
 11
9.149348
 21
7.808442
 31
0.0
 12
9.5
 22
7.75
 32
0.0
 13
9.5
 23
7.75
 33
0.0
  0
TEXT
  8
CDIM
 10
11.926956
 20
7.545453
 30
0.0
 40
0.409094
  1
1.38
  7
STR
  0
LINE
  8
CDIM
 10
9.5
 20
8.317369
 30
0.0
 11
9.5
 21
6.464276
 31
0.0
  0
LINE
  8
CDIM
 10
11.5
 20
8.489369
 30
0.0
 11
11.5
 21
8.0
 31
0.0
  0
LINE
  8
CDIM
 10
11.850652
 20
6.727265
 30
0.0
 11
12.201304
 21
6.727265
 31
0.0
  0
LINE
  8
CDIM
 10
9.149348
 20
6.727265
 30
0.0
 11
8.798696
 21
6.727265
 31
0.0
  0
SOLID
  8
CDIM
 10
11.850652
 20
6.668823
 30
0.0
 11
11.850652
 21
6.785707
 31
0.0
 12
11.5
 22
6.727265
 32
0.0
 13
11.5
 23
6.727265
 33
0.0
  0
SOLID
  8
CDIM
 10
9.149348
 20
6.668823
 30
0.0
 11
9.149348
 21
6.785707
 31
0.0
 12
9.5
 22
6.727265
 32
0.0
 13
9.5
 23
6.727265
 33
0.0
  0
TEXT
  8
CDIM
 10
9.895706
 20
6.522718
 30
0.0
 40
0.409094
  1
2.00
  7
STR
  0
LINE
  8
CDIM
 10
9.5
 20
2.817369
 30
0.0
 11
9.5
 21
1.987011
 31
0.0
  0
LINE
  8
CDIM
 10
10.6875
 20
4.536119
 30
0.0
 11
10.6875
 21
1.987011
 31
0.0
  0
LINE
  8
CDIM
 10
11.038152
 20
2.25
 30
0.0
 11
11.388804
 21
2.25
 31
0.0
  0
LINE
  8
CDIM
 10
9.149348
 20
2.25
 30
0.0
 11
8.798696
 21
2.25
 31
0.0
  0
SOLID
  8
CDIM
 10
11.038152
 20
2.191558
 30
0.0
 11
11.038152
 21
2.308442
 31
0.0
 12
10.6875
 22
2.25
 32
0.0
 13
10.6875
 23
2.25
 33
0.0
  0
SOLID
  8
CDIM
 10
9.149348
 20
2.191558
 30
0.0
 11
9.149348
 21
2.308442
 31
0.0
 12
9.5
 22
2.25
 32
0.0
 13
9.5
 23
2.25
 33
0.0
  0
TEXT
  8
CDIM
 10
11.739456
 20
2.045453
 30
0.0
 40
0.409094
  1
1.19
  7
STR
  0
LINE
  8
CDIM
 10
9.5
 20
2.817369
 30
0.0
 11
9.5
 21
0.964276
 31
0.0
  0
LINE
  8
CDIM
 10
12.3125
 20
4.536119
 30
0.0
 11
12.3125
 21
2.71875
 31
0.0
  0
LINE
  8
CDIM
 10
9.850652
 20
1.227265
 30
0.0
 11
10.01988
 21
1.227265
 31
0.0
  0
LINE
  8
CDIM
 10
11.961848
 20
1.227265
 30
0.0
 11
11.79262
 21
1.227265
 31
0.0
  0
SOLID
  8
CDIM
 10
9.850652
 20
1.168823
 30
0.0
 11
9.850652
 21
1.285707
 31
0.0
 12
9.5
 22
1.227265
 32
0.0
 13
9.5
 23
1.227265
 33
0.0
  0
SOLID
  8
CDIM
 10
11.961848
 20
1.168823
 30
0.0
 11
11.961848
 21
1.285707
 31
0.0
 12
12.3125
 22
1.227265
 32
0.0
 13
12.3125
 23
1.227265
 33
0.0
  0
TEXT
  8
CDIM
 10
10.370532
 20
1.022718
 30
0.0
 40
0.409094
  1
2.81
  7
STR
  0
LINE
  8
CDIM
 10
19.5
 20
13.432631
 30
0.0
 11
19.5
 21
14.262989
 31
0.0
  0
LINE
  8
CDIM
 10
18.25
 20
12.698131
 30
0.0
 11
18.25
 21
14.262989
 31
0.0
  0
LINE
  8
CDIM
 10
17.899348
 20
14.0
 30
0.0
 11
17.548696
 21
14.0
 31
0.0
  0
LINE
  8
CDIM
 10
19.850652
 20
14.0
 30
0.0
 11
20.201304
 21
14.0
 31
0.0
  0
SOLID
  8
CDIM
 10
17.899348
 20
13.941558
 30
0.0
 11
17.899348
 21
14.058442
 31
0.0
 12
18.25
 22
14.0
 32
0.0
 13
18.25
 23
14.0
 33
0.0
  0
SOLID
  8
CDIM
 10
19.850652
 20
13.941558
 30
0.0
 11
19.850652
 21
14.058442
 31
0.0
 12
19.5
 22
14.0
 32
0.0
 13
19.5
 23
14.0
 33
0.0
  0
TEXT
  8
CDIM
 10
16.029204
 20
13.795453
 30
0.0
 40
0.409094
  1
1.25
  7
STR
  0
LINE
  8
CDIM
 10
19.682631
 20
13.25
 30
0.0
 11
20.700489
 21
13.25
 31
0.0
  0
LINE
  8
CDIM
 10
18.885631
 20
12.0625
 30
0.0
 11
20.700489
 21
12.0625
 31
0.0
  0
LINE
  8
CDIM
 10
20.4375
 20
11.711848
 30
0.0
 11
20.4375
 21
11.361196
 31
0.0
  0
LINE
  8
CDIM
 10
20.4375
 20
13.600652
 30
0.0
 11
20.4375
 21
13.951304
 31
0.0
  0
SOLID
  8
CDIM
 10
20.495942
 20
11.711848
 30
0.0
 11
20.379058
 21
11.711848
 31
0.0
 12
20.4375
 22
12.0625
 32
0.0
 13
20.4375
 23
12.0625
 33
0.0
  0
SOLID
  8
CDIM
 10
20.495942
 20
13.600652
 30
0.0
 11
20.379058
 21
13.600652
 31
0.0
 12
20.4375
 22
13.25
 32
0.0
 13
20.4375
 23
13.25
 33
0.0
  0
TEXT
  8
CDIM
 10
19.946009
 20
12.500399
 30
0.0
 40
0.409094
  1
1.19
  7
STR
  0
LINE
  8
CDIM
 10
19.682631
 20
13.25
 30
0.0
 11
21.723224
 21
13.25
 31
0.0
  0
LINE
  8
CDIM
 10
18.885631
 20
10.46875
 30
0.0
 11
21.723224
 21
10.46875
 31
0.0
  0
LINE
  8
CDIM
 10
21.460235
 20
12.899348
 30
0.0
 11
21.460235
 21
12.195824
 31
0.0
  0
LINE
  8
CDIM
 10
21.460235
 20
10.819402
 30
0.0
 11
21.460235
 21
11.085426
 31
0.0
  0
SOLID
  8
CDIM
 10
21.518677
 20
12.899348
 30
0.0
 11
21.401793
 21
12.899348
 31
0.0
 12
21.460235
 22
13.25
 32
0.0
 13
21.460235
 23
13.25
 33
0.0
  0
SOLID
  8
CDIM
 10
21.518677
 20
10.819402
 30
0.0
 11
21.401793
 21
10.819402
 31
0.0
 12
21.460235
 22
10.46875
 32
0.0
 13
21.460235
 23
10.46875
 33
0.0
  0
TEXT
  8
CDIM
 10
20.836854
 20
11.436078
 30
0.0
 40
0.409094
  1
2.78
  7
STR
  0
LINE
  8
CDIM
 10
27.182631
 20
13.25
 30
0.0
 11
28.200489
 21
13.25
 31
0.0
  0
LINE
  8
CDIM
 10
24.862131
 20
12.125
 30
0.0
 11
28.200489
 21
12.125
 31
0.0
  0
LINE
  8
CDIM
 10
27.9375
 20
11.774348
 30
0.0
 11
27.9375
 21
11.423696
 31
0.0
  0
LINE
  8
CDIM
 10
27.9375
 20
13.600652
 30
0.0
 11
27.9375
 21
13.951304
 31
0.0
  0
SOLID
  8
CDIM
 10
27.995942
 20
11.774348
 30
0.0
 11
27.879058
 21
11.774348
 31
0.0
 12
27.9375
 22
12.125
 32
0.0
 13
27.9375
 23
12.125
 33
0.0
  0
SOLID
  8
CDIM
 10
27.995942
 20
13.600652
 30
0.0
 11
27.879058
 21
13.600652
 31
0.0
 12
27.9375
 22
13.25
 32
0.0
 13
27.9375
 23
13.25
 33
0.0
  0
TEXT
  8
CDIM
 10
27.426529
 20
12.437899
 30
0.0
 40
0.409094
  1
1.12
  7
STR
  0
LINE
  8
CDIM
 10
27.182631
 20
13.25
 30
0.0
 11
29.223224
 21
13.25
 31
0.0
  0
LINE
  8
CDIM
 10
24.901381
 20
10.5
 30
0.0
 11
29.223224
 21
10.5
 31
0.0
  0
LINE
  8
CDIM
 10
28.960235
 20
12.899348
 30
0.0
 11
28.960235
 21
12.273949
 31
0.0
  0
LINE
  8
CDIM
 10
28.960235
 20
10.850652
 30
0.0
 11
28.960235
 21
11.163551
 31
0.0
  0
SOLID
  8
CDIM
 10
29.018677
 20
12.899348
 30
0.0
 11
28.901793
 21
12.899348
 31
0.0
 12
28.960235
 22
13.25
 32
0.0
 13
28.960235
 23
13.25
 33
0.0
  0
SOLID
  8
CDIM
 10
29.018677
 20
10.850652
 30
0.0
 11
28.901793
 21
10.850652
 31
0.0
 12
28.960235
 22
10.5
 32
0.0
 13
28.960235
 23
10.5
 33
0.0
  0
TEXT
  8
CDIM
 10
28.336854
 20
11.514203
 30
0.0
 40
0.409094
  1
2.75
  7
STR
  0
LINE
  8
CDIM
 10
27.0
 20
13.432631
 30
0.0
 11
27.0
 21
14.262989
 31
0.0
  0
LINE
  8
CDIM
 10
24.1875
 20
12.799631
 30
0.0
 11
24.1875
 21
14.262989
 31
0.0
  0
LINE
  8
CDIM
 10
26.649348
 20
14.0
 30
0.0
 11
26.48012
 21
14.0
 31
0.0
  0
LINE
  8
CDIM
 10
24.538152
 20
14.0
 30
0.0
 11
24.70738
 21
14.0
 31
0.0
  0
SOLID
  8
CDIM
 10
26.649348
 20
13.941558
 30
0.0
 11
26.649348
 21
14.058442
 31
0.0
 12
27.0
 22
14.0
 32
0.0
 13
27.0
 23
14.0
 33
0.0
  0
SOLID
  8
CDIM
 10
24.538152
 20
13.941558
 30
0.0
 11
24.538152
 21
14.058442
 31
0.0
 12
24.1875
 22
14.0
 32
0.0
 13
24.1875
 23
14.0
 33
0.0
  0
TEXT
  8
CDIM
 10
25.058032
 20
13.795453
 30
0.0
 40
0.409094
  1
2.81
  7
STR
  0
LINE
  8
CDIM
 10
9.317369
 20
18.75
 30
0.0
 11
8.299511
 21
18.75
 31
0.0
  0
LINE
  8
CDIM
 10
11.192369
 20
17.5
 30
0.0
 11
8.299511
 21
17.5
 31
0.0
  0
LINE
  8
CDIM
 10
8.5625
 20
17.149348
 30
0.0
 11
8.5625
 21
16.798696
 31
0.0
  0
LINE
  8
CDIM
 10
8.5625
 20
19.100652
 30
0.0
 11
8.5625
 21
19.451304
 31
0.0
  0
SOLID
  8
CDIM
 10
8.620942
 20
17.149348
 30
0.0
 11
8.504058
 21
17.149348
 31
0.0
 12
8.5625
 22
17.5
 32
0.0
 13
8.5625
 23
17.5
 33
0.0
  0
SOLID
  8
CDIM
 10
8.620942
 20
19.100652
 30
0.0
 11
8.504058
 21
19.100652
 31
0.0
 12
8.5625
 22
18.75
 32
0.0
 13
8.5625
 23
18.75
 33
0.0
  0
TEXT
  8
CDIM
 10
7.973606
 20
17.937899
 30
0.0
 40
0.409094
  1
1.25
  7
STR
  0
LINE
  8
CDIM
 10
9.5
 20
18.932631
 30
0.0
 11
9.5
 21
19.762989
 31
0.0
  0
LINE
  8
CDIM
 10
11.8125
 20
18.222631
 30
0.0
 11
11.8125
 21
19.762989
 31
0.0
  0
LINE
  8
CDIM
 10
12.163152
 20
19.5
 30
0.0
 11
12.513804
 21
19.5
 31
0.0
  0
LINE
  8
CDIM
 10
9.149348
 20
19.5
 30
0.0
 11
8.798696
 21
19.5
 31
0.0
  0
SOLID
  8
CDIM
 10
12.163152
 20
19.441558
 30
0.0
 11
12.163152
 21
19.558442
 31
0.0
 12
11.8125
 22
19.5
 32
0.0
 13
11.8125
 23
19.5
 33
0.0
  0
SOLID
  8
CDIM
 10
9.149348
 20
19.441558
 30
0.0
 11
9.149348
 21
19.558442
 31
0.0
 12
9.5
 22
19.5
 32
0.0
 13
9.5
 23
19.5
 33
0.0
  0
TEXT
  8
CDIM
 10
10.145706
 20
19.295453
 30
0.0
 40
0.409094
  1
2.31
  7
STR
  0
LINE
  8
CDIM
 10
6.0
 20
14.40625
 30
0.0
 11
6.0
 21
15.285724
 31
0.0
  0
LINE
  8
CDIM
 10
11.5
 20
7.4375
 30
0.0
 11
11.5
 21
6.464276
 31
0.0
  0
SOLID
  8
CDIM
 10
12.638964
 20
17.23431
 30
0.0
 11
12.666946
 21
17.347795
 31
0.0
 12
12.3125
 22
17.375
 32
0.0
 13
12.3125
 23
17.375
 33
0.0
  0
LINE
  8
CDIM
 10
12.652955
 20
17.291052
 30
0.0
 11
14.59375
 21
16.8125
 31
0.0
  0
LINE
  8
CDIM
 10
14.59375
 20
16.8125
 30
0.0
 11
14.9375
 21
16.8125
 31
0.0
  0
TEXT
  8
CDIM
 10
15.288152
 20
16.607953
 30
0.0
 40
0.409094
  1
Relief valve cavity
  7
STR
  0
LINE
  8
CDIM
 10
12.3125
 20
1.8125
 30
0.0
 11
12.3125
 21
0.964276
 31
0.0
  0
LINE
  8
CDIM
 10
9.317369
 20
3.0
 30
0.0
 11
8.299511
 21
3.0
 31
0.0
  0
LINE
  8
CDIM
 10
10.254869
 20
5.0
 30
0.0
 11
8.299511
 21
5.0
 31
0.0
  0
LINE
  8
CDIM
 10
8.5625
 20
3.350652
 30
0.0
 11
8.5625
 21
3.444801
 31
0.0
  0
LINE
  8
CDIM
 10
8.5625
 20
4.649348
 30
0.0
 11
8.5625
 21
4.555199
 31
0.0
  0
SOLID
  8
CDIM
 10
8.620942
 20
3.350652
 30
0.0
 11
8.504058
 21
3.350652
 31
0.0
 12
8.5625
 22
3.0
 32
0.0
 13
8.5625
 23
3.0
 33
0.0
  0
SOLID
  8
CDIM
 10
8.620942
 20
4.649348
 30
0.0
 11
8.504058
 21
4.649348
 31
0.0
 12
8.5625
 22
5.0
 32
0.0
 13
8.5625
 23
5.0
 33
0.0
  0
TEXT
  8
CDIM
 10
7.939119
 20
3.795453
 30
0.0
 40
0.409094
  1
2.00
  7
STR
  0
ENDBLK
  8
0
  0
BLOCK
  8
0
  2
056SAET
 70
    64
 10
11.75
 20
9.75
 30
0.0
  3
056SAET
  0
INSERT
  8
CCENTER
  2
100CROSS
 10
11.75
 20
9.75
 30
0.0
 43
0.0
  0
CIRCLE
  8
CHIDDEN
 10
11.75
 20
9.75
 30
0.0
 40
0.28125
  0
CIRCLE
  8
CSOLID
 10
11.75
 20
9.75
 30
0.0
 40
0.5
  0
CIRCLE
  8
CSOLID
 10
11.75
 20
9.75
 30
0.0
 40
0.25
  0
ENDBLK
  8
0
  0
BLOCK
  8
0
  2
100CROSS
 70
    64
 10
5.625
 20
4.59375
 30
0.0
  3
100CROSS
  0
INSERT
  8
0
  2
050CROSS
 10
5.625
 20
4.59375
 30
0.0
 43
0.0
  0
ENDBLK
  8
0
  0
BLOCK
  8
0
  2
050CROSS
 70
    64
 10
5.0
 20
5.0
 30
0.0
  3
050CROSS
  0
LINE
  8
0
 10
5.0
 20
5.28125
 30
0.0
 11
5.0
 21
5.78125
 31
0.0
  0
LINE
  8
0
 10
5.0
 20
4.875
 30
0.0
 11
5.0
 21
5.125
 31
0.0
  0
LINE
  8
0
 10
5.0
 20
4.15625
 30
0.0
 11
5.0
 21
4.71875
 31
0.0
  0
LINE
  8
0
 10
5.25
 20
5.0
 30
0.0
 11
5.8125
 21
5.0
 31
0.0
  0
LINE
  8
0
 10
4.90625
 20
5.0
 30
0.0
 11
5.09375
 21
5.0
 31
0.0
  0
LINE
  8
0
 10
4.1875
 20
5.0
 30
0.0
 11
4.75
 21
5.0
 31
0.0
  0
ENDBLK
  8
0
  0
BLOCK
  8
0
  2
106SAET
 70
    64
 10
6.625
 20
14.28125
 30
0.0
  3
106SAET
  0
CIRCLE
  8
CSOLID
 10
6.625
 20
14.28125
 30
0.0
 40
0.492
  0
CIRCLE
  8
CSOLID
 10
6.625
 20
14.28125
 30
0.0
 40
0.453
  0
CIRCLE
  8
CSOLID
 10
6.625
 20
14.28125
 30
0.0
 40
0.8125
  0
INSERT
  8
CCENTER
  2
100CROSS
 10
6.625
 20
14.28125
 30
0.0
 41
1.33
 42
1.33
 43
0.0
  0
CIRCLE
  8
CHIDDEN
 10
6.625
 20
14.28125
 30
0.0
 40
0.53125
  0
ENDBLK
  8
0
  0
BLOCK
  8
0
  2
SUNT3AT
 70
    64
 10
12.3125
 20
17.125
 30
0.0
  3
SUNT3AT
  0
CIRCLE
  8
CHIDDEN
 10
12.3125
 20
17.125
 30
0.0
 40
0.5
  0
CIRCLE
  8
CSOLID
 10
12.3125
 20
17.125
 30
0.0
 40
0.54
  0
CIRCLE
  8
CSOLID
 10
12.3125
 20
17.125
 30
0.0
 40
0.5155
  0
CIRCLE
  8
CSOLID
 10
12.3125
 20
17.125
 30
0.0
 40
0.469
  0
CIRCLE
  8
CSOLID
 10
12.3125
 20
17.125
 30
0.0
 40
0.4375
  0
CIRCLE
  8
CSOLID
 10
12.3125
 20
17.125
 30
0.0
 40
0.344
  0
INSERT
  8
CCENTER
  2
100CROSS
 10
12.3125
 20
17.125
 30
0.0
 43
0.0
  0
ENDBLK
  8
0
  0
BLOCK
  8
0
  2
075NPTFT
 70
     0
 10
0.0
 20
0.0
 30
0.0
  3
075NPTFT
  0
INSERT
  8
DAMAN
  2
750NPTFT
 10
-6.410893
 20
-4.555543
 30
0.0
  0
ENDBLK
  8
0
  0
BLOCK
  8
0
  2
750NPTFT
 70
    64
 10
0.0
 20
0.0
 30
0.0
  3
750NPTFT
  0
INSERT
  8
DAMAN
 62
     5
  2
100CROSS
 10
6.410893
 20
4.555543
 30
0.0
 41
0.98
 42
0.98
 43
0.0
  0
CIRCLE
  8
DAMAN
 62
     5
 10
6.410893
 20
4.555543
 30
0.0
 40
0.491067
  0
CIRCLE
  8
DAMAN
 62
     5
 10
6.410893
 20
4.555543
 30
0.0
 40
0.453
  0
CIRCLE
  8
DAMAN
 62
     5
 10
6.410893
 20
4.555543
 30
0.0
 40
0.53125
  0
ENDBLK
  8
0
  0
BLOCK
  8
0
  2
12SAET
 70
    64
 10
0.0
 20
0.0
 30
0.0
  3
12SAET
  0
CIRCLE
  8
DAMAN
 10
0.0
 20
0.0
 30
0.0
 40
0.492
  0
CIRCLE
  8
DAMAN
 10
0.0
 20
0.0
 30
0.0
 40
0.453
  0
CIRCLE
  8
DAMAN
 10
0.0
 20
0.0
 30
0.0
 40
0.8125
  0
INSERT
  8
DAMAN
  2
100CROSS
 10
0.0
 20
0.0
 30
0.0
 41
1.33
 42
1.33
 43
0.0
  0
CIRCLE
  8
DAMAN
 10
0.0
 20
0.0
 30
0.0
 40
0.53125
  0
ENDBLK
  8
0
  0
BLOCK
  8
0
  2
06SAET
 70
    64
 10
0.0
 20
0.0
 30
0.0
  3
06SAET
  0
INSERT
  8
DAMAN
  2
100CROSS
 10
0.0
 20
0.0
 30
0.0
 43
0.0
  0
CIRCLE
  8
DAMAN
 10
0.0
 20
0.0
 30
0.0
 40
0.28125
  0
CIRCLE
  8
DAMAN
 10
0.0
 20
0.0
 30
0.0
 40
0.5
  0
CIRCLE
  8
DAMAN
 10
0.0
 20
0.0
 30
0.0
 40
0.25
  0
ENDBLK
  8
0
  0
BLOCK
  8
0
  2
025NPTFT
 70
     0
 10
11.75
 20
9.75
 30
0.0
  3
025NPTFT
  0
INSERT
  8
CCENTER
  2
100CROSS
 10
11.75
 20
9.75
 30
0.0
 43
0.0
  0
CIRCLE
  8
CHIDDEN
 10
11.75
 20
9.75
 30
0.0
 40
0.28125
  0
CIRCLE
  8
CSOLID
 10
11.75
 20
9.75
 30
0.0
 40
0.5
  0
CIRCLE
  8
CSOLID
 10
11.75
 20
9.75
 30
0.0
 40
0.25
  0
ENDBLK
  8
0
  0
BLOCK
  8
0
  2
T3AT
 70
     0
 10
0.0
 20
0.0
 30
0.0
  3
T3AT
  0
CIRCLE
  8
DAMAN
 10
0.0
 20
0.0
 30
0.0
 40
0.4665
  0
CIRCLE
  8
DAMAN
 10
0.0
 20
0.0
 30
0.0
 40
0.4375
  0
CIRCLE
  8
DAMAN
  6
HIDDEN
 10
0.0
 20
0.0
 30
0.0
 40
0.5
  0
INSERT
  8
DAMAN
  2
100CROSS
 10
0.0
 20
0.0
 30
0.0
 41
0.88
 42
0.88
  0
CIRCLE
  8
DAMAN
 10
0.0
 20
0.0
 30
0.0
 40
0.516
  0
CIRCLE
  8
DAMAN
 10
0.0
 20
0.0
 30
0.0
 40
0.539
  0
CIRCLE
  8
DAMAN
 10
0.0
 20
0.0
 30
0.0
 40
0.344
  0
ENDBLK
  8
0
  0
BLOCK
  8
0
  2
C102T
 70
    64
 10
0.0
 20
0.0
 30
0.0
  3
C102T
  0
CIRCLE
  8
DAMAN
 10
0.0
 20
0.0
 30
0.0
 40
0.406
  0
INSERT
  8
DAMAN
  2
100CROSS
 10
0.0
 20
0.0
 30
0.0
 41
1.2
 42
1.2
 43
0.0
  0
CIRCLE
  8
DAMAN
 10
0.0
 20
0.0
 30
0.0
 40
0.594
  0
CIRCLE
  8
DAMAN
  6
HIDDEN
 10
0.0
 20
0.0
 30
0.0
 40
0.4375
  0
CIRCLE
  8
DAMAN
 10
0.0
 20
0.0
 30
0.0
 40
0.4725
  0
CIRCLE
  8
DAMAN
 10
0.0
 20
0.0
 30
0.0
 40
0.3125
  0
ENDBLK
  8
0
  0
ENDSEC
  0
SECTION
  2
ENTITIES
  0
INSERT
  8
DAMAN
  2
100CROSS
 10
26.875
 20
14.03125
 30
0.0
 41
0.625
 42
0.625
 43
0.0
  0
CIRCLE
  8
DAMAN
 10
26.875
 20
14.03125
 30
0.0
 40
0.203
  0
CIRCLE
  8
DAMAN
 10
26.25
 20
10.03125
 30
0.0
 40
0.203
  0
INSERT
  8
DAMAN
  2
100CROSS
 10
26.25
 20
10.03125
 30
0.0
 41
0.625
 42
0.625
 43
0.0
  0
INSERT
  8
DAMAN
  2
100CROSS
 10
12.75
 20
10.03125
 30
0.0
 41
0.625
 42
0.625
 43
0.0
  0
CIRCLE
  8
DAMAN
 10
12.75
 20
10.03125
 30
0.0
 40
0.203
  0
CIRCLE
  8
DAMAN
 10
12.75
 20
10.03125
 30
0.0
 40
0.3125
  0
CIRCLE
  8
DAMAN
 10
12.125
 20
14.03125
 30
0.0
 40
0.3125
  0
CIRCLE
  8
DAMAN
 10
12.125
 20
14.03125
 30
0.0
 40
0.203
  0
INSERT
  8
DAMAN
  2
100CROSS
 10
12.125
 20
14.03125
 30
0.0
 41
0.625
 42
0.625
 43
0.0
  0
CIRCLE
  8
DAMAN
 10
6.25
 20
11.28125
 30
0.0
 40
0.492
  0
CIRCLE
  8
DAMAN
 10
6.25
 20
11.28125
 30
0.0
 40
0.453
  0
CIRCLE
  8
DAMAN
 10
6.25
 20
11.28125
 30
0.0
 40
0.8125
  0
INSERT
  8
DAMAN
  2
100CROSS
 10
6.25
 20
11.28125
 30
0.0
 41
1.33
 42
1.33
 43
0.0
  0
CIRCLE
  8
DAMAN
 10
6.25
 20
11.28125
 30
0.0
 40
0.53125
  0
INSERT
  8
DAMAN
  2
100CROSS
 10
13.5
 20
11.01625
 30
0.0
 41
0.25
 42
0.25
 43
0.0
  0
CIRCLE
  8
DAMAN
 10
13.5
 20
11.01625
 30
0.0
 40
0.125
  0
CIRCLE
  8
DAMAN
 10
11.875
 20
10.56325
 30
0.0
 40
0.125
  0
INSERT
  8
DAMAN
  2
100CROSS
 10
11.875
 20
10.56325
 30
0.0
 41
0.25
 42
0.25
 43
0.0
  0
INSERT
  8
DAMAN
  2
100CROSS
 10
14.125
 20
11.0155
 30
0.0
 41
0.171
 42
0.171
 43
0.0
  0
CIRCLE
  8
DAMAN
 10
14.125
 20
11.0155
 30
0.0
 40
0.0855
  0
CIRCLE
  8
DAMAN
 10
11.375
 20
13.3125
 30
0.0
 40
0.0855
  0
INSERT
  8
DAMAN
  2
100CROSS
 10
11.375
 20
13.3125
 30
0.0
 41
0.171
 42
0.171
 43
0.0
  0
INSERT
  8
DAMAN
  2
100CROSS
 10
13.562
 20
13.31225
 30
0.0
 41
0.688
 42
0.688
 43
0.0
  0
CIRCLE
  8
DAMAN
 10
13.562
 20
13.31225
 30
0.0
 40
0.344
  0
CIRCLE
  8
DAMAN
 10
13.562
 20
12.06225
 30
0.0
 40
0.344
  0
INSERT
  8
DAMAN
  2
100CROSS
 10
13.562
 20
12.06225
 30
0.0
 41
0.688
 42
0.688
 43
0.0
  0
INSERT
  8
DAMAN
  2
100CROSS
 10
11.937
 20
11.43725
 30
0.0
 41
0.688
 42
0.688
 43
0.0
  0
CIRCLE
  8
DAMAN
 10
11.937
 20
11.43725
 30
0.0
 40
0.344
  0
CIRCLE
  8
DAMAN
 10
11.937
 20
12.68725
 30
0.0
 40
0.344
  0
INSERT
  8
DAMAN
  2
100CROSS
 10
11.937
 20
12.68725
 30
0.0
 41
0.688
 42
0.688
 43
0.0
  0
INSERT
  8
DAMAN
  2
100CROSS
 10
14.188
 20
12.68725
 30
0.0
 41
0.25
 42
0.25
 43
0.0
  0
CIRCLE
  8
DAMAN
 10
14.188
 20
12.68725
 30
0.0
 40
0.1055
  0
CIRCLE
  8
DAMAN
 10
11.313
 20
12.06225
 30
0.0
 40
0.1055
  0
INSERT
  8
DAMAN
  2
100CROSS
 10
11.313
 20
12.06225
 30
0.0
 41
0.25
 42
0.25
 43
0.0
  0
INSERT
  8
DAMAN
  2
100CROSS
 10
14.125
 20
10.03125
 30
0.0
 41
0.375
 42
0.375
 43
0.0
  0
CIRCLE
  8
DAMAN
 10
14.125
 20
10.03125
 30
0.0
 40
0.15625
  0
INSERT
  8
DAMAN
  2
100CROSS
 10
14.125
 20
14.03125
 30
0.0
 41
0.375
 42
0.375
 43
0.0
  0
CIRCLE
  8
DAMAN
 10
14.125
 20
14.03125
 30
0.0
 40
0.15625
  0
INSERT
  8
DAMAN
  2
100CROSS
 10
11.375
 20
10.03125
 30
0.0
 41
0.375
 42
0.375
 43
0.0
  0
CIRCLE
  8
DAMAN
 10
11.375
 20
10.03125
 30
0.0
 40
0.15625
  0
CIRCLE
  8
DAMAN
 10
11.375
 20
14.03125
 30
0.0
 40
0.15625
  0
INSERT
  8
DAMAN
  2
100CROSS
 10
11.375
 20
14.03125
 30
0.0
 41
0.375
 42
0.375
 43
0.0
  0
CIRCLE
  8
DAMAN
 10
11.375
 20
14.03125
 30
0.0
 40
0.1875
  0
CIRCLE
  8
DAMAN
 10
11.375
 20
10.03125
 30
0.0
 40
0.1875
  0
CIRCLE
  8
DAMAN
 10
14.125
 20
14.03125
 30
0.0
 40
0.1875
  0
CIRCLE
  8
DAMAN
 10
14.125
 20
10.03125
 30
0.0
 40
0.1875
  0
CIRCLE
  8
DAMAN
 10
11.3125
 20
12.0625
 30
0.0
 40
0.125
  0
CIRCLE
  8
DAMAN
 10
14.1875
 20
12.6875
 30
0.0
 40
0.125
  0
CIRCLE
  8
DAMAN
 10
19.25
 20
13.21875
 30
0.0
 40
0.492
  0
CIRCLE
  8
DAMAN
 10
19.25
 20
13.21875
 30
0.0
 40
0.453
  0
CIRCLE
  8
DAMAN
 10
19.25
 20
13.21875
 30
0.0
 40
0.8125
  0
INSERT
  8
DAMAN
  2
100CROSS
 10
19.25
 20
13.21875
 30
0.0
 41
1.33
 42
1.33
 43
0.0
  0
CIRCLE
  8
DAMAN
 10
19.25
 20
13.21875
 30
0.0
 40
0.53125
  0
CIRCLE
  8
DAMAN
 10
19.25
 20
11.625
 30
0.0
 40
0.492
  0
CIRCLE
  8
DAMAN
 10
19.25
 20
11.625
 30
0.0
 40
0.453
  0
CIRCLE
  8
DAMAN
 10
19.25
 20
11.625
 30
0.0
 40
0.8125
  0
INSERT
  8
DAMAN
  2
100CROSS
 10
19.25
 20
11.625
 30
0.0
 41
1.33
 42
1.33
 43
0.0
  0
CIRCLE
  8
DAMAN
 10
19.25
 20
11.625
 30
0.0
 40
0.53125
  0
POLYLINE
  8
DAMAN
 66
     1
 10
0.0
 20
0.0
 30
0.0
 70
     1
  0
VERTEX
  8
DAMAN
 10
10.75
 20
14.40625
 30
0.0
  0
VERTEX
  8
DAMAN
 10
14.75
 20
14.40625
 30
0.0
  0
VERTEX
  8
DAMAN
 10
14.75
 20
9.65625
 30
0.0
  0
VERTEX
  8
DAMAN
 10
10.75
 20
9.65625
 30
0.0
  0
SEQEND
  8
DAMAN
  0
POLYLINE
  8
DAMAN
 66
     1
 10
0.0
 20
0.0
 30
0.0
 70
     1
  0
VERTEX
  8
DAMAN
 10
24.25
 20
14.40625
 30
0.0
  0
VERTEX
  8
DAMAN
 10
28.25
 20
14.40625
 30
0.0
  0
VERTEX
  8
DAMAN
 10
28.25
 20
9.65625
 30
0.0
  0
VERTEX
  8
DAMAN
 10
24.25
 20
9.65625
 30
0.0
  0
SEQEND
  8
DAMAN
  0
TEXT
  8
DAMAN
 10
6.6875
 20
13.90625
 30
0.0
 40
0.25
  1
A
 50
270.0
  7
STR
  0
TEXT
  8
DAMAN
 10
6.6875
 20
10.4375
 30
0.0
 40
0.25
  1
B
 50
270.0
  7
STR
  0
TEXT
  8
DAMAN
 10
18.5625
 20
13.875
 30
0.0
 40
0.25
  1
T
 50
90.0
  7
STR
  0
TEXT
  8
DAMAN
 10
18.5625
 20
10.875
 30
0.0
 40
0.25
  1
P
 50
90.0
  7
STR
  0
TEXT
  8
DAMAN
 10
24.59375
 20
13.84375
 30
0.0
 40
0.25
  1
T
  7
STR
  0
TEXT
  8
DAMAN
 10
24.59375
 20
12.15625
 30
0.0
 40
0.25
  1
P
  7
STR
  0
TEXT
  8
DAMAN
 10
11.125
 20
6.5
 30
0.0
 40
0.25
  1
Y
  7
STR
  0
TEXT
  8
DAMAN
 10
14.15625
 20
6.5
 30
0.0
 40
0.25
  1
X
  7
STR
  0
INSERT
  8
DAMAN
  2
12SAET
 10
25.4375
 20
13.28125
 30
0.0
  0
INSERT
  8
DAMAN
  2
12SAET
 10
25.4375
 20
11.65625
 30
0.0
  0
INSERT
  8
DAMAN
  2
12SAET
 10
6.25
 20
12.90625
 30
0.0
  0
INSERT
  8
DAMAN
  2
06SAET
 10
11.9375
 20
6.40625
 30
0.0
  0
INSERT
  8
DAMAN
  2
06SAET
 10
13.5625
 20
6.40625
 30
0.0
  0
TEXT
  8
DAMAN
 10
11.65625
 20
4.96875
 30
0.0
 40
0.188
  1
DAMAN ****
  0
INSERT
  8
DAMAN
  2
C102T
 10
12.9687
 20
18.15625
 30
0.0
  0
LINE
  8
DAMAN
 10
10.75
 20
19.90625
 30
0.0
 11
14.75
 21
19.90625
 31
0.0
  0
LINE
  8
DAMAN
 10
14.75
 20
19.90625
 30
0.0
 11
14.75
 21
17.15625
 31
0.0
  0
LINE
  8
DAMAN
 10
14.75
 20
17.15625
 30
0.0
 11
10.75
 21
17.15625
 31
0.0
  0
LINE
  8
DAMAN
 10
10.75
 20
17.15625
 30
0.0
 11
10.75
 21
19.90625
 31
0.0
  0
LINE
  8
DAMAN
 10
4.75
 20
14.40625
 30
0.0
 11
7.5
 21
14.40625
 31
0.0
  0
LINE
  8
DAMAN
 10
7.5
 20
14.40625
 30
0.0
 11
7.5
 21
9.65625
 31
0.0
  0
LINE
  8
DAMAN
 10
7.5
 20
9.65625
 30
0.0
 11
4.75
 21
9.65625
 31
0.0
  0
LINE
  8
DAMAN
 10
4.75
 20
9.65625
 30
0.0
 11
4.75
 21
14.40625
 31
0.0
  0
LINE
  8
DAMAN
 10
18.0
 20
14.40625
 30
0.0
 11
20.75
 21
14.40625
 31
0.0
  0
LINE
  8
DAMAN
 10
20.75
 20
14.40625
 30
0.0
 11
20.75
 21
9.65625
 31
0.0
  0
LINE
  8
DAMAN
 10
20.75
 20
9.65625
 30
0.0
 11
18.0
 21
9.65625
 31
0.0
  0
LINE
  8
DAMAN
 10
18.0
 20
9.65625
 30
0.0
 11
18.0
 21
14.40625
 31
0.0
  0
LINE
  8
DAMAN
 10
10.75
 20
6.90625
 30
0.0
 11
14.75
 21
6.90625
 31
0.0
  0
LINE
  8
DAMAN
 10
14.75
 20
6.90625
 30
0.0
 11
14.75
 21
4.15625
 31
0.0
  0
LINE
  8
DAMAN
 10
14.75
 20
4.15625
 30
0.0
 11
10.75
 21
4.15625
 31
0.0
  0
LINE
  8
DAMAN
 10
10.75
 20
4.15625
 30
0.0
 11
10.75
 21
6.90625
 31
0.0
  0
ENDSEC
  0
EOF
