  0
SECTION
  2
HEADER
  9
$ACADVER
  1
AC1014
  9
$ACADMAINTVER
 70
     9
  9
$DWGCODEPAGE
  3
ANSI_1252
  9
$INSBASE
 10
0.0
 20
0.0
 30
0.0
  9
$EXTMIN
 10
2.134028238696423
 20
2.228729283237747
 30
-0.0015258207003583
  9
$EXTMAX
 10
16.88517931836601
 20
8.280670191953738
 30
0.0000000349246037
  9
$LIMMIN
 10
0.0
 20
0.0
  9
$LIMMAX
 10
14.0
 20
14.0
  9
$ORTHOMODE
 70
     0
  9
$REGENMODE
 70
     1
  9
$FILLMODE
 70
     1
  9
$QTEXTMODE
 70
     0
  9
$MIRRTEXT
 70
     1
  9
$DRAGMODE
 70
     2
  9
$LTSCALE
 40
1.0
  9
$OSMODE
 70
    37
  9
$ATTMODE
 70
     1
  9
$TEXTSIZE
 40
0.2
  9
$TRACEWID
 40
0.05
  9
$TEXTSTYLE
  7
STANDARD
  9
$CLAYER
  8
DAMAN
  9
$CELTYPE
  6
BYLAYER
  9
$CECOLOR
 62
   256
  9
$CELTSCALE
 40
1.0
  9
$DELOBJ
 70
     1
  9
$DISPSILH
 70
     0
  9
$DIMSCALE
 40
1.0
  9
$DIMASZ
 40
0.18
  9
$DIMEXO
 40
0.0625
  9
$DIMDLI
 40
0.38
  9
$DIMRND
 40
0.0
  9
$DIMDLE
 40
0.0
  9
$DIMEXE
 40
0.18
  9
$DIMTP
 40
0.0
  9
$DIMTM
 40
0.0
  9
$DIMTXT
 40
0.18
  9
$DIMCEN
 40
0.09
  9
$DIMTSZ
 40
0.0
  9
$DIMTOL
 70
     0
  9
$DIMLIM
 70
     0
  9
$DIMTIH
 70
     1
  9
$DIMTOH
 70
     1
  9
$DIMSE1
 70
     0
  9
$DIMSE2
 70
     0
  9
$DIMTAD
 70
     0
  9
$DIMZIN
 70
     0
  9
$DIMBLK
  1

  9
$DIMASO
 70
     1
  9
$DIMSHO
 70
     1
  9
$DIMPOST
  1

  9
$DIMAPOST
  1

  9
$DIMALT
 70
     0
  9
$DIMALTD
 70
     2
  9
$DIMALTF
 40
25.4
  9
$DIMLFAC
 40
1.0
  9
$DIMTOFL
 70
     0
  9
$DIMTVP
 40
0.0
  9
$DIMTIX
 70
     0
  9
$DIMSOXD
 70
     0
  9
$DIMSAH
 70
     0
  9
$DIMBLK1
  1

  9
$DIMBLK2
  1

  9
$DIMSTYLE
  2
DAMAN
  9
$DIMCLRD
 70
     0
  9
$DIMCLRE
 70
     0
  9
$DIMCLRT
 70
     0
  9
$DIMTFAC
 40
1.0
  9
$DIMGAP
 40
0.09
  9
$DIMJUST
 70
     0
  9
$DIMSD1
 70
     0
  9
$DIMSD2
 70
     0
  9
$DIMTOLJ
 70
     1
  9
$DIMTZIN
 70
     0
  9
$DIMALTZ
 70
     0
  9
$DIMALTTZ
 70
     0
  9
$DIMFIT
 70
     3
  9
$DIMUPT
 70
     0
  9
$DIMUNIT
 70
     2
  9
$DIMDEC
 70
     4
  9
$DIMTDEC
 70
     4
  9
$DIMALTU
 70
     2
  9
$DIMALTTD
 70
     2
  9
$DIMTXSTY
  7
STANDARD
  9
$DIMAUNIT
 70
     0
  9
$LUNITS
 70
     2
  9
$LUPREC
 70
     4
  9
$SKETCHINC
 40
0.1
  9
$FILLETRAD
 40
0.0
  9
$AUNITS
 70
     0
  9
$AUPREC
 70
     0
  9
$MENU
  1
tom
  9
$ELEVATION
 40
0.0
  9
$PELEVATION
 40
0.0
  9
$THICKNESS
 40
0.0
  9
$LIMCHECK
 70
     0
  9
$BLIPMODE
 70
     0
  9
$CHAMFERA
 40
0.0
  9
$CHAMFERB
 40
0.0
  9
$CHAMFERC
 40
0.0
  9
$CHAMFERD
 40
0.0
  9
$SKPOLY
 70
     0
  9
$TDCREATE
 40
2450458.711891308
  9
$TDUPDATE
 40
2453432.419819630
  9
$TDINDWG
 40
0.0198895139
  9
$TDUSRTIMER
 40
0.0198895139
  9
$USRTIMER
 70
     1
  9
$ANGBASE
 50
0.0
  9
$ANGDIR
 70
     0
  9
$PDMODE
 70
     0
  9
$PDSIZE
 40
0.0
  9
$PLINEWID
 40
0.0
  9
$COORDS
 70
     1
  9
$SPLFRAME
 70
     0
  9
$SPLINETYPE
 70
     6
  9
$SPLINESEGS
 70
     8
  9
$ATTDIA
 70
     0
  9
$ATTREQ
 70
     1
  9
$HANDLING
 70
-16383
  9
$HANDSEED
  5
4F1
  9
$SURFTAB1
 70
     6
  9
$SURFTAB2
 70
     6
  9
$SURFTYPE
 70
     6
  9
$SURFU
 70
     6
  9
$SURFV
 70
     6
  9
$UCSNAME
  2

  9
$UCSORG
 10
0.0
 20
0.0
 30
0.0
  9
$UCSXDIR
 10
1.0
 20
0.0
 30
0.0
  9
$UCSYDIR
 10
0.0
 20
1.0
 30
0.0
  9
$PUCSNAME
  2

  9
$PUCSORG
 10
0.0
 20
0.0
 30
0.0
  9
$PUCSXDIR
 10
1.0
 20
0.0
 30
0.0
  9
$PUCSYDIR
 10
0.0
 20
1.0
 30
0.0
  9
$USERI1
 70
     0
  9
$USERI2
 70
     0
  9
$USERI3
 70
     0
  9
$USERI4
 70
     0
  9
$USERI5
 70
     0
  9
$USERR1
 40
0.0
  9
$USERR2
 40
0.0
  9
$USERR3
 40
0.0
  9
$USERR4
 40
0.0
  9
$USERR5
 40
0.0
  9
$WORLDVIEW
 70
     1
  9
$SHADEDGE
 70
     3
  9
$SHADEDIF
 70
    70
  9
$TILEMODE
 70
     1
  9
$MAXACTVP
 70
    16
  9
$PINSBASE
 10
0.0
 20
0.0
 30
0.0
  9
$PLIMCHECK
 70
     0
  9
$PEXTMIN
 10
1.000000000000000E+20
 20
1.000000000000000E+20
 30
1.000000000000000E+20
  9
$PEXTMAX
 10
-1.000000000000000E+20
 20
-1.000000000000000E+20
 30
-1.000000000000000E+20
  9
$PLIMMIN
 10
0.0
 20
0.0
  9
$PLIMMAX
 10
12.0
 20
9.0
  9
$UNITMODE
 70
     0
  9
$VISRETAIN
 70
     0
  9
$PLINEGEN
 70
     0
  9
$PSLTSCALE
 70
     1
  9
$TREEDEPTH
 70
  3020
  9
$PICKSTYLE
 70
     1
  9
$CMLSTYLE
  2
STANDARD
  9
$CMLJUST
 70
     0
  9
$CMLSCALE
 40
1.0
  9
$PROXYGRAPHICS
 70
     1
  9
$MEASUREMENT
 70
     0
  0
ENDSEC
  0
SECTION
  2
CLASSES
  0
CLASS
  1
ACDBDICTIONARYWDFLT
  2
AcDbDictionaryWithDefault
  3
AutoCAD 2000
 90
        0
280
     0
281
     0
  0
CLASS
  1
ACDBPLACEHOLDER
  2
AcDbPlaceHolder
  3
AutoCAD 2000
 90
        0
280
     0
281
     0
  0
CLASS
  1
LAYOUT
  2
AcDbLayout
  3
AutoCAD 2000
 90
        0
280
     0
281
     0
  0
CLASS
  1
LONG_TRANSACTION
  2
AcDbLongTransaction
  3
AutoCAD 2000
 90
        0
280
     0
281
     0
  0
CLASS
  1
LWPOLYLINE
  2
AcDbPolyline
  3
AutoCAD 2000
 90
        0
280
     0
281
     1
  0
CLASS
  1
HATCH
  2
AcDbHatch
  3
AutoCAD 2000
 90
        0
280
     0
281
     1
  0
CLASS
  1
XRECORD
  2
AcDbXrecord
  3
AutoCAD 2000
 90
        0
280
     0
281
     0
  0
ENDSEC
  0
SECTION
  2
TABLES
  0
TABLE
  2
VPORT
  5
8
330
0
100
AcDbSymbolTable
 70
     2
  0
VPORT
  5
4CC
330
8
100
AcDbSymbolTableRecord
100
AcDbViewportTableRecord
  2
*ACTIVE
 70
     0
 10
0.0
 20
0.0
 11
1.0
 21
1.0
 12
9.603455788264223
 22
5.27858303978907
 13
0.0
 23
0.0
 14
1.0
 24
1.0
 15
0.0
 25
0.0
 16
0.0
 26
0.0
 36
1.0
 17
0.0
 27
0.0
 37
0.0
 40
9.902223092412821
 41
1.647569444444444
 42
50.0
 43
0.0
 44
0.0
 50
0.0
 51
0.0
 71
     0
 72
   100
 73
     1
 74
     0
 75
     0
 76
     0
 77
     0
 78
     0
  0
ENDTAB
  0
TABLE
  2
LTYPE
  5
5
330
0
100
AcDbSymbolTable
 70
     6
  0
LTYPE
  5
13
330
5
100
AcDbSymbolTableRecord
100
AcDbLinetypeTableRecord
  2
BYBLOCK
 70
     0
  3

 72
    65
 73
     0
 40
0.0
  0
LTYPE
  5
14
330
5
100
AcDbSymbolTableRecord
100
AcDbLinetypeTableRecord
  2
BYLAYER
 70
     0
  3

 72
    65
 73
     0
 40
0.0
  0
LTYPE
  5
15
330
5
100
AcDbSymbolTableRecord
100
AcDbLinetypeTableRecord
  2
CONTINUOUS
 70
     0
  3
Solid line
 72
    65
 73
     0
 40
0.0
  0
LTYPE
  5
24
330
5
100
AcDbSymbolTableRecord
100
AcDbLinetypeTableRecord
  2
HIDDEN
 70
     0
  3
_ _ _ _ _ _ _ _ _ _ _ _ _ _ _ _ _ _ _ _ _ _ _
 72
    65
 73
     2
 40
0.375
 49
0.25
 74
     0
 49
-0.125
 74
     0
  0
LTYPE
  5
25
330
5
100
AcDbSymbolTableRecord
100
AcDbLinetypeTableRecord
  2
CENTER
 70
     0
  3
____ _ ____ _ ____ _ ____ _ ____ _ ____ _ ____
 72
    65
 73
     4
 40
2.0
 49
1.25
 74
     0
 49
-0.25
 74
     0
 49
0.25
 74
     0
 49
-0.25
 74
     0
  0
LTYPE
  5
26
330
5
100
AcDbSymbolTableRecord
100
AcDbLinetypeTableRecord
  2
DOT
 70
     0
  3
. . . . . . . . . . . . . . . . . . . . . . . .
 72
    65
 73
     2
 40
0.25
 49
0.0
 74
     0
 49
-0.25
 74
     0
  0
LTYPE
  5
27
330
5
100
AcDbSymbolTableRecord
100
AcDbLinetypeTableRecord
  2
DASHED
 70
     0
  3
__ __ __ __ __ __ __ __ __ __ __ __ __ __ __ __
 72
    65
 73
     2
 40
0.75
 49
0.5
 74
     0
 49
-0.25
 74
     0
  0
LTYPE
  5
28
330
5
100
AcDbSymbolTableRecord
100
AcDbLinetypeTableRecord
  2
PHANTOM
 70
     0
  3
_____ _ _ _____ _ _ _____ _ _ _____ _ _ ____
 72
    65
 73
     6
 40
2.5
 49
1.25
 74
     0
 49
-0.25
 74
     0
 49
0.25
 74
     0
 49
-0.25
 74
     0
 49
0.25
 74
     0
 49
-0.25
 74
     0
  0
ENDTAB
  0
TABLE
  2
LAYER
  5
2
330
0
100
AcDbSymbolTable
 70
    13
  0
LAYER
  5
10
330
2
100
AcDbSymbolTableRecord
100
AcDbLayerTableRecord
  2
0
 70
     0
 62
     7
  6
CONTINUOUS
  0
LAYER
  5
22
330
2
100
AcDbSymbolTableRecord
100
AcDbLayerTableRecord
  2
DAMAN
 70
     0
 62
     5
  6
CONTINUOUS
  0
LAYER
  5
29
330
2
100
AcDbSymbolTableRecord
100
AcDbLayerTableRecord
  2
CSOLID
 70
     0
 62
     3
  6
CONTINUOUS
  0
LAYER
  5
2A
330
2
100
AcDbSymbolTableRecord
100
AcDbLayerTableRecord
  2
CCENTER
 70
     0
 62
     4
  6
CENTER
  0
LAYER
  5
2B
330
2
100
AcDbSymbolTableRecord
100
AcDbLayerTableRecord
  2
CHIDDEN
 70
     0
 62
     3
  6
HIDDEN
  0
LAYER
  5
2C
330
2
100
AcDbSymbolTableRecord
100
AcDbLayerTableRecord
  2
SOLID
 70
     0
 62
     4
  6
CONTINUOUS
  0
LAYER
  5
2D
330
2
100
AcDbSymbolTableRecord
100
AcDbLayerTableRecord
  2
PHANTOM
 70
     0
 62
     1
  6
PHANTOM
  0
LAYER
  5
2E
330
2
100
AcDbSymbolTableRecord
100
AcDbLayerTableRecord
  2
CDIM
 70
     0
 62
     2
  6
CONTINUOUS
  0
LAYER
  5
2F
330
2
100
AcDbSymbolTableRecord
100
AcDbLayerTableRecord
  2
BORDER
 70
     0
 62
     7
  6
CONTINUOUS
  0
LAYER
  5
30
330
2
100
AcDbSymbolTableRecord
100
AcDbLayerTableRecord
  2
PIPE
 70
     1
 62
     5
  6
CONTINUOUS
  0
LAYER
  5
31
330
2
100
AcDbSymbolTableRecord
100
AcDbLayerTableRecord
  2
SAE
 70
     0
 62
     5
  6
CONTINUOUS
  0
LAYER
  5
32
330
2
100
AcDbSymbolTableRecord
100
AcDbLayerTableRecord
  2
BSPP
 70
     1
 62
     5
  6
CONTINUOUS
  0
LAYER
  5
33
330
2
100
AcDbSymbolTableRecord
100
AcDbLayerTableRecord
  2
ISO
 70
     1
 62
     5
  6
CONTINUOUS
  0
ENDTAB
  0
TABLE
  2
STYLE
  5
3
330
0
100
AcDbSymbolTable
 70
     3
  0
STYLE
  5
11
330
3
100
AcDbSymbolTableRecord
100
AcDbTextStyleTableRecord
  2
STANDARD
 70
     0
 40
0.0
 41
1.0
 50
0.0
 71
     0
 42
0.2
  3
txt
  4

  0
STYLE
  5
34
330
3
100
AcDbSymbolTableRecord
100
AcDbTextStyleTableRecord
  2
STR
 70
     0
 40
0.0
 41
1.0
 50
0.0
 71
     0
 42
0.25
  3
SIMPLEX
  4

  0
STYLE
  5
35
330
3
100
AcDbSymbolTableRecord
100
AcDbTextStyleTableRecord
  2
ROMANS
 70
     0
 40
0.25
 41
0.8
 50
0.0
 71
     0
 42
0.25
  3
txt
  4

  0
ENDTAB
  0
TABLE
  2
VIEW
  5
6
330
0
100
AcDbSymbolTable
 70
     0
  0
ENDTAB
  0
TABLE
  2
UCS
  5
7
330
0
100
AcDbSymbolTable
 70
     0
  0
ENDTAB
  0
TABLE
  2
APPID
  5
9
330
0
100
AcDbSymbolTable
 70
     1
  0
APPID
  5
12
330
9
100
AcDbSymbolTableRecord
100
AcDbRegAppTableRecord
  2
ACAD
 70
     0
  0
ENDTAB
  0
TABLE
  2
DIMSTYLE
  5
A
330
0
100
AcDbSymbolTable
 70
     1
  0
DIMSTYLE
105
36
330
A
100
AcDbSymbolTableRecord
100
AcDbDimStyleTableRecord
  2
DAMAN
 70
     0
  3

  4

  5

  6

  7

 40
1.0
 41
0.08
 42
0.04
 43
0.18
 44
0.06
 45
0.0
 46
0.0
 47
0.0
 48
0.0
140
0.06
141
0.09
142
0.0
143
25.4
144
1.0
145
0.0
146
1.0
147
0.03
 71
     0
 72
     0
 73
     0
 74
     0
 75
     0
 76
     0
 77
     0
 78
     0
170
     1
171
     1
172
     0
173
     0
174
     0
175
     0
176
     5
177
     5
178
     5
270
     2
271
     4
272
     4
273
     2
274
     2
340
11
275
     0
280
     0
281
     0
282
     0
283
     1
284
     0
285
     0
286
     0
287
     5
288
     0
  0
ENDTAB
  0
TABLE
  2
BLOCK_RECORD
  5
1
330
0
100
AcDbSymbolTable
 70
    67
  0
BLOCK_RECORD
  5
1E
102
{ACAD_XDICTIONARY
360
4EF
102
}
330
1
100
AcDbSymbolTableRecord
100
AcDbBlockTableRecord
  2
*MODEL_SPACE
  0
BLOCK_RECORD
  5
1A
102
{ACAD_XDICTIONARY
360
4ED
102
}
330
1
100
AcDbSymbolTableRecord
100
AcDbBlockTableRecord
  2
*PAPER_SPACE
  0
BLOCK_RECORD
  5
39
330
1
100
AcDbSymbolTableRecord
100
AcDbBlockTableRecord
  2
32MMDIN
  0
BLOCK_RECORD
  5
40
330
1
100
AcDbSymbolTableRecord
100
AcDbBlockTableRecord
  2
100CROSS
  0
BLOCK_RECORD
  5
57
330
1
100
AcDbSymbolTableRecord
100
AcDbBlockTableRecord
  2
D05
  0
BLOCK_RECORD
  5
6F
330
1
100
AcDbSymbolTableRecord
100
AcDbBlockTableRecord
  2
050CROSS
  0
BLOCK_RECORD
  5
7A
330
1
100
AcDbSymbolTableRecord
100
AcDbBlockTableRecord
  2
D02
  0
BLOCK_RECORD
  5
93
330
1
100
AcDbSymbolTableRecord
100
AcDbBlockTableRecord
  2
D03
  0
BLOCK_RECORD
  5
AE
330
1
100
AcDbSymbolTableRecord
100
AcDbBlockTableRecord
  2
D03SF
  0
BLOCK_RECORD
  5
B0
330
1
100
AcDbSymbolTableRecord
100
AcDbBlockTableRecord
  2
D01I
  0
BLOCK_RECORD
  5
CB
330
1
100
AcDbSymbolTableRecord
100
AcDbBlockTableRecord
  2
012NPTFT
  0
BLOCK_RECORD
  5
D2
330
1
100
AcDbSymbolTableRecord
100
AcDbBlockTableRecord
  2
S06
  0
BLOCK_RECORD
  5
F4
330
1
100
AcDbSymbolTableRecord
100
AcDbBlockTableRecord
  2
S06SF
  0
BLOCK_RECORD
  5
117
330
1
100
AcDbSymbolTableRecord
100
AcDbBlockTableRecord
  2
04SAET
  0
BLOCK_RECORD
  5
11F
330
1
100
AcDbSymbolTableRecord
100
AcDbBlockTableRecord
  2
025BSPPT
  0
BLOCK_RECORD
  5
126
330
1
100
AcDbSymbolTableRecord
100
AcDbBlockTableRecord
  2
0375BSPPT
  0
BLOCK_RECORD
  5
12E
330
1
100
AcDbSymbolTableRecord
100
AcDbBlockTableRecord
  2
D05W
  0
BLOCK_RECORD
  5
143
330
1
100
AcDbSymbolTableRecord
100
AcDbBlockTableRecord
  2
D05HE
  0
BLOCK_RECORD
  5
160
330
1
100
AcDbSymbolTableRecord
100
AcDbBlockTableRecord
  2
D05HH
  0
BLOCK_RECORD
  5
179
330
1
100
AcDbSymbolTableRecord
100
AcDbBlockTableRecord
  2
D05SF
  0
BLOCK_RECORD
  5
17B
330
1
100
AcDbSymbolTableRecord
100
AcDbBlockTableRecord
  2
D02I
  0
BLOCK_RECORD
  5
198
330
1
100
AcDbSymbolTableRecord
100
AcDbBlockTableRecord
  2
375SHCS
  0
BLOCK_RECORD
  5
1A2
330
1
100
AcDbSymbolTableRecord
100
AcDbBlockTableRecord
  2
038THDT
  0
BLOCK_RECORD
  5
1AB
330
1
100
AcDbSymbolTableRecord
100
AcDbBlockTableRecord
  2
038TOP
  0
BLOCK_RECORD
  5
1B1
330
1
100
AcDbSymbolTableRecord
100
AcDbBlockTableRecord
  2
06SAET
  0
BLOCK_RECORD
  5
1B8
330
1
100
AcDbSymbolTableRecord
100
AcDbBlockTableRecord
  2
025NPTFT
  0
BLOCK_RECORD
  5
1BA
330
1
100
AcDbSymbolTableRecord
100
AcDbBlockTableRecord
  2
250NPTFT
  0
BLOCK_RECORD
  5
1BD
330
1
100
AcDbSymbolTableRecord
100
AcDbBlockTableRecord
  2
24CD61
  0
BLOCK_RECORD
  5
1CE
330
1
100
AcDbSymbolTableRecord
100
AcDbBlockTableRecord
  2
24CD62
  0
BLOCK_RECORD
  5
1DF
330
1
100
AcDbSymbolTableRecord
100
AcDbBlockTableRecord
  2
40CD61
  0
BLOCK_RECORD
  5
1F0
330
1
100
AcDbSymbolTableRecord
100
AcDbBlockTableRecord
  2
40MMDIN
  0
BLOCK_RECORD
  5
20C
330
1
100
AcDbSymbolTableRecord
100
AcDbBlockTableRecord
  2
32CD61
  0
BLOCK_RECORD
  5
21D
330
1
100
AcDbSymbolTableRecord
100
AcDbBlockTableRecord
  2
50MMDIN
  0
BLOCK_RECORD
  5
23A
330
1
100
AcDbSymbolTableRecord
100
AcDbBlockTableRecord
  2
40CD62
  0
BLOCK_RECORD
  5
24C
330
1
100
AcDbSymbolTableRecord
100
AcDbBlockTableRecord
  2
64CD61
  0
BLOCK_RECORD
  5
25D
330
1
100
AcDbSymbolTableRecord
100
AcDbBlockTableRecord
  2
63MMDIN
  0
BLOCK_RECORD
  5
27A
330
1
100
AcDbSymbolTableRecord
100
AcDbBlockTableRecord
  2
08SAET
  0
BLOCK_RECORD
  5
282
330
1
100
AcDbSymbolTableRecord
100
AcDbBlockTableRecord
  2
48CD61
  0
BLOCK_RECORD
  5
297
330
1
100
AcDbSymbolTableRecord
100
AcDbBlockTableRecord
  2
80CD61
  0
BLOCK_RECORD
  5
2A8
330
1
100
AcDbSymbolTableRecord
100
AcDbBlockTableRecord
  2
48CD62
  0
BLOCK_RECORD
  5
2C3
330
1
100
AcDbSymbolTableRecord
100
AcDbBlockTableRecord
  2
M10T
  0
BLOCK_RECORD
  5
2CC
330
1
100
AcDbSymbolTableRecord
100
AcDbBlockTableRecord
  2
050NPTFT
  0
BLOCK_RECORD
  5
2CE
330
1
100
AcDbSymbolTableRecord
100
AcDbBlockTableRecord
  2
500NPTFT
  0
BLOCK_RECORD
  5
2D7
330
1
100
AcDbSymbolTableRecord
100
AcDbBlockTableRecord
  2
0500BSPPT
  0
BLOCK_RECORD
  5
2DF
330
1
100
AcDbSymbolTableRecord
100
AcDbBlockTableRecord
  2
M18T
  0
BLOCK_RECORD
  5
2E8
330
1
100
AcDbSymbolTableRecord
100
AcDbBlockTableRecord
  2
075NPTFT
  0
BLOCK_RECORD
  5
2EA
330
1
100
AcDbSymbolTableRecord
100
AcDbBlockTableRecord
  2
750NPTFT
  0
BLOCK_RECORD
  5
2F3
330
1
100
AcDbSymbolTableRecord
100
AcDbBlockTableRecord
  2
12SAET
  0
BLOCK_RECORD
  5
2FB
330
1
100
AcDbSymbolTableRecord
100
AcDbBlockTableRecord
  2
075BSPPT
  0
BLOCK_RECORD
  5
304
330
1
100
AcDbSymbolTableRecord
100
AcDbBlockTableRecord
  2
M27T
  0
BLOCK_RECORD
  5
30D
330
1
100
AcDbSymbolTableRecord
100
AcDbBlockTableRecord
  2
106SAET
  0
BLOCK_RECORD
  5
316
330
1
100
AcDbSymbolTableRecord
100
AcDbBlockTableRecord
  2
C102T
  0
BLOCK_RECORD
  5
31F
330
1
100
AcDbSymbolTableRecord
100
AcDbBlockTableRecord
  2
T10AT
  0
BLOCK_RECORD
  5
329
330
1
100
AcDbSymbolTableRecord
100
AcDbBlockTableRecord
  2
100NPTFT
  0
BLOCK_RECORD
  5
330
330
1
100
AcDbSymbolTableRecord
100
AcDbBlockTableRecord
  2
D05H
  0
BLOCK_RECORD
  5
338
330
1
100
AcDbSymbolTableRecord
100
AcDbBlockTableRecord
  2
16SAET
  0
BLOCK_RECORD
  5
340
330
1
100
AcDbSymbolTableRecord
100
AcDbBlockTableRecord
  2
100BSPPT
  0
BLOCK_RECORD
  5
348
330
1
100
AcDbSymbolTableRecord
100
AcDbBlockTableRecord
  2
M33T
  0
BLOCK_RECORD
  5
351
330
1
100
AcDbSymbolTableRecord
100
AcDbBlockTableRecord
  2
C162T
  0
BLOCK_RECORD
  5
35B
330
1
100
AcDbSymbolTableRecord
100
AcDbBlockTableRecord
  2
T3AT
  0
BLOCK_RECORD
  5
365
330
1
100
AcDbSymbolTableRecord
100
AcDbBlockTableRecord
  2
T16AT
  0
BLOCK_RECORD
  5
370
330
1
100
AcDbSymbolTableRecord
100
AcDbBlockTableRecord
  2
300MKT
  0
BLOCK_RECORD
  5
3B2
330
1
100
AcDbSymbolTableRecord
100
AcDbBlockTableRecord
  2
250SHCST
  0
BLOCK_RECORD
  5
3C0
330
1
100
AcDbSymbolTableRecord
100
AcDbBlockTableRecord
  2
250SHCS
  0
BLOCK_RECORD
  5
3CA
330
1
100
AcDbSymbolTableRecord
100
AcDbBlockTableRecord
  2
250MKT
  0
BLOCK_RECORD
  5
40C
330
1
100
AcDbSymbolTableRecord
100
AcDbBlockTableRecord
  2
250MKS
  0
BLOCK_RECORD
  5
43C
330
1
100
AcDbSymbolTableRecord
100
AcDbBlockTableRecord
  2
038NPTFT
  0
BLOCK_RECORD
  5
43E
330
1
100
AcDbSymbolTableRecord
100
AcDbBlockTableRecord
  2
375NPTFT
  0
BLOCK_RECORD
  5
447
330
1
100
AcDbSymbolTableRecord
100
AcDbBlockTableRecord
  2
D07
  0
ENDTAB
  0
ENDSEC
  0
SECTION
  2
BLOCKS
  0
BLOCK
  5
1F
330
1E
100
AcDbEntity
  8
0
100
AcDbBlockBegin
  2
*MODEL_SPACE
 70
     0
 10
0.0
 20
0.0
 30
0.0
  3
*MODEL_SPACE
  1

  0
ENDBLK
  5
20
330
1E
100
AcDbEntity
  8
0
100
AcDbBlockEnd
  0
BLOCK
  5
1B
330
1A
100
AcDbEntity
 67
     1
  8
0
100
AcDbBlockBegin
  2
*PAPER_SPACE
 70
     0
 10
0.0
 20
0.0
 30
0.0
  3
*PAPER_SPACE
  1

  0
ENDBLK
  5
1C
330
1A
100
AcDbEntity
 67
     1
  8
0
100
AcDbBlockEnd
  0
BLOCK
  5
3A
330
39
100
AcDbEntity
  8
0
100
AcDbBlockBegin
  2
32MMDIN
 70
     0
 10
0.0
 20
0.0
 30
0.0
  3
32MMDIN
  1

  0
CIRCLE
  5
3B
330
39
100
AcDbEntity
  8
DAMAN
100
AcDbCircle
 10
2.501358999999999
 20
2.575075
 30
0.0
 40
1.179999999999999
  0
CIRCLE
  5
3C
330
39
100
AcDbEntity
  8
DAMAN
100
AcDbCircle
 10
2.501358999999999
 20
2.575075
 30
0.0
 40
0.8849999999999999
  0
CIRCLE
  5
3D
330
39
100
AcDbEntity
  8
DAMAN
100
AcDbCircle
 10
2.501358999999999
 20
2.575075
 30
0.0
 40
0.63
  0
CIRCLE
  5
3E
330
39
100
AcDbEntity
  8
DAMAN
100
AcDbCircle
 10
1.121358999999999
 20
3.955074999999999
 30
0.0
 40
0.259766
  0
CIRCLE
  5
3F
330
39
100
AcDbEntity
  8
DAMAN
100
AcDbCircle
 10
1.121358999999999
 20
3.955074999999999
 30
0.0
 40
0.311719
  0
INSERT
  5
41
330
39
100
AcDbEntity
  8
DAMAN
100
AcDbBlockReference
  2
100CROSS
 10
1.121358999999999
 20
3.955074999999999
 30
0.0
 41
0.6234380000000001
 42
0.6234380000000001
  0
INSERT
  5
42
330
39
100
AcDbEntity
  8
DAMAN
100
AcDbBlockReference
  2
100CROSS
 10
1.121358999999999
 20
1.195075
 30
0.0
 41
0.6234380000000001
 42
0.6234380000000001
  0
CIRCLE
  5
43
330
39
100
AcDbEntity
  8
DAMAN
100
AcDbCircle
 10
1.121358999999999
 20
1.195075
 30
0.0
 40
0.259766
  0
CIRCLE
  5
44
330
39
100
AcDbEntity
  8
DAMAN
100
AcDbCircle
 10
1.121358999999999
 20
1.195075
 30
0.0
 40
0.311719
  0
INSERT
  5
45
330
39
100
AcDbEntity
  8
DAMAN
100
AcDbBlockReference
  2
100CROSS
 10
3.881358999999999
 20
1.195075
 30
0.0
 41
0.6234380000000001
 42
0.6234380000000001
  0
CIRCLE
  5
46
330
39
100
AcDbEntity
  8
DAMAN
100
AcDbCircle
 10
3.881358999999999
 20
1.195075
 30
0.0
 40
0.259766
  0
CIRCLE
  5
47
330
39
100
AcDbEntity
  8
DAMAN
100
AcDbCircle
 10
3.881358999999999
 20
1.195075
 30
0.0
 40
0.311719
  0
INSERT
  5
48
330
39
100
AcDbEntity
  8
DAMAN
100
AcDbBlockReference
  2
100CROSS
 10
3.881358999999999
 20
3.955074999999999
 30
0.0
 41
0.6234380000000001
 42
0.6234380000000001
  0
CIRCLE
  5
49
330
39
100
AcDbEntity
  8
DAMAN
100
AcDbCircle
 10
3.881358999999999
 20
3.955074999999999
 30
0.0
 40
0.259766
  0
CIRCLE
  5
4A
330
39
100
AcDbEntity
  8
DAMAN
100
AcDbCircle
 10
3.881358999999999
 20
3.955074999999999
 30
0.0
 40
0.311719
  0
CIRCLE
  5
4B
330
39
100
AcDbEntity
  8
DAMAN
100
AcDbCircle
 10
2.501358999999999
 20
4.195075
 30
0.0
 40
0.157
  0
CIRCLE
  5
4C
330
39
100
AcDbEntity
  8
DAMAN
100
AcDbCircle
 10
0.8813589999999999
 20
2.575075
 30
0.0
 40
0.157
  0
CIRCLE
  5
4D
330
39
100
AcDbEntity
  8
DAMAN
100
AcDbCircle
 10
2.501358999999999
 20
0.955075
 30
0.0
 40
0.157
  0
CIRCLE
  5
4E
330
39
100
AcDbEntity
  8
DAMAN
100
AcDbCircle
 10
4.121358999999999
 20
2.575075
 30
0.0
 40
0.157
  0
CIRCLE
  5
4F
330
39
100
AcDbEntity
  8
DAMAN
100
AcDbCircle
 10
1.821358999999999
 20
3.955074999999999
 30
0.0
 40
0.12
  0
INSERT
  5
50
330
39
100
AcDbEntity
  8
DAMAN
100
AcDbBlockReference
  2
100CROSS
 10
0.8813589999999999
 20
2.575075
 30
0.0
 41
0.4987500000000001
 42
0.4987500000000001
  0
INSERT
  5
51
330
39
100
AcDbEntity
  8
DAMAN
100
AcDbBlockReference
  2
100CROSS
 10
1.821358999999999
 20
3.955074999999999
 30
0.0
 41
0.4987500000000001
 42
0.4987500000000001
  0
INSERT
  5
52
330
39
100
AcDbEntity
  8
DAMAN
100
AcDbBlockReference
  2
100CROSS
 10
2.501358999999999
 20
4.195075
 30
0.0
 41
0.4987500000000001
 42
0.4987500000000001
  0
INSERT
  5
53
330
39
100
AcDbEntity
  8
DAMAN
100
AcDbBlockReference
  2
100CROSS
 10
4.121358999999999
 20
2.575075
 30
0.0
 41
0.4987500000000001
 42
0.4987500000000001
  0
INSERT
  5
54
330
39
100
AcDbEntity
  8
DAMAN
100
AcDbBlockReference
  2
100CROSS
 10
2.501358999999999
 20
0.955075
 30
0.0
 41
0.4987500000000001
 42
0.4987500000000001
  0
INSERT
  5
55
330
39
100
AcDbEntity
  8
DAMAN
100
AcDbBlockReference
  2
100CROSS
 10
2.501358999999999
 20
2.575075
 30
0.0
 41
1.563849
 42
1.563849
  0
ENDBLK
  5
56
330
39
100
AcDbEntity
  8
0
100
AcDbBlockEnd
  0
BLOCK
  5
6E
330
40
100
AcDbEntity
  8
0
100
AcDbBlockBegin
  2
100CROSS
 70
     0
 10
5.625
 20
4.59375
 30
0.0
  3
100CROSS
  1

  0
INSERT
  5
70
330
40
100
AcDbEntity
  8
0
100
AcDbBlockReference
  2
050CROSS
 10
5.625
 20
4.59375
 30
0.0
  0
ENDBLK
  5
71
330
40
100
AcDbEntity
  8
0
100
AcDbBlockEnd
  0
BLOCK
  5
58
330
57
100
AcDbEntity
  8
0
100
AcDbBlockBegin
  2
D05
 70
     0
 10
0.0
 20
0.0
 30
0.0
  3
D05
  1

  0
CIRCLE
  5
59
330
57
100
AcDbEntity
  8
DAMAN
  6
HIDDEN
100
AcDbCircle
 10
1.8125
 20
0.0
 30
0.0
 40
0.125
  0
CIRCLE
  5
5A
330
57
100
AcDbEntity
  8
DAMAN
  6
HIDDEN
100
AcDbCircle
 10
1.8125
 20
-2.125
 30
0.0
 40
0.125
  0
CIRCLE
  5
5B
330
57
100
AcDbEntity
  8
DAMAN
  6
HIDDEN
100
AcDbCircle
 10
0.0
 20
0.0
 30
0.0
 40
0.125
  0
CIRCLE
  5
5C
330
57
100
AcDbEntity
  8
DAMAN
  6
HIDDEN
100
AcDbCircle
 10
0.0
 20
-2.125
 30
0.0
 40
0.125
  0
INSERT
  5
5D
330
57
100
AcDbEntity
  8
DAMAN
100
AcDbBlockReference
  2
100CROSS
 10
0.0
 20
0.0
 30
0.0
 41
0.25
 42
0.25
  0
CIRCLE
  5
5E
330
57
100
AcDbEntity
  8
DAMAN
100
AcDbCircle
 10
0.0
 20
0.0
 30
0.0
 40
0.1055
  0
CIRCLE
  5
5F
330
57
100
AcDbEntity
  8
DAMAN
100
AcDbCircle
 10
0.0
 20
-2.125
 30
0.0
 40
0.1055
  0
INSERT
  5
60
330
57
100
AcDbEntity
  8
DAMAN
100
AcDbBlockReference
  2
100CROSS
 10
0.0
 20
-2.125
 30
0.0
 41
0.25
 42
0.25
  0
CIRCLE
  5
61
330
57
100
AcDbEntity
  8
DAMAN
100
AcDbCircle
 10
1.8125
 20
0.0
 30
0.0
 40
0.1055
  0
INSERT
  5
62
330
57
100
AcDbEntity
  8
DAMAN
100
AcDbBlockReference
  2
100CROSS
 10
1.8125
 20
0.0
 30
0.0
 41
0.25
 42
0.25
  0
CIRCLE
  5
63
330
57
100
AcDbEntity
  8
DAMAN
100
AcDbCircle
 10
1.8125
 20
-2.125
 30
0.0
 40
0.1055
  0
INSERT
  5
64
330
57
100
AcDbEntity
  8
DAMAN
100
AcDbBlockReference
  2
100CROSS
 10
1.8125
 20
-2.125
 30
0.0
 41
0.25
 42
0.25
  0
INSERT
  5
65
330
57
100
AcDbEntity
  8
DAMAN
100
AcDbBlockReference
  2
100CROSS
 10
0.5310000000000001
 20
-0.125
 30
0.0
 41
0.4379999999999999
 42
0.4379999999999999
  0
CIRCLE
  5
66
330
57
100
AcDbEntity
  8
DAMAN
100
AcDbCircle
 10
0.5310000000000001
 20
-0.125
 30
0.0
 40
0.21875
  0
CIRCLE
  5
67
330
57
100
AcDbEntity
  8
DAMAN
100
AcDbCircle
 10
0.9685
 20
-0.6559999999999999
 30
0.0
 40
0.21875
  0
INSERT
  5
68
330
57
100
AcDbEntity
  8
DAMAN
100
AcDbBlockReference
  2
100CROSS
 10
0.9685
 20
-0.6559999999999999
 30
0.0
 41
0.4379999999999999
 42
0.4379999999999999
  0
INSERT
  5
69
330
57
100
AcDbEntity
  8
DAMAN
100
AcDbBlockReference
  2
100CROSS
 10
0.9685
 20
-1.468499999999999
 30
0.0
 41
0.4379999999999999
 42
0.4379999999999999
  0
CIRCLE
  5
6A
330
57
100
AcDbEntity
  8
DAMAN
100
AcDbCircle
 10
0.9685
 20
-1.468499999999999
 30
0.0
 40
0.21875
  0
CIRCLE
  5
6B
330
57
100
AcDbEntity
  8
DAMAN
100
AcDbCircle
 10
1.5625
 20
-1.062249999999999
 30
0.0
 40
0.21875
  0
INSERT
  5
6C
330
57
100
AcDbEntity
  8
DAMAN
100
AcDbBlockReference
  2
100CROSS
 10
1.5625
 20
-1.062249999999999
 30
0.0
 41
0.4379999999999999
 42
0.4379999999999999
  0
ENDBLK
  5
6D
330
57
100
AcDbEntity
  8
0
100
AcDbBlockEnd
  0
BLOCK
  5
72
330
6F
100
AcDbEntity
  8
0
100
AcDbBlockBegin
  2
050CROSS
 70
     0
 10
5.0
 20
5.0
 30
0.0
  3
050CROSS
  1

  0
LINE
  5
73
330
6F
100
AcDbEntity
  8
0
100
AcDbLine
 10
5.0
 20
5.28125
 30
0.0
 11
5.0
 21
5.78125
 31
0.0
  0
LINE
  5
74
330
6F
100
AcDbEntity
  8
0
100
AcDbLine
 10
5.0
 20
4.875
 30
0.0
 11
5.0
 21
5.125
 31
0.0
  0
LINE
  5
75
330
6F
100
AcDbEntity
  8
0
100
AcDbLine
 10
5.0
 20
4.15625
 30
0.0
 11
5.0
 21
4.71875
 31
0.0
  0
LINE
  5
76
330
6F
100
AcDbEntity
  8
0
100
AcDbLine
 10
5.25
 20
5.0
 30
0.0
 11
5.8125
 21
5.0
 31
0.0
  0
LINE
  5
77
330
6F
100
AcDbEntity
  8
0
100
AcDbLine
 10
4.90625
 20
5.0
 30
0.0
 11
5.09375
 21
5.0
 31
0.0
  0
LINE
  5
78
330
6F
100
AcDbEntity
  8
0
100
AcDbLine
 10
4.1875
 20
5.0
 30
0.0
 11
4.75
 21
5.0
 31
0.0
  0
ENDBLK
  5
79
330
6F
100
AcDbEntity
  8
0
100
AcDbBlockEnd
  0
BLOCK
  5
7B
330
7A
100
AcDbEntity
  8
0
100
AcDbBlockBegin
  2
D02
 70
     0
 10
0.0
 20
0.0
 30
0.0
  3
D02
  1

  0
INSERT
  5
7C
330
7A
100
AcDbEntity
  8
DAMAN
 62
     5
100
AcDbBlockReference
  2
100CROSS
 10
2.119267999999999
 20
1.520488999999999
 30
0.0
 41
0.1875
 42
0.1875
  0
INSERT
  5
7D
330
7A
100
AcDbEntity
  8
DAMAN
 62
     5
100
AcDbBlockReference
  2
100CROSS
 10
1.862704
 20
0.646489
 30
0.0
 41
0.171
 42
0.171
  0
INSERT
  5
7E
330
7A
100
AcDbEntity
  8
DAMAN
 62
     5
100
AcDbBlockReference
  2
100CROSS
 10
1.647267999999999
 20
0.7444890000000001
 30
0.0
 41
0.188
 42
0.188
  0
CIRCLE
  5
7F
330
7A
100
AcDbEntity
  8
DAMAN
  6
HIDDEN
 62
     5
100
AcDbCircle
 10
1.647267999999999
 20
0.7444890000000001
 30
0.0
 40
0.095
  0
CIRCLE
  5
80
330
7A
100
AcDbEntity
  8
DAMAN
 62
     5
100
AcDbCircle
 10
1.647267999999999
 20
0.7447390000000001
 30
0.0
 40
0.078
  0
INSERT
  5
81
330
7A
100
AcDbEntity
  8
DAMAN
 62
     5
100
AcDbBlockReference
  2
100CROSS
 10
1.676268
 20
1.689489
 30
0.0
 41
0.188
 42
0.188
  0
CIRCLE
  5
82
330
7A
100
AcDbEntity
  8
DAMAN
 62
     5
100
AcDbCircle
 10
1.676268
 20
1.689489
 30
0.0
 40
0.078
  0
CIRCLE
  5
83
330
7A
100
AcDbEntity
  8
DAMAN
  6
HIDDEN
 62
     5
100
AcDbCircle
 10
1.676268
 20
1.689489
 30
0.0
 40
0.095
  0
INSERT
  5
84
330
7A
100
AcDbEntity
  8
DAMAN
 62
     5
100
AcDbBlockReference
  2
100CROSS
 10
2.591267999999999
 20
0.7444890000000001
 30
0.0
 41
0.188
 42
0.188
  0
CIRCLE
  5
85
330
7A
100
AcDbEntity
  8
DAMAN
  6
HIDDEN
 62
     5
100
AcDbCircle
 10
2.591267999999999
 20
0.7444890000000001
 30
0.0
 40
0.095
  0
CIRCLE
  5
86
330
7A
100
AcDbEntity
  8
DAMAN
 62
     5
100
AcDbCircle
 10
2.591267999999999
 20
0.7447390000000001
 30
0.0
 40
0.078
  0
CIRCLE
  5
87
330
7A
100
AcDbEntity
  8
DAMAN
 62
     5
100
AcDbCircle
 10
2.562267999999999
 20
1.689489
 30
0.0
 40
0.078
  0
INSERT
  5
88
330
7A
100
AcDbEntity
  8
DAMAN
 62
     5
100
AcDbBlockReference
  2
100CROSS
 10
2.562267999999999
 20
1.689489
 30
0.0
 41
0.188
 42
0.188
  0
CIRCLE
  5
89
330
7A
100
AcDbEntity
  8
DAMAN
  6
HIDDEN
 62
     5
100
AcDbCircle
 10
2.562267999999999
 20
1.689489
 30
0.0
 40
0.095
  0
CIRCLE
  5
8A
330
7A
100
AcDbEntity
  8
DAMAN
 62
     5
100
AcDbCircle
 10
2.119267999999999
 20
1.520488999999999
 30
0.0
 40
0.0885
  0
CIRCLE
  5
8B
330
7A
100
AcDbEntity
  8
DAMAN
 62
     5
100
AcDbCircle
 10
2.474267999999999
 20
1.217489
 30
0.0
 40
0.0885
  0
INSERT
  5
8C
330
7A
100
AcDbEntity
  8
DAMAN
 62
     5
100
AcDbBlockReference
  2
100CROSS
 10
2.474267999999999
 20
1.217489
 30
0.0
 41
0.1875
 42
0.1875
  0
CIRCLE
  5
8D
330
7A
100
AcDbEntity
  8
DAMAN
 62
     5
100
AcDbCircle
 10
2.119267999999999
 20
0.913489
 30
0.0
 40
0.0885
  0
INSERT
  5
8E
330
7A
100
AcDbEntity
  8
DAMAN
 62
     5
100
AcDbBlockReference
  2
100CROSS
 10
2.119267999999999
 20
0.913489
 30
0.0
 41
0.1875
 42
0.1875
  0
CIRCLE
  5
8F
330
7A
100
AcDbEntity
  8
DAMAN
 62
     5
100
AcDbCircle
 10
1.765268
 20
1.217489
 30
0.0
 40
0.0885
  0
INSERT
  5
90
330
7A
100
AcDbEntity
  8
DAMAN
 62
     5
100
AcDbBlockReference
  2
100CROSS
 10
1.765268
 20
1.217489
 30
0.0
 41
0.1875
 42
0.1875
  0
CIRCLE
  5
91
330
7A
100
AcDbEntity
  8
DAMAN
 62
     5
100
AcDbCircle
 10
1.862704
 20
0.646489
 30
0.0
 40
0.0885
  0
ENDBLK
  5
92
330
7A
100
AcDbEntity
  8
0
100
AcDbBlockEnd
  0
BLOCK
  5
94
330
93
100
AcDbEntity
  8
0
100
AcDbBlockBegin
  2
D03
 70
     0
 10
0.0
 20
0.0
 30
0.0
  3
D03
  1

  0
INSERT
  5
95
330
93
100
AcDbEntity
  8
DAMAN
100
AcDbBlockReference
  2
100CROSS
 10
0.61
 20
-1.1875
 30
0.0
 41
0.25
 42
0.25
  0
INSERT
  5
96
330
93
100
AcDbEntity
  8
DAMAN
100
AcDbBlockReference
  2
100CROSS
 10
0.61
 20
-0.5
 30
0.0
 41
0.25
 42
0.25
  0
CIRCLE
  5
97
330
93
100
AcDbEntity
  8
DAMAN
100
AcDbCircle
 10
0.61
 20
-0.5
 30
0.0
 40
0.141125
  0
CIRCLE
  5
98
330
93
100
AcDbEntity
  8
DAMAN
100
AcDbCircle
 10
0.61
 20
-1.1875
 30
0.0
 40
0.141125
  0
INSERT
  5
99
330
93
100
AcDbEntity
  8
DAMAN
100
AcDbBlockReference
  2
100CROSS
 10
0.2035
 20
-0.8440000000000001
 30
0.0
 41
0.25
 42
0.25
  0
CIRCLE
  5
9A
330
93
100
AcDbEntity
  8
DAMAN
100
AcDbCircle
 10
0.2035
 20
-0.8440000000000001
 30
0.0
 40
0.141375
  0
INSERT
  5
9B
330
93
100
AcDbEntity
  8
DAMAN
100
AcDbBlockReference
  2
100CROSS
 10
-0.03
 20
-1.3
 30
0.0
 41
0.171
 42
0.171
  0
INSERT
  5
9C
330
93
100
AcDbEntity
  8
DAMAN
100
AcDbBlockReference
  2
100CROSS
 10
-0.03
 20
-1.594
 30
0.0
 41
0.188
 42
0.188
  0
CIRCLE
  5
9D
330
93
100
AcDbEntity
  8
DAMAN
  6
HIDDEN
100
AcDbCircle
 10
-0.03
 20
-1.594
 30
0.0
 40
0.095
  0
CIRCLE
  5
9E
330
93
100
AcDbEntity
  8
DAMAN
100
AcDbCircle
 10
-0.03
 20
-1.59375
 30
0.0
 40
0.078
  0
CIRCLE
  5
9F
330
93
100
AcDbEntity
  8
DAMAN
100
AcDbCircle
 10
-0.03
 20
-1.3
 30
0.0
 40
0.0855
  0
POINT
  5
A0
330
93
100
AcDbEntity
  8
DAMAN
  6
BYBLOCK
 62
     0
100
AcDbPoint
 10
0.20425
 20
-0.75
 30
0.0
  0
POINT
  5
A1
330
93
100
AcDbEntity
  8
DAMAN
  6
BYBLOCK
 62
     0
100
AcDbPoint
 10
0.20425
 20
-0.75
 30
0.0
  0
INSERT
  5
A2
330
93
100
AcDbEntity
  8
DAMAN
100
AcDbBlockReference
  2
100CROSS
 10
0.0
 20
0.0
 30
0.0
 41
0.188
 42
0.188
  0
CIRCLE
  5
A3
330
93
100
AcDbEntity
  8
DAMAN
100
AcDbCircle
 10
0.0
 20
0.0
 30
0.0
 40
0.078
  0
CIRCLE
  5
A4
330
93
100
AcDbEntity
  8
DAMAN
  6
HIDDEN
100
AcDbCircle
 10
0.0
 20
0.0
 30
0.0
 40
0.095
  0
INSERT
  5
A5
330
93
100
AcDbEntity
  8
DAMAN
100
AcDbBlockReference
  2
100CROSS
 10
1.016
 20
-0.8440000000000001
 30
0.0
 41
0.25
 42
0.25
  0
CIRCLE
  5
A6
330
93
100
AcDbEntity
  8
DAMAN
100
AcDbCircle
 10
1.016
 20
-0.8440000000000001
 30
0.0
 40
0.141375
  0
INSERT
  5
A7
330
93
100
AcDbEntity
  8
DAMAN
100
AcDbBlockReference
  2
100CROSS
 10
1.25
 20
-1.594
 30
0.0
 41
0.188
 42
0.188
  0
CIRCLE
  5
A8
330
93
100
AcDbEntity
  8
DAMAN
  6
HIDDEN
100
AcDbCircle
 10
1.25
 20
-1.594
 30
0.0
 40
0.095
  0
CIRCLE
  5
A9
330
93
100
AcDbEntity
  8
DAMAN
100
AcDbCircle
 10
1.25
 20
-1.59375
 30
0.0
 40
0.078
  0
CIRCLE
  5
AA
330
93
100
AcDbEntity
  8
DAMAN
100
AcDbCircle
 10
1.219999999999999
 20
0.0
 30
0.0
 40
0.078
  0
INSERT
  5
AB
330
93
100
AcDbEntity
  8
DAMAN
100
AcDbBlockReference
  2
100CROSS
 10
1.219999999999999
 20
0.0
 30
0.0
 41
0.188
 42
0.188
  0
CIRCLE
  5
AC
330
93
100
AcDbEntity
  8
DAMAN
  6
HIDDEN
100
AcDbCircle
 10
1.219999999999999
 20
0.0
 30
0.0
 40
0.095
  0
ENDBLK
  5
AD
330
93
100
AcDbEntity
  8
0
100
AcDbBlockEnd
  0
BLOCK
  5
AF
330
AE
100
AcDbEntity
  8
0
100
AcDbBlockBegin
  2
D03SF
 70
     0
 10
0.0
 20
0.0
 30
0.0
  3
D03SF
  1

  0
INSERT
  5
B1
330
AE
100
AcDbEntity
  8
DAMAN
100
AcDbBlockReference
  2
D01I
 10
1.21875
 20
0.0
 30
0.0
 41
-1.0
  0
ENDBLK
  5
B2
330
AE
100
AcDbEntity
  8
0
100
AcDbBlockEnd
  0
BLOCK
  5
B3
330
B0
100
AcDbEntity
  8
0
100
AcDbBlockBegin
  2
D01I
 70
     0
 10
9.0625
 20
9.75
 30
0.0
  3
D01I
  1

  0
CIRCLE
  5
B4
330
B0
100
AcDbEntity
  8
CSOLID
100
AcDbCircle
 10
9.03245
 20
8.450385
 30
0.0
 40
0.0625
  0
CIRCLE
  5
B5
330
B0
100
AcDbEntity
  8
CSOLID
100
AcDbCircle
 10
10.07724999999999
 20
8.90625
 30
0.0
 40
0.2189999999999999
  0
CIRCLE
  5
B6
330
B0
100
AcDbEntity
  8
CSOLID
100
AcDbCircle
 10
9.67125
 20
9.250249999999999
 30
0.0
 40
0.2189999999999999
  0
CIRCLE
  5
B7
330
B0
100
AcDbEntity
  8
CSOLID
100
AcDbCircle
 10
9.265249999999999
 20
8.90625
 30
0.0
 40
0.2189999999999999
  0
CIRCLE
  5
B8
330
B0
100
AcDbEntity
  8
CSOLID
100
AcDbCircle
 10
9.67125
 20
8.56225
 30
0.0
 40
0.2189999999999999
  0
CIRCLE
  5
B9
330
B0
100
AcDbEntity
  8
CSOLID
100
AcDbCircle
 10
9.03125
 20
8.15625
 30
0.0
 40
0.1095
  0
CIRCLE
  5
BA
330
B0
100
AcDbEntity
  8
CSOLID
100
AcDbCircle
 10
10.3125
 20
8.15625
 30
0.0
 40
0.1095
  0
CIRCLE
  5
BB
330
B0
100
AcDbEntity
  8
CSOLID
100
AcDbCircle
 10
10.28124999999999
 20
9.75
 30
0.0
 40
0.1095
  0
CIRCLE
  5
BC
330
B0
100
AcDbEntity
  8
CSOLID
100
AcDbCircle
 10
9.0625
 20
9.75
 30
0.0
 40
0.1095
  0
CIRCLE
  5
BD
330
B0
100
AcDbEntity
  8
CSOLID
100
AcDbCircle
 10
9.672499999999999
 20
9.25
 30
0.0
 40
0.125
  0
CIRCLE
  5
BE
330
B0
100
AcDbEntity
  8
CSOLID
100
AcDbCircle
 10
10.0785
 20
8.906
 30
0.0
 40
0.125
  0
CIRCLE
  5
BF
330
B0
100
AcDbEntity
  8
CSOLID
100
AcDbCircle
 10
9.266
 20
8.906
 30
0.0
 40
0.125
  0
CIRCLE
  5
C0
330
B0
100
AcDbEntity
  8
CSOLID
100
AcDbCircle
 10
9.672499999999999
 20
8.5625
 30
0.0
 40
0.125
  0
INSERT
  5
C1
330
B0
100
AcDbEntity
  8
CCENTER
100
AcDbBlockReference
  2
100CROSS
 10
9.0325
 20
8.449999999999999
 30
0.0
 41
0.171
 42
0.171
  0
INSERT
  5
C2
330
B0
100
AcDbEntity
  8
CCENTER
100
AcDbBlockReference
  2
100CROSS
 10
9.670999999999999
 20
8.562000000000001
 30
0.0
 41
0.4
 42
0.4
  0
INSERT
  5
C3
330
B0
100
AcDbEntity
  8
CCENTER
100
AcDbBlockReference
  2
100CROSS
 10
10.0775
 20
8.906
 30
0.0
 41
0.4
 42
0.4
  0
INSERT
  5
C4
330
B0
100
AcDbEntity
  8
CCENTER
100
AcDbBlockReference
  2
100CROSS
 10
9.670999999999999
 20
9.25
 30
0.0
 41
0.4
 42
0.4
  0
INSERT
  5
C5
330
B0
100
AcDbEntity
  8
CCENTER
100
AcDbBlockReference
  2
100CROSS
 10
9.265
 20
8.906
 30
0.0
 41
0.4
 42
0.4
  0
INSERT
  5
C6
330
B0
100
AcDbEntity
  8
CCENTER
100
AcDbBlockReference
  2
100CROSS
 10
9.03125
 20
8.15625
 30
0.0
 41
0.34
 42
0.34
 43
0.34
  0
INSERT
  5
C7
330
B0
100
AcDbEntity
  8
CCENTER
100
AcDbBlockReference
  2
100CROSS
 10
10.3125
 20
8.15625
 30
0.0
 41
0.34
 42
0.34
 43
0.34
  0
INSERT
  5
C8
330
B0
100
AcDbEntity
  8
CCENTER
100
AcDbBlockReference
  2
100CROSS
 10
10.28124999999999
 20
9.75
 30
0.0
 41
0.34
 42
0.34
 43
0.34
  0
INSERT
  5
C9
330
B0
100
AcDbEntity
  8
CCENTER
100
AcDbBlockReference
  2
100CROSS
 10
9.0625
 20
9.75
 30
0.0
 41
0.34
 42
0.34
 43
0.34
  0
ENDBLK
  5
CA
330
B0
100
AcDbEntity
  8
0
100
AcDbBlockEnd
  0
BLOCK
  5
CC
330
CB
100
AcDbEntity
  8
0
100
AcDbBlockBegin
  2
012NPTFT
 70
     0
 10
0.0
 20
0.0
 30
0.0
  3
012NPTFT
  1

  0
CIRCLE
  5
CD
330
CB
100
AcDbEntity
  8
DAMAN
  6
HIDDEN
100
AcDbCircle
 10
0.0
 20
0.0
 30
0.0
 40
0.1875
  0
CIRCLE
  5
CE
330
CB
100
AcDbEntity
  8
DAMAN
100
AcDbCircle
 10
0.0
 20
0.0
 30
0.0
 40
0.2105
  0
CIRCLE
  5
CF
330
CB
100
AcDbEntity
  8
DAMAN
100
AcDbCircle
 10
0.0
 20
0.0
 30
0.0
 40
0.1695
  0
INSERT
  5
D0
330
CB
100
AcDbEntity
  8
DAMAN
100
AcDbBlockReference
  2
100CROSS
 10
0.0
 20
0.0
 30
0.0
 41
0.43
 42
0.43
  0
ENDBLK
  5
D1
330
CB
100
AcDbEntity
  8
0
100
AcDbBlockEnd
  0
BLOCK
  5
D3
330
D2
100
AcDbEntity
  8
0
100
AcDbBlockBegin
  2
S06
 70
     0
 10
0.0
 20
0.0
 30
0.0
  3
S06
  1

  0
CIRCLE
  5
D4
330
D2
100
AcDbEntity
  8
DAMAN
100
AcDbCircle
 10
1.919961999999999
 20
1.510945999999999
 30
0.0
 40
0.203
  0
CIRCLE
  5
D5
330
D2
100
AcDbEntity
  8
DAMAN
100
AcDbCircle
 10
4.794961999999999
 20
1.510945999999999
 30
0.0
 40
0.203
  0
CIRCLE
  5
D6
330
D2
100
AcDbEntity
  8
DAMAN
100
AcDbCircle
 10
4.794961999999999
 20
4.885945999999999
 30
0.0
 40
0.203
  0
CIRCLE
  5
D7
330
D2
100
AcDbEntity
  8
DAMAN
100
AcDbCircle
 10
1.919961999999999
 20
4.885945999999999
 30
0.0
 40
0.203
  0
CIRCLE
  5
D8
330
D2
100
AcDbEntity
  8
DAMAN
100
AcDbCircle
 10
3.359962
 20
4.195946
 30
0.0
 40
0.34375
  0
CIRCLE
  5
D9
330
D2
100
AcDbEntity
  8
DAMAN
100
AcDbCircle
 10
2.359961999999999
 20
3.195945999999999
 30
0.0
 40
0.34375
  0
CIRCLE
  5
DA
330
D2
100
AcDbEntity
  8
DAMAN
100
AcDbCircle
 10
3.359962
 20
2.195945999999999
 30
0.0
 40
0.34375
  0
CIRCLE
  5
DB
330
D2
100
AcDbEntity
  8
DAMAN
100
AcDbCircle
 10
4.359962
 20
3.195945999999999
 30
0.0
 40
0.34375
  0
CIRCLE
  5
DC
330
D2
100
AcDbEntity
  8
DAMAN
100
AcDbCircle
 10
2.609961999999999
 20
1.698445999999999
 30
0.0
 40
0.125
  0
CIRCLE
  5
DD
330
D2
100
AcDbEntity
  8
DAMAN
100
AcDbCircle
 10
4.359962
 20
2.445945999999999
 30
0.0
 40
0.08
  0
LINE
  5
DE
330
D2
100
AcDbEntity
  8
DAMAN
  6
CENTER
100
AcDbLine
 10
2.922461999999999
 20
4.195946
 30
0.0
 11
3.797462
 21
4.195946
 31
0.0
  0
LINE
  5
DF
330
D2
100
AcDbEntity
  8
DAMAN
  6
CENTER
100
AcDbLine
 10
3.359962
 20
3.758445999999999
 30
0.0
 11
3.359962
 21
4.633446
 31
0.0
  0
LINE
  5
E0
330
D2
100
AcDbEntity
  8
DAMAN
  6
CENTER
100
AcDbLine
 10
1.922461999999999
 20
3.195945999999999
 30
0.0
 11
2.797461999999999
 21
3.195945999999999
 31
0.0
  0
LINE
  5
E1
330
D2
100
AcDbEntity
  8
DAMAN
  6
CENTER
100
AcDbLine
 10
2.359961999999999
 20
2.758445999999999
 30
0.0
 11
2.359961999999999
 21
3.633445999999999
 31
0.0
  0
LINE
  5
E2
330
D2
100
AcDbEntity
  8
DAMAN
  6
CENTER
100
AcDbLine
 10
2.922461999999999
 20
2.195945999999999
 30
0.0
 11
3.797462
 21
2.195945999999999
 31
0.0
  0
LINE
  5
E3
330
D2
100
AcDbEntity
  8
DAMAN
  6
CENTER
100
AcDbLine
 10
3.359962
 20
1.758445999999999
 30
0.0
 11
3.359962
 21
2.633445999999999
 31
0.0
  0
LINE
  5
E4
330
D2
100
AcDbEntity
  8
DAMAN
  6
CENTER
100
AcDbLine
 10
3.922462
 20
3.195945999999999
 30
0.0
 11
4.797462
 21
3.195945999999999
 31
0.0
  0
LINE
  5
E5
330
D2
100
AcDbEntity
  8
DAMAN
  6
CENTER
100
AcDbLine
 10
4.359962
 20
2.758445999999999
 30
0.0
 11
4.359962
 21
3.633445999999999
 31
0.0
  0
LINE
  5
E6
330
D2
100
AcDbEntity
  8
DAMAN
  6
CENTER
100
AcDbLine
 10
4.357461999999999
 20
4.885945999999999
 30
0.0
 11
5.232461999999999
 21
4.885945999999999
 31
0.0
  0
LINE
  5
E7
330
D2
100
AcDbEntity
  8
DAMAN
  6
CENTER
100
AcDbLine
 10
4.794961999999999
 20
4.448445999999999
 30
0.0
 11
4.794961999999999
 21
5.323445999999999
 31
0.0
  0
LINE
  5
E8
330
D2
100
AcDbEntity
  8
DAMAN
  6
CENTER
100
AcDbLine
 10
1.482462
 20
4.885945999999999
 30
0.0
 11
2.357461999999999
 21
4.885945999999999
 31
0.0
  0
LINE
  5
E9
330
D2
100
AcDbEntity
  8
DAMAN
  6
CENTER
100
AcDbLine
 10
1.919961999999999
 20
4.448445999999999
 30
0.0
 11
1.919961999999999
 21
5.323445999999999
 31
0.0
  0
LINE
  5
EA
330
D2
100
AcDbEntity
  8
DAMAN
  6
CENTER
100
AcDbLine
 10
1.482462
 20
1.510945999999999
 30
0.0
 11
2.357461999999999
 21
1.510945999999999
 31
0.0
  0
LINE
  5
EB
330
D2
100
AcDbEntity
  8
DAMAN
  6
CENTER
100
AcDbLine
 10
1.919961999999999
 20
1.073445999999999
 30
0.0
 11
1.919961999999999
 21
1.948445999999999
 31
0.0
  0
LINE
  5
EC
330
D2
100
AcDbEntity
  8
DAMAN
  6
CENTER
100
AcDbLine
 10
4.357461999999999
 20
1.510945999999999
 30
0.0
 11
5.232461999999999
 21
1.510945999999999
 31
0.0
  0
LINE
  5
ED
330
D2
100
AcDbEntity
  8
DAMAN
  6
CENTER
100
AcDbLine
 10
4.794961999999999
 20
1.073445999999999
 30
0.0
 11
4.794961999999999
 21
1.948445999999999
 31
0.0
  0
LINE
  5
EE
330
D2
100
AcDbEntity
  8
DAMAN
  6
CENTER
100
AcDbLine
 10
4.141212
 20
2.445945999999999
 30
0.0
 11
4.578712
 21
2.445945999999999
 31
0.0
  0
LINE
  5
EF
330
D2
100
AcDbEntity
  8
DAMAN
  6
CENTER
100
AcDbLine
 10
4.359962
 20
2.227195999999999
 30
0.0
 11
4.359962
 21
2.664695999999999
 31
0.0
  0
LINE
  5
F0
330
D2
100
AcDbEntity
  8
DAMAN
  6
CENTER
100
AcDbLine
 10
2.391211999999999
 20
1.698445999999999
 30
0.0
 11
2.828711999999999
 21
1.698445999999999
 31
0.0
  0
LINE
  5
F1
330
D2
100
AcDbEntity
  8
DAMAN
  6
CENTER
100
AcDbLine
 10
2.609961999999999
 20
1.479695999999999
 30
0.0
 11
2.609961999999999
 21
1.917195999999999
 31
0.0
  0
POINT
  5
F2
330
D2
100
AcDbEntity
  8
DAMAN
100
AcDbPoint
 10
3.359962
 20
2.195945999999999
 30
0.0
  0
ENDBLK
  5
F3
330
D2
100
AcDbEntity
  8
0
100
AcDbBlockEnd
  0
BLOCK
  5
F5
330
F4
100
AcDbEntity
  8
0
100
AcDbBlockBegin
  2
S06SF
 70
     0
 10
0.0
 20
0.0
 30
0.0
  3
S06SF
  1

  0
CIRCLE
  5
F6
330
F4
100
AcDbEntity
  8
DAMAN
100
AcDbCircle
 10
4.826945999999999
 20
1.510945999999999
 30
0.0
 40
0.203
  0
CIRCLE
  5
F7
330
F4
100
AcDbEntity
  8
DAMAN
100
AcDbCircle
 10
1.951945999999999
 20
1.510945999999999
 30
0.0
 40
0.203
  0
CIRCLE
  5
F8
330
F4
100
AcDbEntity
  8
DAMAN
100
AcDbCircle
 10
1.951945999999999
 20
4.885945999999999
 30
0.0
 40
0.203
  0
CIRCLE
  5
F9
330
F4
100
AcDbEntity
  8
DAMAN
100
AcDbCircle
 10
4.826945999999999
 20
4.885945999999999
 30
0.0
 40
0.203
  0
CIRCLE
  5
FA
330
F4
100
AcDbEntity
  8
DAMAN
100
AcDbCircle
 10
3.386946
 20
4.195946
 30
0.0
 40
0.34375
  0
CIRCLE
  5
FB
330
F4
100
AcDbEntity
  8
DAMAN
100
AcDbCircle
 10
4.386946
 20
3.195945999999999
 30
0.0
 40
0.34375
  0
CIRCLE
  5
FC
330
F4
100
AcDbEntity
  8
DAMAN
100
AcDbCircle
 10
3.386946
 20
2.195945999999999
 30
0.0
 40
0.34375
  0
CIRCLE
  5
FD
330
F4
100
AcDbEntity
  8
DAMAN
100
AcDbCircle
 10
2.386946
 20
3.195945999999999
 30
0.0
 40
0.34375
  0
CIRCLE
  5
FE
330
F4
100
AcDbEntity
  8
DAMAN
100
AcDbCircle
 10
2.386946
 20
2.445945999999999
 30
0.0
 40
0.08
  0
LINE
  5
FF
330
F4
100
AcDbEntity
  8
DAMAN
  6
CENTER
100
AcDbLine
 10
4.043196
 20
4.195946
 30
0.0
 11
2.730696
 21
4.195946
 31
0.0
  0
LINE
  5
100
330
F4
100
AcDbEntity
  8
DAMAN
  6
CENTER
100
AcDbLine
 10
3.386946
 20
3.539695999999999
 30
0.0
 11
3.386946
 21
4.852196
 31
0.0
  0
LINE
  5
101
330
F4
100
AcDbEntity
  8
DAMAN
  6
CENTER
100
AcDbLine
 10
5.043196
 20
3.195945999999999
 30
0.0
 11
3.730696
 21
3.195945999999999
 31
0.0
  0
LINE
  5
102
330
F4
100
AcDbEntity
  8
DAMAN
  6
CENTER
100
AcDbLine
 10
4.386946
 20
2.539695999999999
 30
0.0
 11
4.386946
 21
3.852195999999999
 31
0.0
  0
LINE
  5
103
330
F4
100
AcDbEntity
  8
DAMAN
  6
CENTER
100
AcDbLine
 10
4.043196
 20
2.195945999999999
 30
0.0
 11
2.730696
 21
2.195945999999999
 31
0.0
  0
LINE
  5
104
330
F4
100
AcDbEntity
  8
DAMAN
  6
CENTER
100
AcDbLine
 10
3.386946
 20
1.539695999999999
 30
0.0
 11
3.386946
 21
2.852195999999999
 31
0.0
  0
LINE
  5
105
330
F4
100
AcDbEntity
  8
DAMAN
  6
CENTER
100
AcDbLine
 10
3.043196
 20
3.195945999999999
 30
0.0
 11
1.730696
 21
3.195945999999999
 31
0.0
  0
LINE
  5
106
330
F4
100
AcDbEntity
  8
DAMAN
  6
CENTER
100
AcDbLine
 10
2.386946
 20
2.539695999999999
 30
0.0
 11
2.386946
 21
3.852195999999999
 31
0.0
  0
LINE
  5
107
330
F4
100
AcDbEntity
  8
DAMAN
  6
CENTER
100
AcDbLine
 10
2.389445999999999
 20
4.885945999999999
 30
0.0
 11
1.514445999999999
 21
4.885945999999999
 31
0.0
  0
LINE
  5
108
330
F4
100
AcDbEntity
  8
DAMAN
  6
CENTER
100
AcDbLine
 10
1.951945999999999
 20
4.448445999999999
 30
0.0
 11
1.951945999999999
 21
5.323445999999999
 31
0.0
  0
LINE
  5
109
330
F4
100
AcDbEntity
  8
DAMAN
  6
CENTER
100
AcDbLine
 10
5.264445999999999
 20
4.885945999999999
 30
0.0
 11
4.389445999999999
 21
4.885945999999999
 31
0.0
  0
LINE
  5
10A
330
F4
100
AcDbEntity
  8
DAMAN
  6
CENTER
100
AcDbLine
 10
4.826945999999999
 20
4.448445999999999
 30
0.0
 11
4.826945999999999
 21
5.323445999999999
 31
0.0
  0
LINE
  5
10B
330
F4
100
AcDbEntity
  8
DAMAN
  6
CENTER
100
AcDbLine
 10
5.264445999999999
 20
1.510945999999999
 30
0.0
 11
4.389445999999999
 21
1.510945999999999
 31
0.0
  0
LINE
  5
10C
330
F4
100
AcDbEntity
  8
DAMAN
  6
CENTER
100
AcDbLine
 10
4.826945999999999
 20
1.073445999999999
 30
0.0
 11
4.826945999999999
 21
1.948445999999999
 31
0.0
  0
LINE
  5
10D
330
F4
100
AcDbEntity
  8
DAMAN
  6
CENTER
100
AcDbLine
 10
2.389445999999999
 20
1.510945999999999
 30
0.0
 11
1.514445999999999
 21
1.510945999999999
 31
0.0
  0
LINE
  5
10E
330
F4
100
AcDbEntity
  8
DAMAN
  6
CENTER
100
AcDbLine
 10
1.951945999999999
 20
1.073445999999999
 30
0.0
 11
1.951945999999999
 21
1.948445999999999
 31
0.0
  0
LINE
  5
10F
330
F4
100
AcDbEntity
  8
DAMAN
  6
CENTER
100
AcDbLine
 10
2.605696
 20
2.445945999999999
 30
0.0
 11
2.168196
 21
2.445945999999999
 31
0.0
  0
LINE
  5
110
330
F4
100
AcDbEntity
  8
DAMAN
  6
CENTER
100
AcDbLine
 10
2.386946
 20
2.227195999999999
 30
0.0
 11
2.386946
 21
2.664695999999999
 31
0.0
  0
POINT
  5
111
330
F4
100
AcDbEntity
  8
DAMAN
100
AcDbPoint
 10
3.386946
 20
2.195945999999999
 30
0.0
  0
CIRCLE
  5
112
330
F4
100
AcDbEntity
  8
DAMAN
100
AcDbCircle
 10
3.386946
 20
4.195946
 30
0.0
 40
0.5
  0
CIRCLE
  5
113
330
F4
100
AcDbEntity
  8
DAMAN
100
AcDbCircle
 10
4.386946
 20
3.195945999999999
 30
0.0
 40
0.5
  0
CIRCLE
  5
114
330
F4
100
AcDbEntity
  8
DAMAN
100
AcDbCircle
 10
3.386946
 20
2.195945999999999
 30
0.0
 40
0.5
  0
CIRCLE
  5
115
330
F4
100
AcDbEntity
  8
DAMAN
100
AcDbCircle
 10
2.386946
 20
3.195945999999999
 30
0.0
 40
0.5
  0
ENDBLK
  5
116
330
F4
100
AcDbEntity
  8
0
100
AcDbBlockEnd
  0
BLOCK
  5
118
330
117
100
AcDbEntity
  8
0
100
AcDbBlockBegin
  2
04SAET
 70
     0
 10
0.0
 20
0.0
 30
0.0
  3
04SAET
  1

  0
CIRCLE
  5
119
330
117
100
AcDbEntity
  8
DAMAN
100
AcDbCircle
 10
0.0
 20
0.0
 30
0.0
 40
0.4375
  0
INSERT
  5
11A
330
117
100
AcDbEntity
  8
DAMAN
100
AcDbBlockReference
  2
100CROSS
 10
0.0
 20
0.0
 30
0.0
 41
0.8
 42
0.8
  0
CIRCLE
  5
11B
330
117
100
AcDbEntity
  8
DAMAN
  6
HIDDEN
100
AcDbCircle
 10
0.0
 20
0.0
 30
0.0
 40
0.21875
  0
CIRCLE
  5
11C
330
117
100
AcDbEntity
  8
DAMAN
100
AcDbCircle
 10
0.0
 20
0.0
 30
0.0
 40
0.1875
  0
CIRCLE
  5
11D
330
117
100
AcDbEntity
  8
DAMAN
100
AcDbCircle
 10
0.0
 20
0.0
 30
0.0
 40
0.2435
  0
ENDBLK
  5
11E
330
117
100
AcDbEntity
  8
0
100
AcDbBlockEnd
  0
BLOCK
  5
120
330
11F
100
AcDbEntity
  8
0
100
AcDbBlockBegin
  2
025BSPPT
 70
     0
 10
0.0
 20
0.0
 30
0.0
  3
025BSPPT
  1

  0
CIRCLE
  5
121
330
11F
100
AcDbEntity
  8
DAMAN
100
AcDbCircle
 10
0.0
 20
0.0
 30
0.0
 40
0.425
  0
CIRCLE
  5
122
330
11F
100
AcDbEntity
  8
DAMAN
100
AcDbCircle
 10
0.0
 20
0.0
 30
0.0
 40
0.225
  0
CIRCLE
  5
123
330
11F
100
AcDbEntity
  8
DAMAN
100
AcDbCircle
 10
0.0
 20
0.0
 30
0.0
 40
0.26
  0
INSERT
  5
124
330
11F
100
AcDbEntity
  8
DAMAN
100
AcDbBlockReference
  2
100CROSS
 10
0.0
 20
0.0
 30
0.0
 41
0.7480000000000001
 42
0.7480000000000001
  0
ENDBLK
  5
125
330
11F
100
AcDbEntity
  8
0
100
AcDbBlockEnd
  0
BLOCK
  5
127
330
126
100
AcDbEntity
  8
0
100
AcDbBlockBegin
  2
0375BSPPT
 70
     0
 10
0.0
 20
0.0
 30
0.0
  3
0375BSPPT
  1

  0
CIRCLE
  5
128
330
126
100
AcDbEntity
  8
CSOLID
  6
HIDDEN
100
AcDbCircle
 10
0.0
 20
0.0
 30
0.0
 40
0.3279999999999999
  0
CIRCLE
  5
129
330
126
100
AcDbEntity
  8
CSOLID
100
AcDbCircle
 10
0.0
 20
0.0
 30
0.0
 40
0.3325
  0
CIRCLE
  5
12A
330
126
100
AcDbEntity
  8
CSOLID
100
AcDbCircle
 10
0.0
 20
0.0
 30
0.0
 40
0.3035
  0
CIRCLE
  5
12B
330
126
100
AcDbEntity
  8
CSOLID
100
AcDbCircle
 10
0.0
 20
0.0
 30
0.0
 40
0.51
  0
INSERT
  5
12C
330
126
100
AcDbEntity
  8
DAMAN
100
AcDbBlockReference
  2
100CROSS
 10
0.0
 20
0.0
 30
0.0
 41
0.88
 42
0.88
  0
ENDBLK
  5
12D
330
126
100
AcDbEntity
  8
0
100
AcDbBlockEnd
  0
BLOCK
  5
12F
330
12E
100
AcDbEntity
  8
0
100
AcDbBlockBegin
  2
D05W
 70
     0
 10
0.0
 20
0.0
 30
0.0
  3
D05W
  1

  0
INSERT
  5
130
330
12E
100
AcDbEntity
  8
DAMAN
100
AcDbBlockReference
  2
100CROSS
 10
0.5310000000000001
 20
-2.0
 30
0.0
 41
0.4379999999999999
 42
0.4379999999999999
  0
CIRCLE
  5
131
330
12E
100
AcDbEntity
  8
DAMAN
100
AcDbCircle
 10
0.0
 20
-2.125
 30
0.0
 40
0.1405
  0
CIRCLE
  5
132
330
12E
100
AcDbEntity
  8
DAMAN
100
AcDbCircle
 10
1.8125
 20
-2.125
 30
0.0
 40
0.1405
  0
CIRCLE
  5
133
330
12E
100
AcDbEntity
  8
DAMAN
100
AcDbCircle
 10
0.5310000000000001
 20
-2.0
 30
0.0
 40
0.21875
  0
INSERT
  5
134
330
12E
100
AcDbEntity
  8
DAMAN
100
AcDbBlockReference
  2
050CROSS
 10
0.0
 20
-2.125
 30
0.0
 41
0.4060000000000001
 42
0.4060000000000001
  0
INSERT
  5
135
330
12E
100
AcDbEntity
  8
DAMAN
100
AcDbBlockReference
  2
050CROSS
 10
1.8125
 20
-2.125
 30
0.0
 41
0.4060000000000001
 42
0.4060000000000001
  0
INSERT
  5
136
330
12E
100
AcDbEntity
  8
DAMAN
100
AcDbBlockReference
  2
100CROSS
 10
0.9685
 20
-1.468499999999999
 30
0.0
 41
0.4379999999999999
 42
0.4379999999999999
  0
INSERT
  5
137
330
12E
100
AcDbEntity
  8
DAMAN
100
AcDbBlockReference
  2
100CROSS
 10
0.9685
 20
-0.6559999999999999
 30
0.0
 41
0.4379999999999999
 42
0.4379999999999999
  0
CIRCLE
  5
138
330
12E
100
AcDbEntity
  8
DAMAN
100
AcDbCircle
 10
0.9685
 20
-1.468499999999999
 30
0.0
 40
0.21875
  0
CIRCLE
  5
139
330
12E
100
AcDbEntity
  8
DAMAN
100
AcDbCircle
 10
0.9685
 20
-0.6559999999999999
 30
0.0
 40
0.21875
  0
CIRCLE
  5
13A
330
12E
100
AcDbEntity
  8
DAMAN
100
AcDbCircle
 10
0.0
 20
0.0
 30
0.0
 40
0.1405
  0
INSERT
  5
13B
330
12E
100
AcDbEntity
  8
DAMAN
100
AcDbBlockReference
  2
050CROSS
 10
0.0
 20
0.0
 30
0.0
 41
0.4060000000000001
 42
0.4060000000000001
  0
INSERT
  5
13C
330
12E
100
AcDbEntity
  8
DAMAN
100
AcDbBlockReference
  2
100CROSS
 10
0.5310000000000001
 20
-0.125
 30
0.0
 41
0.4379999999999999
 42
0.4379999999999999
  0
CIRCLE
  5
13D
330
12E
100
AcDbEntity
  8
DAMAN
100
AcDbCircle
 10
0.5310000000000001
 20
-0.125
 30
0.0
 40
0.21875
  0
INSERT
  5
13E
330
12E
100
AcDbEntity
  8
DAMAN
100
AcDbBlockReference
  2
100CROSS
 10
1.5625
 20
-1.062249999999999
 30
0.0
 41
0.4379999999999999
 42
0.4379999999999999
  0
CIRCLE
  5
13F
330
12E
100
AcDbEntity
  8
DAMAN
100
AcDbCircle
 10
1.5625
 20
-1.062249999999999
 30
0.0
 40
0.21875
  0
INSERT
  5
140
330
12E
100
AcDbEntity
  8
DAMAN
100
AcDbBlockReference
  2
050CROSS
 10
1.8125
 20
0.0
 30
0.0
 41
0.4060000000000001
 42
0.4060000000000001
  0
CIRCLE
  5
141
330
12E
100
AcDbEntity
  8
DAMAN
100
AcDbCircle
 10
1.8125
 20
0.0
 30
0.0
 40
0.1405
  0
ENDBLK
  5
142
330
12E
100
AcDbEntity
  8
0
100
AcDbBlockEnd
  0
BLOCK
  5
144
330
143
100
AcDbEntity
  8
0
100
AcDbBlockBegin
  2
D05HE
 70
     0
 10
0.0
 20
0.0
 30
0.0
  3
D05HE
  1

  0
INSERT
  5
145
330
143
100
AcDbEntity
  8
DAMAN
100
AcDbBlockReference
  2
100CROSS
 10
6.40625
 20
3.28175
 30
0.0
 41
0.25
 42
0.25
  0
CIRCLE
  5
146
330
143
100
AcDbEntity
  8
DAMAN
  6
HIDDEN
100
AcDbCircle
 10
6.84375
 20
5.71875
 30
0.0
 40
0.125
  0
CIRCLE
  5
147
330
143
100
AcDbEntity
  8
DAMAN
  6
HIDDEN
100
AcDbCircle
 10
6.84375
 20
3.59375
 30
0.0
 40
0.125
  0
CIRCLE
  5
148
330
143
100
AcDbEntity
  8
DAMAN
  6
HIDDEN
100
AcDbCircle
 10
5.03125
 20
5.71875
 30
0.0
 40
0.125
  0
CIRCLE
  5
149
330
143
100
AcDbEntity
  8
DAMAN
  6
HIDDEN
100
AcDbCircle
 10
5.03125
 20
3.59375
 30
0.0
 40
0.125
  0
INSERT
  5
14A
330
143
100
AcDbEntity
  8
DAMAN
100
AcDbBlockReference
  2
100CROSS
 10
5.03125
 20
5.71875
 30
0.0
 41
0.25
 42
0.25
  0
CIRCLE
  5
14B
330
143
100
AcDbEntity
  8
DAMAN
100
AcDbCircle
 10
5.03125
 20
5.71875
 30
0.0
 40
0.1055
  0
CIRCLE
  5
14C
330
143
100
AcDbEntity
  8
DAMAN
100
AcDbCircle
 10
5.03125
 20
3.59375
 30
0.0
 40
0.1055
  0
INSERT
  5
14D
330
143
100
AcDbEntity
  8
DAMAN
100
AcDbBlockReference
  2
100CROSS
 10
5.03125
 20
3.59375
 30
0.0
 41
0.25
 42
0.25
  0
CIRCLE
  5
14E
330
143
100
AcDbEntity
  8
DAMAN
100
AcDbCircle
 10
6.84375
 20
5.71875
 30
0.0
 40
0.1055
  0
INSERT
  5
14F
330
143
100
AcDbEntity
  8
DAMAN
100
AcDbBlockReference
  2
100CROSS
 10
6.84375
 20
5.71875
 30
0.0
 41
0.25
 42
0.25
  0
CIRCLE
  5
150
330
143
100
AcDbEntity
  8
DAMAN
100
AcDbCircle
 10
6.84375
 20
3.59375
 30
0.0
 40
0.1055
  0
INSERT
  5
151
330
143
100
AcDbEntity
  8
DAMAN
100
AcDbBlockReference
  2
100CROSS
 10
6.84375
 20
3.59375
 30
0.0
 41
0.25
 42
0.25
  0
INSERT
  5
152
330
143
100
AcDbEntity
  8
DAMAN
100
AcDbBlockReference
  2
100CROSS
 10
5.562249999999999
 20
5.59375
 30
0.0
 41
0.4379999999999999
 42
0.4379999999999999
  0
CIRCLE
  5
153
330
143
100
AcDbEntity
  8
DAMAN
100
AcDbCircle
 10
5.562249999999999
 20
5.59375
 30
0.0
 40
0.21875
  0
CIRCLE
  5
154
330
143
100
AcDbEntity
  8
DAMAN
100
AcDbCircle
 10
5.999749999999999
 20
5.06275
 30
0.0
 40
0.21875
  0
INSERT
  5
155
330
143
100
AcDbEntity
  8
DAMAN
100
AcDbBlockReference
  2
100CROSS
 10
5.999749999999999
 20
5.06275
 30
0.0
 41
0.4379999999999999
 42
0.4379999999999999
  0
INSERT
  5
156
330
143
100
AcDbEntity
  8
DAMAN
100
AcDbBlockReference
  2
100CROSS
 10
5.999749999999999
 20
4.25025
 30
0.0
 41
0.4379999999999999
 42
0.4379999999999999
  0
CIRCLE
  5
157
330
143
100
AcDbEntity
  8
DAMAN
100
AcDbCircle
 10
5.999749999999999
 20
4.25025
 30
0.0
 40
0.21875
  0
CIRCLE
  5
158
330
143
100
AcDbEntity
  8
DAMAN
100
AcDbCircle
 10
6.59375
 20
4.6565
 30
0.0
 40
0.21875
  0
INSERT
  5
159
330
143
100
AcDbEntity
  8
DAMAN
100
AcDbBlockReference
  2
100CROSS
 10
6.59375
 20
4.6565
 30
0.0
 41
0.4379999999999999
 42
0.4379999999999999
  0
CIRCLE
  5
15A
330
143
100
AcDbEntity
  8
DAMAN
100
AcDbCircle
 10
5.562249999999999
 20
3.71925
 30
0.0
 40
0.21875
  0
INSERT
  5
15B
330
143
100
AcDbEntity
  8
DAMAN
100
AcDbBlockReference
  2
100CROSS
 10
5.562249999999999
 20
3.71925
 30
0.0
 41
-0.4379999999999999
 42
0.4379999999999999
 50
180.0
  0
CIRCLE
  5
15C
330
143
100
AcDbEntity
  8
DAMAN
100
AcDbCircle
 10
6.40625
 20
3.28175
 30
0.0
 40
0.136
  0
CIRCLE
  5
15D
330
143
100
AcDbEntity
  8
DAMAN
100
AcDbCircle
 10
6.40625
 20
6.03125
 30
0.0
 40
0.136
  0
INSERT
  5
15E
330
143
100
AcDbEntity
  8
DAMAN
100
AcDbBlockReference
  2
100CROSS
 10
6.40625
 20
6.03125
 30
0.0
 41
-0.25
 42
0.25
 50
180.0
  0
ENDBLK
  5
15F
330
143
100
AcDbEntity
  8
0
100
AcDbBlockEnd
  0
BLOCK
  5
161
330
160
100
AcDbEntity
  8
0
100
AcDbBlockBegin
  2
D05HH
 70
     0
 10
0.0
 20
0.0
 30
0.0
  3
D05HH
  1

  0
CIRCLE
  5
162
330
160
100
AcDbEntity
  8
DAMAN
  6
HIDDEN
100
AcDbCircle
 10
1.8125
 20
0.0
 30
0.0
 40
0.125
  0
CIRCLE
  5
163
330
160
100
AcDbEntity
  8
DAMAN
  6
HIDDEN
100
AcDbCircle
 10
1.8125
 20
-2.125
 30
0.0
 40
0.125
  0
CIRCLE
  5
164
330
160
100
AcDbEntity
  8
DAMAN
  6
HIDDEN
100
AcDbCircle
 10
0.0
 20
0.0
 30
0.0
 40
0.125
  0
CIRCLE
  5
165
330
160
100
AcDbEntity
  8
DAMAN
  6
HIDDEN
100
AcDbCircle
 10
0.0
 20
-2.125
 30
0.0
 40
0.125
  0
INSERT
  5
166
330
160
100
AcDbEntity
  8
DAMAN
100
AcDbBlockReference
  2
100CROSS
 10
0.0
 20
0.0
 30
0.0
 41
0.25
 42
0.25
  0
CIRCLE
  5
167
330
160
100
AcDbEntity
  8
DAMAN
100
AcDbCircle
 10
0.0
 20
0.0
 30
0.0
 40
0.1055
  0
CIRCLE
  5
168
330
160
100
AcDbEntity
  8
DAMAN
100
AcDbCircle
 10
0.0
 20
-2.125
 30
0.0
 40
0.1055
  0
INSERT
  5
169
330
160
100
AcDbEntity
  8
DAMAN
100
AcDbBlockReference
  2
100CROSS
 10
0.0
 20
-2.125
 30
0.0
 41
0.25
 42
0.25
  0
CIRCLE
  5
16A
330
160
100
AcDbEntity
  8
DAMAN
100
AcDbCircle
 10
1.8125
 20
0.0
 30
0.0
 40
0.1055
  0
INSERT
  5
16B
330
160
100
AcDbEntity
  8
DAMAN
100
AcDbBlockReference
  2
100CROSS
 10
1.8125
 20
0.0
 30
0.0
 41
0.25
 42
0.25
  0
CIRCLE
  5
16C
330
160
100
AcDbEntity
  8
DAMAN
100
AcDbCircle
 10
1.8125
 20
-2.125
 30
0.0
 40
0.1055
  0
INSERT
  5
16D
330
160
100
AcDbEntity
  8
DAMAN
100
AcDbBlockReference
  2
100CROSS
 10
1.8125
 20
-2.125
 30
0.0
 41
0.25
 42
0.25
  0
INSERT
  5
16E
330
160
100
AcDbEntity
  8
DAMAN
100
AcDbBlockReference
  2
100CROSS
 10
0.5310000000000001
 20
-0.125
 30
0.0
 41
0.4379999999999999
 42
0.4379999999999999
  0
CIRCLE
  5
16F
330
160
100
AcDbEntity
  8
DAMAN
100
AcDbCircle
 10
0.5310000000000001
 20
-0.125
 30
0.0
 40
0.21875
  0
CIRCLE
  5
170
330
160
100
AcDbEntity
  8
DAMAN
100
AcDbCircle
 10
0.9685
 20
-0.6559999999999999
 30
0.0
 40
0.21875
  0
INSERT
  5
171
330
160
100
AcDbEntity
  8
DAMAN
100
AcDbBlockReference
  2
100CROSS
 10
0.9685
 20
-0.6559999999999999
 30
0.0
 41
0.4379999999999999
 42
0.4379999999999999
  0
INSERT
  5
172
330
160
100
AcDbEntity
  8
DAMAN
100
AcDbBlockReference
  2
100CROSS
 10
0.9685
 20
-1.468499999999999
 30
0.0
 41
0.4379999999999999
 42
0.4379999999999999
  0
CIRCLE
  5
173
330
160
100
AcDbEntity
  8
DAMAN
100
AcDbCircle
 10
0.9685
 20
-1.468499999999999
 30
0.0
 40
0.21875
  0
CIRCLE
  5
174
330
160
100
AcDbEntity
  8
DAMAN
100
AcDbCircle
 10
1.5625
 20
-1.062249999999999
 30
0.0
 40
0.21875
  0
INSERT
  5
175
330
160
100
AcDbEntity
  8
DAMAN
100
AcDbBlockReference
  2
100CROSS
 10
1.5625
 20
-1.062249999999999
 30
0.0
 41
0.4379999999999999
 42
0.4379999999999999
  0
CIRCLE
  5
176
330
160
100
AcDbEntity
  8
DAMAN
100
AcDbCircle
 10
0.5310000000000001
 20
-1.9995
 30
0.0
 40
0.21875
  0
INSERT
  5
177
330
160
100
AcDbEntity
  8
DAMAN
100
AcDbBlockReference
  2
100CROSS
 10
0.5310000000000001
 20
-1.9995
 30
0.0
 41
-0.4379999999999999
 42
0.4379999999999999
 50
180.0
  0
ENDBLK
  5
178
330
160
100
AcDbEntity
  8
0
100
AcDbBlockEnd
  0
BLOCK
  5
17A
330
179
100
AcDbEntity
  8
0
100
AcDbBlockBegin
  2
D05SF
 70
     0
 10
0.0
 20
0.0
 30
0.0
  3
D05SF
  1

  0
INSERT
  5
17C
330
179
100
AcDbEntity
  8
DAMAN
100
AcDbBlockReference
  2
D02I
 10
1.8125
 20
0.0
 30
0.0
 41
-1.0
  0
SOLID
  5
17D
330
179
100
AcDbEntity
  8
DAMAN
100
AcDbTrace
 10
-0.8764879999999999
 20
-0.883675
 30
0.0
 11
-0.9360129999999998
 21
-0.883675
 31
0.0
 12
-0.90625
 22
-1.062249999999999
 32
0.0
 13
-0.90625
 23
-1.062249999999999
 33
0.0
  0
ENDBLK
  5
17E
330
179
100
AcDbEntity
  8
0
100
AcDbBlockEnd
  0
BLOCK
  5
17F
330
17B
100
AcDbEntity
  8
0
100
AcDbBlockBegin
  2
D02I
 70
     0
 10
10.03125
 20
6.625
 30
0.0
  3
D02I
  1

  0
CIRCLE
  5
180
330
17B
100
AcDbEntity
  8
CSOLID
100
AcDbCircle
 10
10.56225
 20
4.625
 30
0.0
 40
0.21875
  0
CIRCLE
  5
181
330
17B
100
AcDbEntity
  8
CSOLID
100
AcDbCircle
 10
10.5625
 20
4.625
 30
0.0
 40
0.3125
  0
CIRCLE
  5
182
330
17B
100
AcDbEntity
  8
CSOLID
100
AcDbCircle
 10
11.0
 20
5.15625
 30
0.0
 40
0.3125
  0
CIRCLE
  5
183
330
17B
100
AcDbEntity
  8
CSOLID
100
AcDbCircle
 10
11.59375
 20
5.5625
 30
0.0
 40
0.3125
  0
CIRCLE
  5
184
330
17B
100
AcDbEntity
  8
CSOLID
100
AcDbCircle
 10
11.0
 20
5.96875
 30
0.0
 40
0.3125
  0
CIRCLE
  5
185
330
17B
100
AcDbEntity
  8
CSOLID
100
AcDbCircle
 10
10.5625
 20
6.5
 30
0.0
 40
0.3125
  0
CIRCLE
  5
186
330
17B
100
AcDbEntity
  8
CSOLID
100
AcDbCircle
 10
11.84374999999999
 20
4.5
 30
0.0
 40
0.1405
  0
CIRCLE
  5
187
330
17B
100
AcDbEntity
  8
CSOLID
100
AcDbCircle
 10
11.84374999999999
 20
6.625
 30
0.0
 40
0.1405
  0
CIRCLE
  5
188
330
17B
100
AcDbEntity
  8
CSOLID
100
AcDbCircle
 10
10.03125
 20
4.5
 30
0.0
 40
0.1405
  0
CIRCLE
  5
189
330
17B
100
AcDbEntity
  8
CSOLID
100
AcDbCircle
 10
10.03125
 20
6.625
 30
0.0
 40
0.1405
  0
CIRCLE
  5
18A
330
17B
100
AcDbEntity
  8
CSOLID
100
AcDbCircle
 10
10.56225
 20
6.5
 30
0.0
 40
0.21875
  0
CIRCLE
  5
18B
330
17B
100
AcDbEntity
  8
CSOLID
100
AcDbCircle
 10
10.99975
 20
5.968999999999999
 30
0.0
 40
0.21875
  0
CIRCLE
  5
18C
330
17B
100
AcDbEntity
  8
CSOLID
100
AcDbCircle
 10
10.99975
 20
5.1565
 30
0.0
 40
0.21875
  0
CIRCLE
  5
18D
330
17B
100
AcDbEntity
  8
CSOLID
100
AcDbCircle
 10
11.59375
 20
5.56275
 30
0.0
 40
0.21875
  0
INSERT
  5
18E
330
17B
100
AcDbEntity
  8
CCENTER
100
AcDbBlockReference
  2
100CROSS
 10
10.56225
 20
6.5
 30
0.0
 41
0.4379999999999999
 42
0.4379999999999999
  0
INSERT
  5
18F
330
17B
100
AcDbEntity
  8
CCENTER
100
AcDbBlockReference
  2
100CROSS
 10
10.99975
 20
5.968999999999999
 30
0.0
 41
0.4379999999999999
 42
0.4379999999999999
  0
INSERT
  5
190
330
17B
100
AcDbEntity
  8
CCENTER
100
AcDbBlockReference
  2
100CROSS
 10
11.59375
 20
5.56275
 30
0.0
 41
0.4379999999999999
 42
0.4379999999999999
  0
INSERT
  5
191
330
17B
100
AcDbEntity
  8
CCENTER
100
AcDbBlockReference
  2
100CROSS
 10
10.99975
 20
5.1565
 30
0.0
 41
0.4379999999999999
 42
0.4379999999999999
  0
INSERT
  5
192
330
17B
100
AcDbEntity
  8
CCENTER
100
AcDbBlockReference
  2
100CROSS
 10
10.56225
 20
4.625
 30
0.0
 41
0.4379999999999999
 42
0.4379999999999999
  0
INSERT
  5
193
330
17B
100
AcDbEntity
  8
CCENTER
100
AcDbBlockReference
  2
100CROSS
 10
10.03125
 20
4.5
 30
0.0
 41
0.4060000000000001
 42
0.4060000000000001
 43
0.4060000000000001
  0
INSERT
  5
194
330
17B
100
AcDbEntity
  8
CCENTER
100
AcDbBlockReference
  2
100CROSS
 10
10.03125
 20
6.625
 30
0.0
 41
0.4060000000000001
 42
0.4060000000000001
 43
0.4060000000000001
  0
INSERT
  5
195
330
17B
100
AcDbEntity
  8
CCENTER
100
AcDbBlockReference
  2
100CROSS
 10
11.84374999999999
 20
4.5
 30
0.0
 41
0.4060000000000001
 42
0.4060000000000001
 43
0.4060000000000001
  0
INSERT
  5
196
330
17B
100
AcDbEntity
  8
CCENTER
100
AcDbBlockReference
  2
100CROSS
 10
11.84374999999999
 20
6.625
 30
0.0
 41
0.4060000000000001
 42
0.4060000000000001
 43
0.4060000000000001
  0
ENDBLK
  5
197
330
17B
100
AcDbEntity
  8
0
100
AcDbBlockEnd
  0
BLOCK
  5
199
330
198
100
AcDbEntity
  8
0
100
AcDbBlockBegin
  2
375SHCS
 70
     0
 10
0.0
 20
0.0
 30
0.0
  3
375SHCS
  1

  0
LINE
  5
19A
330
198
100
AcDbEntity
  8
DAMAN
100
AcDbLine
 10
-0.28125
 20
0.0
 30
0.0
 11
-0.28125
 21
0.328125
 31
0.0
  0
LINE
  5
19B
330
198
100
AcDbEntity
  8
DAMAN
100
AcDbLine
 10
-0.234375
 20
0.375
 30
0.0
 11
0.234375
 21
0.375
 31
0.0
  0
LINE
  5
19C
330
198
100
AcDbEntity
  8
DAMAN
100
AcDbLine
 10
0.28125
 20
0.328125
 30
0.0
 11
0.28125
 21
0.0
 31
0.0
  0
LINE
  5
19D
330
198
100
AcDbEntity
  8
DAMAN
100
AcDbLine
 10
-0.28125
 20
0.328125
 30
0.0
 11
0.28125
 21
0.328125
 31
0.0
  0
LINE
  5
19E
330
198
100
AcDbEntity
  8
DAMAN
100
AcDbLine
 10
0.28125
 20
0.0
 30
0.0
 11
-0.28125
 21
0.0
 31
0.0
  0
LINE
  5
19F
330
198
100
AcDbEntity
  8
DAMAN
100
AcDbLine
 10
0.234375
 20
0.375
 30
0.0
 11
0.28125
 21
0.328125
 31
0.0
  0
LINE
  5
1A0
330
198
100
AcDbEntity
  8
DAMAN
100
AcDbLine
 10
-0.234375
 20
0.375
 30
0.0
 11
-0.28125
 21
0.328125
 31
0.0
  0
ENDBLK
  5
1A1
330
198
100
AcDbEntity
  8
0
100
AcDbBlockEnd
  0
BLOCK
  5
1A3
330
1A2
100
AcDbEntity
  8
0
100
AcDbBlockBegin
  2
038THDT
 70
     0
 10
0.0
 20
0.0
 30
0.0
  3
038THDT
  1

  0
CIRCLE
  5
1A4
330
1A2
100
AcDbEntity
  8
DAMAN
100
AcDbCircle
 10
3.0
 20
6.375
 30
0.0
 40
0.1875
  0
CIRCLE
  5
1A5
330
1A2
100
AcDbEntity
  8
DAMAN
100
AcDbCircle
 10
3.0
 20
6.375
 30
0.0
 40
0.15625
  0
INSERT
  5
1A6
330
1A2
100
AcDbEntity
  8
DAMAN
100
AcDbBlockReference
  2
100CROSS
 10
3.0
 20
6.375
 30
0.0
 41
0.375
 42
0.375
  0
INSERT
  5
1A7
330
1A2
100
AcDbEntity
  8
DAMAN
100
AcDbBlockReference
  2
100CROSS
 10
5.75
 20
6.375
 30
0.0
 41
0.375
 42
0.375
  0
CIRCLE
  5
1A8
330
1A2
100
AcDbEntity
  8
DAMAN
100
AcDbCircle
 10
5.75
 20
6.375
 30
0.0
 40
0.1875
  0
CIRCLE
  5
1A9
330
1A2
100
AcDbEntity
  8
DAMAN
100
AcDbCircle
 10
5.75
 20
6.375
 30
0.0
 40
0.15625
  0
ENDBLK
  5
1AA
330
1A2
100
AcDbEntity
  8
0
100
AcDbBlockEnd
  0
BLOCK
  5
1AC
330
1AB
100
AcDbEntity
  8
0
100
AcDbBlockBegin
  2
038TOP
 70
     0
 10
0.0
 20
0.0
 30
0.0
  3
038TOP
  1

  0
CIRCLE
  5
1AD
330
1AB
100
AcDbEntity
  8
CHIDDEN
100
AcDbCircle
 10
0.0
 20
0.0
 30
0.0
 40
0.1875
  0
CIRCLE
  5
1AE
330
1AB
100
AcDbEntity
  8
CSOLID
100
AcDbCircle
 10
0.0
 20
0.0
 30
0.0
 40
0.15625
  0
INSERT
  5
1AF
330
1AB
100
AcDbEntity
  8
CCENTER
100
AcDbBlockReference
  2
100CROSS
 10
0.0
 20
0.0
 30
0.0
 41
0.375
 42
0.375
  0
ENDBLK
  5
1B0
330
1AB
100
AcDbEntity
  8
0
100
AcDbBlockEnd
  0
BLOCK
  5
1B2
330
1B1
100
AcDbEntity
  8
0
100
AcDbBlockBegin
  2
06SAET
 70
     0
 10
0.0
 20
0.0
 30
0.0
  3
06SAET
  1

  0
INSERT
  5
1B3
330
1B1
100
AcDbEntity
  8
DAMAN
100
AcDbBlockReference
  2
100CROSS
 10
0.0
 20
0.0
 30
0.0
  0
CIRCLE
  5
1B4
330
1B1
100
AcDbEntity
  8
DAMAN
100
AcDbCircle
 10
0.0
 20
0.0
 30
0.0
 40
0.28125
  0
CIRCLE
  5
1B5
330
1B1
100
AcDbEntity
  8
DAMAN
100
AcDbCircle
 10
0.0
 20
0.0
 30
0.0
 40
0.5
  0
CIRCLE
  5
1B6
330
1B1
100
AcDbEntity
  8
DAMAN
100
AcDbCircle
 10
0.0
 20
0.0
 30
0.0
 40
0.25
  0
ENDBLK
  5
1B7
330
1B1
100
AcDbEntity
  8
0
100
AcDbBlockEnd
  0
BLOCK
  5
1B9
330
1B8
100
AcDbEntity
  8
0
100
AcDbBlockBegin
  2
025NPTFT
 70
     0
 10
0.0
 20
0.0
 30
0.0
  3
025NPTFT
  1

  0
INSERT
  5
1BB
330
1B8
100
AcDbEntity
  8
DAMAN
100
AcDbBlockReference
  2
250NPTFT
 10
0.0
 20
0.0
 30
0.0
  0
ENDBLK
  5
1BC
330
1B8
100
AcDbEntity
  8
0
100
AcDbBlockEnd
  0
BLOCK
  5
2BA
330
1BA
100
AcDbEntity
  8
0
100
AcDbBlockBegin
  2
250NPTFT
 70
     0
 10
0.0
 20
0.0
 30
0.0
  3
250NPTFT
  1

  0
CIRCLE
  5
2BB
330
1BA
100
AcDbEntity
  8
DAMAN
100
AcDbCircle
 10
0.0
 20
0.0
 30
0.0
 40
0.273
  0
CIRCLE
  5
2BC
330
1BA
100
AcDbEntity
  8
DAMAN
100
AcDbCircle
 10
0.0
 20
0.0
 30
0.0
 40
0.211
  0
INSERT
  5
2BD
330
1BA
100
AcDbEntity
  8
DAMAN
100
AcDbBlockReference
  2
100CROSS
 10
0.0
 20
0.0
 30
0.0
 41
0.4220000000000001
 42
0.4220000000000001
  0
CIRCLE
  5
2BE
330
1BA
100
AcDbEntity
  8
DAMAN
100
AcDbCircle
 10
0.0
 20
0.0
 30
0.0
 40
0.242251
  0
POINT
  5
2BF
330
1BA
100
AcDbEntity
  8
CHIDDEN
100
AcDbPoint
 10
-0.087928
 20
0.191806
 30
0.0
  0
POINT
  5
2C0
330
1BA
100
AcDbEntity
  8
CHIDDEN
100
AcDbPoint
 10
-0.137717
 20
-0.15986
 30
0.0
  0
POINT
  5
2C1
330
1BA
100
AcDbEntity
  8
CHIDDEN
100
AcDbPoint
 10
0.202707
 20
-0.058572
 30
0.0
  0
ENDBLK
  5
2C2
330
1BA
100
AcDbEntity
  8
0
100
AcDbBlockEnd
  0
BLOCK
  5
1BE
330
1BD
100
AcDbEntity
  8
0
100
AcDbBlockBegin
  2
24CD61
 70
     0
 10
0.0
 20
0.0
 30
0.0
  3
24CD61
  1

  0
CIRCLE
  5
1BF
330
1BD
100
AcDbEntity
  8
DAMAN
100
AcDbCircle
 10
1.908694999999999
 20
2.748498
 30
0.0
 40
0.75
  0
INSERT
  5
1C0
330
1BD
100
AcDbEntity
  8
DAMAN
100
AcDbBlockReference
  2
100CROSS
 10
1.205695
 20
4.123498
 30
0.0
 41
0.49957
 42
0.49957
  0
CIRCLE
  5
1C1
330
1BD
100
AcDbEntity
  8
DAMAN
100
AcDbCircle
 10
1.205695
 20
4.123498
 30
0.0
 40
0.249785
  0
CIRCLE
  5
1C2
330
1BD
100
AcDbEntity
  8
DAMAN
100
AcDbCircle
 10
1.205695
 20
4.123498
 30
0.0
 40
0.208154
  0
CIRCLE
  5
1C3
330
1BD
100
AcDbEntity
  8
DAMAN
100
AcDbCircle
 10
2.611695
 20
4.123498
 30
0.0
 40
0.249785
  0
CIRCLE
  5
1C4
330
1BD
100
AcDbEntity
  8
DAMAN
100
AcDbCircle
 10
2.611695
 20
4.123498
 30
0.0
 40
0.208154
  0
INSERT
  5
1C5
330
1BD
100
AcDbEntity
  8
DAMAN
100
AcDbBlockReference
  2
100CROSS
 10
2.611695
 20
4.123498
 30
0.0
 41
0.49957
 42
0.49957
  0
CIRCLE
  5
1C6
330
1BD
100
AcDbEntity
  8
DAMAN
100
AcDbCircle
 10
2.611695
 20
1.373497999999999
 30
0.0
 40
0.249785
  0
CIRCLE
  5
1C7
330
1BD
100
AcDbEntity
  8
DAMAN
100
AcDbCircle
 10
2.611695
 20
1.373497999999999
 30
0.0
 40
0.208154
  0
INSERT
  5
1C8
330
1BD
100
AcDbEntity
  8
DAMAN
100
AcDbBlockReference
  2
100CROSS
 10
2.611695
 20
1.373497999999999
 30
0.0
 41
0.49957
 42
0.49957
  0
CIRCLE
  5
1C9
330
1BD
100
AcDbEntity
  8
DAMAN
100
AcDbCircle
 10
1.205695
 20
1.373497999999999
 30
0.0
 40
0.249785
  0
CIRCLE
  5
1CA
330
1BD
100
AcDbEntity
  8
DAMAN
100
AcDbCircle
 10
1.205695
 20
1.373497999999999
 30
0.0
 40
0.208154
  0
INSERT
  5
1CB
330
1BD
100
AcDbEntity
  8
DAMAN
100
AcDbBlockReference
  2
100CROSS
 10
1.205695
 20
1.373497999999999
 30
0.0
 41
0.49957
 42
0.49957
  0
INSERT
  5
1CC
330
1BD
100
AcDbEntity
  8
DAMAN
100
AcDbBlockReference
  2
100CROSS
 10
1.908694999999999
 20
2.748498
 30
0.0
 41
1.40625
 42
1.40625
  0
ENDBLK
  5
1CD
330
1BD
100
AcDbEntity
  8
0
100
AcDbBlockEnd
  0
BLOCK
  5
1CF
330
1CE
100
AcDbEntity
  8
0
100
AcDbBlockBegin
  2
24CD62
 70
     0
 10
0.0
 20
0.0
 30
0.0
  3
24CD62
  1

  0
CIRCLE
  5
1D0
330
1CE
100
AcDbEntity
  8
DAMAN
100
AcDbCircle
 10
1.908694999999999
 20
2.748498
 30
0.0
 40
0.75
  0
CIRCLE
  5
1D1
330
1CE
100
AcDbEntity
  8
DAMAN
100
AcDbCircle
 10
2.627194999999999
 20
1.185997999999999
 30
0.0
 40
0.312231
  0
CIRCLE
  5
1D2
330
1CE
100
AcDbEntity
  8
DAMAN
100
AcDbCircle
 10
2.627194999999999
 20
1.185997999999999
 30
0.0
 40
0.260193
  0
INSERT
  5
1D3
330
1CE
100
AcDbEntity
  8
DAMAN
100
AcDbBlockReference
  2
100CROSS
 10
2.627194999999999
 20
1.185997999999999
 30
0.0
 41
0.624462
 42
0.624462
  0
INSERT
  5
1D4
330
1CE
100
AcDbEntity
  8
DAMAN
100
AcDbBlockReference
  2
100CROSS
 10
1.908694999999999
 20
2.748498
 30
0.0
 41
1.40625
 42
1.40625
  0
CIRCLE
  5
1D5
330
1CE
100
AcDbEntity
  8
DAMAN
100
AcDbCircle
 10
1.190195
 20
1.185997999999999
 30
0.0
 40
0.312231
  0
INSERT
  5
1D6
330
1CE
100
AcDbEntity
  8
DAMAN
100
AcDbBlockReference
  2
100CROSS
 10
1.190195
 20
1.185997999999999
 30
0.0
 41
0.624462
 42
0.624462
  0
CIRCLE
  5
1D7
330
1CE
100
AcDbEntity
  8
DAMAN
100
AcDbCircle
 10
1.190195
 20
1.185997999999999
 30
0.0
 40
0.260193
  0
CIRCLE
  5
1D8
330
1CE
100
AcDbEntity
  8
DAMAN
100
AcDbCircle
 10
1.190195
 20
4.310998
 30
0.0
 40
0.312231
  0
INSERT
  5
1D9
330
1CE
100
AcDbEntity
  8
DAMAN
100
AcDbBlockReference
  2
100CROSS
 10
1.190195
 20
4.310998
 30
0.0
 41
0.624462
 42
0.624462
  0
CIRCLE
  5
1DA
330
1CE
100
AcDbEntity
  8
DAMAN
100
AcDbCircle
 10
1.190195
 20
4.310998
 30
0.0
 40
0.260193
  0
CIRCLE
  5
1DB
330
1CE
100
AcDbEntity
  8
DAMAN
100
AcDbCircle
 10
2.627194999999999
 20
4.310998
 30
0.0
 40
0.312231
  0
INSERT
  5
1DC
330
1CE
100
AcDbEntity
  8
DAMAN
100
AcDbBlockReference
  2
100CROSS
 10
2.627194999999999
 20
4.310998
 30
0.0
 41
0.624462
 42
0.624462
  0
CIRCLE
  5
1DD
330
1CE
100
AcDbEntity
  8
DAMAN
100
AcDbCircle
 10
2.627194999999999
 20
4.310998
 30
0.0
 40
0.260193
  0
ENDBLK
  5
1DE
330
1CE
100
AcDbEntity
  8
0
100
AcDbBlockEnd
  0
BLOCK
  5
1E0
330
1DF
100
AcDbEntity
  8
0
100
AcDbBlockBegin
  2
40CD61
 70
     0
 10
0.0
 20
0.0
 30
0.0
  3
40CD61
  1

  0
INSERT
  5
1E1
330
1DF
100
AcDbEntity
  8
DAMAN
100
AcDbBlockReference
  2
100CROSS
 10
2.095733
 20
2.887387
 30
0.0
 41
1.933593999999999
 42
1.933593999999999
  0
CIRCLE
  5
1E2
330
1DF
100
AcDbEntity
  8
DAMAN
100
AcDbCircle
 10
2.095733
 20
2.887387
 30
0.0
 40
1.25
  0
CIRCLE
  5
1E3
330
1DF
100
AcDbEntity
  8
DAMAN
100
AcDbCircle
 10
3.095733
 20
4.637387
 30
0.0
 40
0.208281
  0
CIRCLE
  5
1E4
330
1DF
100
AcDbEntity
  8
DAMAN
100
AcDbCircle
 10
3.095733
 20
4.637387
 30
0.0
 40
0.249938
  0
INSERT
  5
1E5
330
1DF
100
AcDbEntity
  8
DAMAN
100
AcDbBlockReference
  2
100CROSS
 10
3.095733
 20
4.637387
 30
0.0
 41
0.4998750000000001
 42
0.4998750000000001
  0
CIRCLE
  5
1E6
330
1DF
100
AcDbEntity
  8
DAMAN
100
AcDbCircle
 10
1.095733
 20
4.637387
 30
0.0
 40
0.208281
  0
CIRCLE
  5
1E7
330
1DF
100
AcDbEntity
  8
DAMAN
100
AcDbCircle
 10
1.095733
 20
4.637387
 30
0.0
 40
0.249938
  0
INSERT
  5
1E8
330
1DF
100
AcDbEntity
  8
DAMAN
100
AcDbBlockReference
  2
100CROSS
 10
1.095733
 20
4.637387
 30
0.0
 41
0.4998750000000001
 42
0.4998750000000001
  0
CIRCLE
  5
1E9
330
1DF
100
AcDbEntity
  8
DAMAN
100
AcDbCircle
 10
1.095733
 20
1.137387
 30
0.0
 40
0.208281
  0
CIRCLE
  5
1EA
330
1DF
100
AcDbEntity
  8
DAMAN
100
AcDbCircle
 10
1.095733
 20
1.137387
 30
0.0
 40
0.249938
  0
INSERT
  5
1EB
330
1DF
100
AcDbEntity
  8
DAMAN
100
AcDbBlockReference
  2
100CROSS
 10
1.095733
 20
1.137387
 30
0.0
 41
0.4998750000000001
 42
0.4998750000000001
  0
CIRCLE
  5
1EC
330
1DF
100
AcDbEntity
  8
DAMAN
100
AcDbCircle
 10
3.095733
 20
1.137387
 30
0.0
 40
0.208281
  0
CIRCLE
  5
1ED
330
1DF
100
AcDbEntity
  8
DAMAN
100
AcDbCircle
 10
3.095733
 20
1.137387
 30
0.0
 40
0.249938
  0
INSERT
  5
1EE
330
1DF
100
AcDbEntity
  8
DAMAN
100
AcDbBlockReference
  2
100CROSS
 10
3.095733
 20
1.137387
 30
0.0
 41
0.4998750000000001
 42
0.4998750000000001
  0
ENDBLK
  5
1EF
330
1DF
100
AcDbEntity
  8
0
100
AcDbBlockEnd
  0
BLOCK
  5
1F1
330
1F0
100
AcDbEntity
  8
0
100
AcDbBlockBegin
  2
40MMDIN
 70
     0
 10
0.0
 20
0.0
 30
0.0
  3
40MMDIN
  1

  0
CIRCLE
  5
1F2
330
1F0
100
AcDbEntity
  8
DAMAN
100
AcDbCircle
 10
3.733258999999999
 20
3.626126
 30
0.0
 40
1.475
  0
CIRCLE
  5
1F3
330
1F0
100
AcDbEntity
  8
DAMAN
100
AcDbCircle
 10
3.733258999999999
 20
3.626126
 30
0.0
 40
1.08
  0
CIRCLE
  5
1F4
330
1F0
100
AcDbEntity
  8
DAMAN
100
AcDbCircle
 10
3.733258999999999
 20
3.626126
 30
0.0
 40
0.7850000000000001
  0
CIRCLE
  5
1F5
330
1F0
100
AcDbEntity
  8
DAMAN
100
AcDbCircle
 10
2.063258999999999
 20
5.296126
 30
0.0
 40
0.374063
  0
CIRCLE
  5
1F6
330
1F0
100
AcDbEntity
  8
DAMAN
100
AcDbCircle
 10
2.063258999999999
 20
5.296126
 30
0.0
 40
0.311719
  0
INSERT
  5
1F7
330
1F0
100
AcDbEntity
  8
DAMAN
100
AcDbBlockReference
  2
100CROSS
 10
2.063258999999999
 20
5.296126
 30
0.0
 41
0.7481250000000001
 42
0.7481250000000001
  0
CIRCLE
  5
1F8
330
1F0
100
AcDbEntity
  8
DAMAN
100
AcDbCircle
 10
2.063258999999999
 20
1.956125999999999
 30
0.0
 40
0.374063
  0
CIRCLE
  5
1F9
330
1F0
100
AcDbEntity
  8
DAMAN
100
AcDbCircle
 10
2.063258999999999
 20
1.956125999999999
 30
0.0
 40
0.311719
  0
INSERT
  5
1FA
330
1F0
100
AcDbEntity
  8
DAMAN
100
AcDbBlockReference
  2
100CROSS
 10
2.063258999999999
 20
1.956125999999999
 30
0.0
 41
0.7481250000000001
 42
0.7481250000000001
  0
CIRCLE
  5
1FB
330
1F0
100
AcDbEntity
  8
DAMAN
100
AcDbCircle
 10
5.403258999999999
 20
1.956125999999999
 30
0.0
 40
0.374063
  0
CIRCLE
  5
1FC
330
1F0
100
AcDbEntity
  8
DAMAN
100
AcDbCircle
 10
5.403258999999999
 20
1.956125999999999
 30
0.0
 40
0.311719
  0
INSERT
  5
1FD
330
1F0
100
AcDbEntity
  8
DAMAN
100
AcDbBlockReference
  2
100CROSS
 10
5.403258999999999
 20
1.956125999999999
 30
0.0
 41
0.7481250000000001
 42
0.7481250000000001
  0
CIRCLE
  5
1FE
330
1F0
100
AcDbEntity
  8
DAMAN
100
AcDbCircle
 10
5.403258999999999
 20
5.296126
 30
0.0
 40
0.374063
  0
CIRCLE
  5
1FF
330
1F0
100
AcDbEntity
  8
DAMAN
100
AcDbCircle
 10
5.403258999999999
 20
5.296126
 30
0.0
 40
0.311719
  0
INSERT
  5
200
330
1F0
100
AcDbEntity
  8
DAMAN
100
AcDbBlockReference
  2
100CROSS
 10
5.403258999999999
 20
5.296126
 30
0.0
 41
0.7481250000000001
 42
0.7481250000000001
  0
CIRCLE
  5
201
330
1F0
100
AcDbEntity
  8
DAMAN
100
AcDbCircle
 10
2.830258999999999
 20
5.296126
 30
0.0
 40
0.12
  0
CIRCLE
  5
202
330
1F0
100
AcDbEntity
  8
DAMAN
100
AcDbCircle
 10
3.733258999999999
 20
5.591126
 30
0.0
 40
0.1965
  0
CIRCLE
  5
203
330
1F0
100
AcDbEntity
  8
DAMAN
100
AcDbCircle
 10
1.768259
 20
3.626126
 30
0.0
 40
0.1965
  0
CIRCLE
  5
204
330
1F0
100
AcDbEntity
  8
DAMAN
100
AcDbCircle
 10
3.733258999999999
 20
1.661125999999999
 30
0.0
 40
0.1965
  0
CIRCLE
  5
205
330
1F0
100
AcDbEntity
  8
DAMAN
100
AcDbCircle
 10
5.698258999999999
 20
3.626126
 30
0.0
 40
0.1965
  0
INSERT
  5
206
330
1F0
100
AcDbEntity
  8
DAMAN
100
AcDbBlockReference
  2
100CROSS
 10
1.768259
 20
3.626126
 30
0.0
 41
0.6234380000000001
 42
0.6234380000000001
  0
INSERT
  5
207
330
1F0
100
AcDbEntity
  8
DAMAN
100
AcDbBlockReference
  2
100CROSS
 10
3.733258999999999
 20
5.591126
 30
0.0
 41
0.6234380000000001
 42
0.6234380000000001
  0
INSERT
  5
208
330
1F0
100
AcDbEntity
  8
DAMAN
100
AcDbBlockReference
  2
100CROSS
 10
5.698258999999999
 20
3.626126
 30
0.0
 41
0.6234380000000001
 42
0.6234380000000001
  0
INSERT
  5
209
330
1F0
100
AcDbEntity
  8
DAMAN
100
AcDbBlockReference
  2
100CROSS
 10
3.733258999999999
 20
1.661125999999999
 30
0.0
 41
0.467578
 42
0.467578
  0
INSERT
  5
20A
330
1F0
100
AcDbEntity
  8
DAMAN
100
AcDbBlockReference
  2
100CROSS
 10
3.733258999999999
 20
3.626126
 30
0.0
 41
1.954811
 42
1.954811
  0
ENDBLK
  5
20B
330
1F0
100
AcDbEntity
  8
0
100
AcDbBlockEnd
  0
BLOCK
  5
20D
330
20C
100
AcDbEntity
  8
0
100
AcDbBlockBegin
  2
32CD61
 70
     0
 10
0.0
 20
0.0
 30
0.0
  3
32CD61
  1

  0
CIRCLE
  5
20E
330
20C
100
AcDbEntity
  8
DAMAN
100
AcDbCircle
 10
1.866629999999999
 20
2.599849999999999
 30
0.0
 40
1.0
  0
INSERT
  5
20F
330
20C
100
AcDbEntity
  8
DAMAN
100
AcDbBlockReference
  2
100CROSS
 10
1.022629999999999
 20
4.130849999999999
 30
0.0
 41
0.49932
 42
0.49932
  0
CIRCLE
  5
210
330
20C
100
AcDbEntity
  8
DAMAN
100
AcDbCircle
 10
1.022629999999999
 20
4.130849999999999
 30
0.0
 40
0.24966
  0
CIRCLE
  5
211
330
20C
100
AcDbEntity
  8
DAMAN
100
AcDbCircle
 10
1.022629999999999
 20
4.130849999999999
 30
0.0
 40
0.20805
  0
INSERT
  5
212
330
20C
100
AcDbEntity
  8
DAMAN
100
AcDbBlockReference
  2
100CROSS
 10
2.71063
 20
4.130849999999999
 30
0.0
 41
0.49932
 42
0.49932
  0
CIRCLE
  5
213
330
20C
100
AcDbEntity
  8
DAMAN
100
AcDbCircle
 10
2.71063
 20
4.130849999999999
 30
0.0
 40
0.24966
  0
CIRCLE
  5
214
330
20C
100
AcDbEntity
  8
DAMAN
100
AcDbCircle
 10
2.71063
 20
4.130849999999999
 30
0.0
 40
0.20805
  0
INSERT
  5
215
330
20C
100
AcDbEntity
  8
DAMAN
100
AcDbBlockReference
  2
100CROSS
 10
2.71063
 20
1.06885
 30
0.0
 41
0.49932
 42
0.49932
  0
CIRCLE
  5
216
330
20C
100
AcDbEntity
  8
DAMAN
100
AcDbCircle
 10
2.71063
 20
1.06885
 30
0.0
 40
0.24966
  0
CIRCLE
  5
217
330
20C
100
AcDbEntity
  8
DAMAN
100
AcDbCircle
 10
2.71063
 20
1.06885
 30
0.0
 40
0.20805
  0
INSERT
  5
218
330
20C
100
AcDbEntity
  8
DAMAN
100
AcDbBlockReference
  2
100CROSS
 10
1.022629999999999
 20
1.06885
 30
0.0
 41
0.49932
 42
0.49932
  0
CIRCLE
  5
219
330
20C
100
AcDbEntity
  8
DAMAN
100
AcDbCircle
 10
1.022629999999999
 20
1.06885
 30
0.0
 40
0.24966
  0
CIRCLE
  5
21A
330
20C
100
AcDbEntity
  8
DAMAN
100
AcDbCircle
 10
1.022629999999999
 20
1.06885
 30
0.0
 40
0.20805
  0
INSERT
  5
21B
330
20C
100
AcDbEntity
  8
DAMAN
100
AcDbBlockReference
  2
100CROSS
 10
1.866629999999999
 20
2.599849999999999
 30
0.0
 41
1.40625
 42
1.40625
  0
ENDBLK
  5
21C
330
20C
100
AcDbEntity
  8
0
100
AcDbBlockEnd
  0
BLOCK
  5
21E
330
21D
100
AcDbEntity
  8
0
100
AcDbBlockBegin
  2
50MMDIN
 70
     0
 10
0.0
 20
0.0
 30
0.0
  3
50MMDIN
  1

  0
CIRCLE
  5
21F
330
21D
100
AcDbEntity
  8
DAMAN
100
AcDbCircle
 10
3.598051
 20
3.911411
 30
0.0
 40
1.77
  0
CIRCLE
  5
220
330
21D
100
AcDbEntity
  8
DAMAN
100
AcDbCircle
 10
3.598051
 20
3.911411
 30
0.0
 40
1.34
  0
CIRCLE
  5
221
330
21D
100
AcDbEntity
  8
DAMAN
100
AcDbCircle
 10
3.598051
 20
3.911411
 30
0.0
 40
0.98
  0
INSERT
  5
222
330
21D
100
AcDbEntity
  8
DAMAN
100
AcDbBlockReference
  2
100CROSS
 10
1.628050999999999
 20
1.941411
 30
0.0
 41
0.7481250000000001
 42
0.7481250000000001
  0
CIRCLE
  5
223
330
21D
100
AcDbEntity
  8
DAMAN
100
AcDbCircle
 10
1.628050999999999
 20
1.941411
 30
0.0
 40
0.311719
  0
CIRCLE
  5
224
330
21D
100
AcDbEntity
  8
DAMAN
100
AcDbCircle
 10
1.628050999999999
 20
1.941411
 30
0.0
 40
0.374063
  0
INSERT
  5
225
330
21D
100
AcDbEntity
  8
DAMAN
100
AcDbBlockReference
  2
100CROSS
 10
5.568051
 20
1.941411
 30
0.0
 41
0.7481250000000001
 42
0.7481250000000001
  0
CIRCLE
  5
226
330
21D
100
AcDbEntity
  8
DAMAN
100
AcDbCircle
 10
5.568051
 20
1.941411
 30
0.0
 40
0.311719
  0
CIRCLE
  5
227
330
21D
100
AcDbEntity
  8
DAMAN
100
AcDbCircle
 10
5.568051
 20
1.941411
 30
0.0
 40
0.374063
  0
CIRCLE
  5
228
330
21D
100
AcDbEntity
  8
DAMAN
100
AcDbCircle
 10
5.568051
 20
5.881410999999999
 30
0.0
 40
0.311719
  0
CIRCLE
  5
229
330
21D
100
AcDbEntity
  8
DAMAN
100
AcDbCircle
 10
5.568051
 20
5.881410999999999
 30
0.0
 40
0.374063
  0
INSERT
  5
22A
330
21D
100
AcDbEntity
  8
DAMAN
100
AcDbBlockReference
  2
100CROSS
 10
1.628050999999999
 20
5.881410999999999
 30
0.0
 41
0.7481250000000001
 42
0.7481250000000001
  0
CIRCLE
  5
22B
330
21D
100
AcDbEntity
  8
DAMAN
100
AcDbCircle
 10
1.628050999999999
 20
5.881410999999999
 30
0.0
 40
0.311719
  0
CIRCLE
  5
22C
330
21D
100
AcDbEntity
  8
DAMAN
100
AcDbCircle
 10
1.628050999999999
 20
5.881410999999999
 30
0.0
 40
0.374063
  0
CIRCLE
  5
22D
330
21D
100
AcDbEntity
  8
DAMAN
100
AcDbCircle
 10
3.598051
 20
6.195411
 30
0.0
 40
0.197
  0
CIRCLE
  5
22E
330
21D
100
AcDbEntity
  8
DAMAN
100
AcDbCircle
 10
2.415051
 20
5.881410999999999
 30
0.0
 40
0.1575
  0
CIRCLE
  5
22F
330
21D
100
AcDbEntity
  8
DAMAN
100
AcDbCircle
 10
1.314051
 20
3.911411
 30
0.0
 40
0.197
  0
CIRCLE
  5
230
330
21D
100
AcDbEntity
  8
DAMAN
100
AcDbCircle
 10
3.598051
 20
1.627411
 30
0.0
 40
0.197
  0
CIRCLE
  5
231
330
21D
100
AcDbEntity
  8
DAMAN
100
AcDbCircle
 10
5.882051
 20
3.911411
 30
0.0
 40
0.197
  0
INSERT
  5
232
330
21D
100
AcDbEntity
  8
DAMAN
100
AcDbBlockReference
  2
100CROSS
 10
5.568051
 20
5.881410999999999
 30
0.0
 41
0.7481250000000001
 42
0.7481250000000001
  0
INSERT
  5
233
330
21D
100
AcDbEntity
  8
DAMAN
100
AcDbBlockReference
  2
100CROSS
 10
3.598051
 20
3.911411
 30
0.0
 41
2.443513999999999
 42
2.443513999999999
  0
INSERT
  5
234
330
21D
100
AcDbEntity
  8
DAMAN
100
AcDbBlockReference
  2
100CROSS
 10
1.314051
 20
3.911411
 30
0.0
 41
0.467578
 42
0.467578
  0
INSERT
  5
235
330
21D
100
AcDbEntity
  8
DAMAN
100
AcDbBlockReference
  2
100CROSS
 10
3.598051
 20
1.627411
 30
0.0
 41
0.467578
 42
0.467578
  0
INSERT
  5
236
330
21D
100
AcDbEntity
  8
DAMAN
100
AcDbBlockReference
  2
100CROSS
 10
5.882051
 20
3.911411
 30
0.0
 41
0.467578
 42
0.467578
  0
INSERT
  5
237
330
21D
100
AcDbEntity
  8
DAMAN
100
AcDbBlockReference
  2
100CROSS
 10
2.415051
 20
5.881410999999999
 30
0.0
 41
0.467578
 42
0.467578
  0
INSERT
  5
238
330
21D
100
AcDbEntity
  8
DAMAN
100
AcDbBlockReference
  2
100CROSS
 10
3.598051
 20
6.195411
 30
0.0
 41
0.467578
 42
0.467578
  0
ENDBLK
  5
239
330
21D
100
AcDbEntity
  8
0
100
AcDbBlockEnd
  0
BLOCK
  5
23B
330
23A
100
AcDbEntity
  8
0
100
AcDbBlockBegin
  2
40CD62
 70
     0
 10
0.0
 20
0.0
 30
0.0
  3
40CD62
  1

  0
INSERT
  5
23C
330
23A
100
AcDbEntity
  8
DAMAN
100
AcDbBlockReference
  2
100CROSS
 10
2.895025
 20
3.368891
 30
0.0
 41
1.933593999999999
 42
1.933593999999999
  0
CIRCLE
  5
23D
330
23A
100
AcDbEntity
  8
DAMAN
100
AcDbCircle
 10
2.895025
 20
3.368891
 30
0.0
 40
1.25
  0
CIRCLE
  5
23E
330
23A
100
AcDbEntity
  8
DAMAN
100
AcDbCircle
 10
4.051025
 20
5.806391
 30
0.0
 40
0.364492
  0
CIRCLE
  5
23F
330
23A
100
AcDbEntity
  8
DAMAN
100
AcDbCircle
 10
4.051025
 20
5.806391
 30
0.0
 40
0.437391
  0
CIRCLE
  5
240
330
23A
100
AcDbEntity
  8
DAMAN
100
AcDbCircle
 10
1.739024999999999
 20
5.806391
 30
0.0
 40
0.364492
  0
CIRCLE
  5
241
330
23A
100
AcDbEntity
  8
DAMAN
100
AcDbCircle
 10
1.739024999999999
 20
5.806391
 30
0.0
 40
0.437391
  0
INSERT
  5
242
330
23A
100
AcDbEntity
  8
DAMAN
100
AcDbBlockReference
  2
100CROSS
 10
1.739024999999999
 20
5.806391
 30
0.0
 41
0.8747809999999999
 42
0.8747809999999999
  0
CIRCLE
  5
243
330
23A
100
AcDbEntity
  8
DAMAN
100
AcDbCircle
 10
1.739024999999999
 20
0.9313909999999999
 30
0.0
 40
0.364492
  0
CIRCLE
  5
244
330
23A
100
AcDbEntity
  8
DAMAN
100
AcDbCircle
 10
1.739024999999999
 20
0.9313909999999999
 30
0.0
 40
0.437391
  0
INSERT
  5
245
330
23A
100
AcDbEntity
  8
DAMAN
100
AcDbBlockReference
  2
100CROSS
 10
1.739024999999999
 20
0.9313909999999999
 30
0.0
 41
0.8747809999999999
 42
0.8747809999999999
  0
CIRCLE
  5
246
330
23A
100
AcDbEntity
  8
DAMAN
100
AcDbCircle
 10
4.051025
 20
0.9313909999999999
 30
0.0
 40
0.364492
  0
CIRCLE
  5
247
330
23A
100
AcDbEntity
  8
DAMAN
100
AcDbCircle
 10
4.051025
 20
0.9313909999999999
 30
0.0
 40
0.437391
  0
INSERT
  5
248
330
23A
100
AcDbEntity
  8
DAMAN
100
AcDbBlockReference
  2
100CROSS
 10
4.051025
 20
0.9313909999999999
 30
0.0
 41
0.8747809999999999
 42
0.8747809999999999
  0
CIRCLE
  5
249
330
23A
100
AcDbEntity
  8
DAMAN
100
AcDbCircle
 10
4.051025
 20
5.806391
 30
0.0
 40
0.364492
  0
INSERT
  5
24A
330
23A
100
AcDbEntity
  8
DAMAN
100
AcDbBlockReference
  2
100CROSS
 10
4.051025
 20
5.806391
 30
0.0
 41
0.8747809999999999
 42
0.8747809999999999
  0
ENDBLK
  5
24B
330
23A
100
AcDbEntity
  8
0
100
AcDbBlockEnd
  0
BLOCK
  5
24D
330
24C
100
AcDbEntity
  8
0
100
AcDbBlockBegin
  2
64CD61
 70
     0
 10
0.0
 20
0.0
 30
0.0
  3
64CD61
  1

  0
CIRCLE
  5
24E
330
24C
100
AcDbEntity
  8
DAMAN
100
AcDbCircle
 10
3.776075
 20
4.500751
 30
0.0
 40
2.0
  0
CIRCLE
  5
24F
330
24C
100
AcDbEntity
  8
DAMAN
100
AcDbCircle
 10
2.246074999999999
 20
7.063650999999999
 30
0.0
 40
0.312563
  0
CIRCLE
  5
250
330
24C
100
AcDbEntity
  8
DAMAN
100
AcDbCircle
 10
2.246074999999999
 20
7.063650999999999
 30
0.0
 40
0.260469
  0
INSERT
  5
251
330
24C
100
AcDbEntity
  8
DAMAN
100
AcDbBlockReference
  2
100CROSS
 10
2.246074999999999
 20
7.063650999999999
 30
0.0
 41
0.6251250000000001
 42
0.6251250000000001
  0
INSERT
  5
252
330
24C
100
AcDbEntity
  8
DAMAN
100
AcDbBlockReference
  2
100CROSS
 10
2.246074999999999
 20
1.937850999999999
 30
0.0
 41
0.6251250000000001
 42
0.6251250000000001
  0
CIRCLE
  5
253
330
24C
100
AcDbEntity
  8
DAMAN
100
AcDbCircle
 10
2.246074999999999
 20
1.937850999999999
 30
0.0
 40
0.260469
  0
CIRCLE
  5
254
330
24C
100
AcDbEntity
  8
DAMAN
100
AcDbCircle
 10
2.246074999999999
 20
1.937850999999999
 30
0.0
 40
0.312563
  0
INSERT
  5
255
330
24C
100
AcDbEntity
  8
DAMAN
100
AcDbBlockReference
  2
100CROSS
 10
5.306074999999999
 20
1.937850999999999
 30
0.0
 41
0.6251250000000001
 42
0.6251250000000001
  0
CIRCLE
  5
256
330
24C
100
AcDbEntity
  8
DAMAN
100
AcDbCircle
 10
5.306074999999999
 20
1.937850999999999
 30
0.0
 40
0.260469
  0
CIRCLE
  5
257
330
24C
100
AcDbEntity
  8
DAMAN
100
AcDbCircle
 10
5.306074999999999
 20
1.937850999999999
 30
0.0
 40
0.312563
  0
INSERT
  5
258
330
24C
100
AcDbEntity
  8
DAMAN
100
AcDbBlockReference
  2
100CROSS
 10
5.306074999999999
 20
7.063650999999999
 30
0.0
 41
0.6251250000000001
 42
0.6251250000000001
  0
CIRCLE
  5
259
330
24C
100
AcDbEntity
  8
DAMAN
100
AcDbCircle
 10
5.306074999999999
 20
7.063650999999999
 30
0.0
 40
0.260469
  0
CIRCLE
  5
25A
330
24C
100
AcDbEntity
  8
DAMAN
100
AcDbCircle
 10
5.306074999999999
 20
7.063650999999999
 30
0.0
 40
0.312563
  0
INSERT
  5
25B
330
24C
100
AcDbEntity
  8
DAMAN
100
AcDbBlockReference
  2
100CROSS
 10
3.776075
 20
4.500751
 30
0.0
 41
3.125624999999999
 42
3.125624999999999
  0
ENDBLK
  5
25C
330
24C
100
AcDbEntity
  8
0
100
AcDbBlockEnd
  0
BLOCK
  5
25E
330
25D
100
AcDbEntity
  8
0
100
AcDbBlockBegin
  2
63MMDIN
 70
     0
 10
0.0
 20
0.0
 30
0.0
  3
63MMDIN
  1

  0
CIRCLE
  5
25F
330
25D
100
AcDbEntity
  8
DAMAN
100
AcDbCircle
 10
4.27184
 20
3.939188999999999
 30
0.0
 40
2.379999999999999
  0
CIRCLE
  5
260
330
25D
100
AcDbEntity
  8
DAMAN
100
AcDbCircle
 10
4.27184
 20
3.939188999999999
 30
0.0
 40
1.77
  0
CIRCLE
  5
261
330
25D
100
AcDbEntity
  8
DAMAN
100
AcDbCircle
 10
4.27184
 20
3.939188999999999
 30
0.0
 40
1.239999999999999
  0
CIRCLE
  5
262
330
25D
100
AcDbEntity
  8
DAMAN
100
AcDbCircle
 10
1.81184
 20
6.399188999999999
 30
0.0
 40
0.5195420000000001
  0
CIRCLE
  5
263
330
25D
100
AcDbEntity
  8
DAMAN
100
AcDbCircle
 10
1.81184
 20
6.399188999999999
 30
0.0
 40
0.62345
  0
INSERT
  5
264
330
25D
100
AcDbEntity
  8
DAMAN
100
AcDbBlockReference
  2
100CROSS
 10
1.81184
 20
6.399188999999999
 30
0.0
 41
1.246899999999999
 42
1.246899999999999
  0
CIRCLE
  5
265
330
25D
100
AcDbEntity
  8
DAMAN
100
AcDbCircle
 10
1.81184
 20
1.479188999999999
 30
0.0
 40
0.5195420000000001
  0
CIRCLE
  5
266
330
25D
100
AcDbEntity
  8
DAMAN
100
AcDbCircle
 10
1.81184
 20
1.479188999999999
 30
0.0
 40
0.62345
  0
INSERT
  5
267
330
25D
100
AcDbEntity
  8
DAMAN
100
AcDbBlockReference
  2
100CROSS
 10
1.81184
 20
1.479188999999999
 30
0.0
 41
1.246899999999999
 42
1.246899999999999
  0
CIRCLE
  5
268
330
25D
100
AcDbEntity
  8
DAMAN
100
AcDbCircle
 10
6.731839999999999
 20
1.479188999999999
 30
0.0
 40
0.5195420000000001
  0
CIRCLE
  5
269
330
25D
100
AcDbEntity
  8
DAMAN
100
AcDbCircle
 10
6.731839999999999
 20
1.479188999999999
 30
0.0
 40
0.62345
  0
INSERT
  5
26A
330
25D
100
AcDbEntity
  8
DAMAN
100
AcDbBlockReference
  2
100CROSS
 10
6.731839999999999
 20
1.479188999999999
 30
0.0
 41
1.246899999999999
 42
1.246899999999999
  0
CIRCLE
  5
26B
330
25D
100
AcDbEntity
  8
DAMAN
100
AcDbCircle
 10
6.731839999999999
 20
6.399188999999999
 30
0.0
 40
0.5195420000000001
  0
CIRCLE
  5
26C
330
25D
100
AcDbEntity
  8
DAMAN
100
AcDbCircle
 10
6.731839999999999
 20
6.399188999999999
 30
0.0
 40
0.62345
  0
INSERT
  5
26D
330
25D
100
AcDbEntity
  8
DAMAN
100
AcDbBlockReference
  2
100CROSS
 10
6.731839999999999
 20
6.399188999999999
 30
0.0
 41
1.246899999999999
 42
1.246899999999999
  0
CIRCLE
  5
26E
330
25D
100
AcDbEntity
  8
DAMAN
100
AcDbCircle
 10
4.27184
 20
6.889189
 30
0.0
 40
0.235
  0
CIRCLE
  5
26F
330
25D
100
AcDbEntity
  8
DAMAN
100
AcDbCircle
 10
1.321839999999999
 20
3.939188999999999
 30
0.0
 40
0.235
  0
CIRCLE
  5
270
330
25D
100
AcDbEntity
  8
DAMAN
100
AcDbCircle
 10
4.27184
 20
0.989189
 30
0.0
 40
0.235
  0
CIRCLE
  5
271
330
25D
100
AcDbEntity
  8
DAMAN
100
AcDbCircle
 10
7.221839999999999
 20
3.939188999999999
 30
0.0
 40
0.235
  0
CIRCLE
  5
272
330
25D
100
AcDbEntity
  8
DAMAN
100
AcDbCircle
 10
2.77584
 20
6.399188999999999
 30
0.0
 40
0.157
  0
INSERT
  5
273
330
25D
100
AcDbEntity
  8
DAMAN
100
AcDbBlockReference
  2
100CROSS
 10
1.321839999999999
 20
3.939188999999999
 30
0.0
 41
0.561094
 42
0.561094
  0
INSERT
  5
274
330
25D
100
AcDbEntity
  8
DAMAN
100
AcDbBlockReference
  2
100CROSS
 10
4.27184
 20
0.989189
 30
0.0
 41
0.561094
 42
0.561094
  0
INSERT
  5
275
330
25D
100
AcDbEntity
  8
DAMAN
100
AcDbBlockReference
  2
100CROSS
 10
7.221839999999999
 20
3.939188999999999
 30
0.0
 41
0.561094
 42
0.561094
  0
INSERT
  5
276
330
25D
100
AcDbEntity
  8
DAMAN
100
AcDbBlockReference
  2
100CROSS
 10
2.77584
 20
6.399188999999999
 30
0.0
 41
0.42082
 42
0.42082
  0
INSERT
  5
277
330
25D
100
AcDbEntity
  8
DAMAN
100
AcDbBlockReference
  2
100CROSS
 10
4.27184
 20
6.889189
 30
0.0
 41
0.561094
 42
0.561094
  0
INSERT
  5
278
330
25D
100
AcDbEntity
  8
DAMAN
100
AcDbBlockReference
  2
100CROSS
 10
4.27184
 20
3.939188999999999
 30
0.0
 41
3.054391999999999
 42
3.054391999999999
  0
ENDBLK
  5
279
330
25D
100
AcDbEntity
  8
0
100
AcDbBlockEnd
  0
BLOCK
  5
27B
330
27A
100
AcDbEntity
  8
0
100
AcDbBlockBegin
  2
08SAET
 70
     0
 10
0.0
 20
0.0
 30
0.0
  3
08SAET
  1

  0
CIRCLE
  5
27C
330
27A
100
AcDbEntity
  8
DAMAN
100
AcDbCircle
 10
0.0
 20
0.0
 30
0.0
 40
0.375
  0
CIRCLE
  5
27D
330
27A
100
AcDbEntity
  8
DAMAN
100
AcDbCircle
 10
0.0
 20
0.0
 30
0.0
 40
0.3125
  0
CIRCLE
  5
27E
330
27A
100
AcDbEntity
  8
DAMAN
  6
HIDDEN
100
AcDbCircle
 10
0.0
 20
0.0
 30
0.0
 40
0.3439999999999999
  0
INSERT
  5
27F
330
27A
100
AcDbEntity
  8
DAMAN
100
AcDbBlockReference
  2
100CROSS
 10
0.0
 20
0.0
 30
0.0
 41
0.88
 42
0.88
  0
CIRCLE
  5
280
330
27A
100
AcDbEntity
  8
DAMAN
100
AcDbCircle
 10
0.0
 20
0.0
 30
0.0
 40
0.594
  0
ENDBLK
  5
281
330
27A
100
AcDbEntity
  8
0
100
AcDbBlockEnd
  0
BLOCK
  5
283
330
282
100
AcDbEntity
  8
0
100
AcDbBlockBegin
  2
48CD61
 70
     0
 10
0.0
 20
0.0
 30
0.0
  3
48CD61
  1

  0
INSERT
  5
284
330
282
100
AcDbEntity
  8
DAMAN
100
AcDbBlockReference
  2
100CROSS
 10
2.928767999999999
 20
3.641891999999999
 30
0.0
 41
2.175292999999999
 42
2.175292999999999
  0
CIRCLE
  5
285
330
282
100
AcDbEntity
  8
DAMAN
100
AcDbCircle
 10
2.928767999999999
 20
3.641891999999999
 30
0.0
 40
1.5
  0
INSERT
  5
286
330
282
100
AcDbEntity
  8
DAMAN
100
AcDbBlockReference
  2
100CROSS
 10
1.709767999999999
 20
5.735891999999999
 30
0.0
 41
0.7289550000000001
 42
0.7289550000000001
  0
CIRCLE
  5
287
330
282
100
AcDbEntity
  8
DAMAN
100
AcDbCircle
 10
1.709767999999999
 20
5.735891999999999
 30
0.0
 40
0.364478
  0
CIRCLE
  5
288
330
282
100
AcDbEntity
  8
DAMAN
100
AcDbCircle
 10
1.709767999999999
 20
5.735891999999999
 30
0.0
 40
0.303731
  0
CIRCLE
  5
289
330
282
100
AcDbEntity
  8
DAMAN
100
AcDbCircle
 10
1.709767999999999
 20
5.735891999999999
 30
0.0
 40
0.303731
  0
INSERT
  5
28A
330
282
100
AcDbEntity
  8
DAMAN
100
AcDbBlockReference
  2
100CROSS
 10
4.147768
 20
5.735891999999999
 30
0.0
 41
0.7289550000000001
 42
0.7289550000000001
  0
CIRCLE
  5
28B
330
282
100
AcDbEntity
  8
DAMAN
100
AcDbCircle
 10
4.147768
 20
5.735891999999999
 30
0.0
 40
0.364478
  0
CIRCLE
  5
28C
330
282
100
AcDbEntity
  8
DAMAN
100
AcDbCircle
 10
4.147768
 20
5.735891999999999
 30
0.0
 40
0.303731
  0
CIRCLE
  5
28D
330
282
100
AcDbEntity
  8
DAMAN
100
AcDbCircle
 10
4.147768
 20
5.735891999999999
 30
0.0
 40
0.303731
  0
INSERT
  5
28E
330
282
100
AcDbEntity
  8
DAMAN
100
AcDbBlockReference
  2
100CROSS
 10
4.147768
 20
1.547892
 30
0.0
 41
0.7289550000000001
 42
0.7289550000000001
  0
CIRCLE
  5
28F
330
282
100
AcDbEntity
  8
DAMAN
100
AcDbCircle
 10
4.147768
 20
1.547892
 30
0.0
 40
0.364478
  0
CIRCLE
  5
290
330
282
100
AcDbEntity
  8
DAMAN
100
AcDbCircle
 10
4.147768
 20
1.547892
 30
0.0
 40
0.303731
  0
CIRCLE
  5
291
330
282
100
AcDbEntity
  8
DAMAN
100
AcDbCircle
 10
4.147768
 20
1.547892
 30
0.0
 40
0.303731
  0
INSERT
  5
292
330
282
100
AcDbEntity
  8
DAMAN
100
AcDbBlockReference
  2
100CROSS
 10
1.709767999999999
 20
1.547892
 30
0.0
 41
0.7289550000000001
 42
0.7289550000000001
  0
CIRCLE
  5
293
330
282
100
AcDbEntity
  8
DAMAN
100
AcDbCircle
 10
1.709767999999999
 20
1.547892
 30
0.0
 40
0.364478
  0
CIRCLE
  5
294
330
282
100
AcDbEntity
  8
DAMAN
100
AcDbCircle
 10
1.709767999999999
 20
1.547892
 30
0.0
 40
0.303731
  0
CIRCLE
  5
295
330
282
100
AcDbEntity
  8
DAMAN
100
AcDbCircle
 10
1.709767999999999
 20
1.547892
 30
0.0
 40
0.303731
  0
ENDBLK
  5
296
330
282
100
AcDbEntity
  8
0
100
AcDbBlockEnd
  0
BLOCK
  5
298
330
297
100
AcDbEntity
  8
0
100
AcDbBlockBegin
  2
80CD61
 70
     0
 10
0.0
 20
0.0
 30
0.0
  3
80CD61
  1

  0
CIRCLE
  5
299
330
297
100
AcDbEntity
  8
DAMAN
100
AcDbCircle
 10
4.057008999999999
 20
4.946697
 30
0.0
 40
2.5
  0
INSERT
  5
29A
330
297
100
AcDbEntity
  8
DAMAN
100
AcDbBlockReference
  2
100CROSS
 10
2.247008999999999
 20
7.946697
 30
0.0
 41
0.6251250000000001
 42
0.6251250000000001
  0
CIRCLE
  5
29B
330
297
100
AcDbEntity
  8
DAMAN
100
AcDbCircle
 10
2.247008999999999
 20
7.946697
 30
0.0
 40
0.312563
  0
CIRCLE
  5
29C
330
297
100
AcDbEntity
  8
DAMAN
100
AcDbCircle
 10
2.247008999999999
 20
7.946697
 30
0.0
 40
0.260469
  0
INSERT
  5
29D
330
297
100
AcDbEntity
  8
DAMAN
100
AcDbBlockReference
  2
100CROSS
 10
5.867008999999999
 20
7.946697
 30
0.0
 41
0.6251250000000001
 42
0.6251250000000001
  0
CIRCLE
  5
29E
330
297
100
AcDbEntity
  8
DAMAN
100
AcDbCircle
 10
5.867008999999999
 20
7.946697
 30
0.0
 40
0.312563
  0
CIRCLE
  5
29F
330
297
100
AcDbEntity
  8
DAMAN
100
AcDbCircle
 10
5.867008999999999
 20
7.946697
 30
0.0
 40
0.260469
  0
INSERT
  5
2A0
330
297
100
AcDbEntity
  8
DAMAN
100
AcDbBlockReference
  2
100CROSS
 10
5.867008999999999
 20
1.946697
 30
0.0
 41
0.6251250000000001
 42
0.6251250000000001
  0
CIRCLE
  5
2A1
330
297
100
AcDbEntity
  8
DAMAN
100
AcDbCircle
 10
5.867008999999999
 20
1.946697
 30
0.0
 40
0.312563
  0
CIRCLE
  5
2A2
330
297
100
AcDbEntity
  8
DAMAN
100
AcDbCircle
 10
5.867008999999999
 20
1.946697
 30
0.0
 40
0.260469
  0
INSERT
  5
2A3
330
297
100
AcDbEntity
  8
DAMAN
100
AcDbBlockReference
  2
100CROSS
 10
2.247008999999999
 20
1.946697
 30
0.0
 41
0.6251250000000001
 42
0.6251250000000001
  0
CIRCLE
  5
2A4
330
297
100
AcDbEntity
  8
DAMAN
100
AcDbCircle
 10
2.247008999999999
 20
1.946697
 30
0.0
 40
0.312563
  0
CIRCLE
  5
2A5
330
297
100
AcDbEntity
  8
DAMAN
100
AcDbCircle
 10
2.247008999999999
 20
1.946697
 30
0.0
 40
0.260469
  0
INSERT
  5
2A6
330
297
100
AcDbEntity
  8
DAMAN
100
AcDbBlockReference
  2
100CROSS
 10
4.057008999999999
 20
4.946697
 30
0.0
 41
3.907030999999999
 42
3.907030999999999
  0
ENDBLK
  5
2A7
330
297
100
AcDbEntity
  8
0
100
AcDbBlockEnd
  0
BLOCK
  5
2A9
330
2A8
100
AcDbEntity
  8
0
100
AcDbBlockBegin
  2
48CD62
 70
     0
 10
0.0
 20
0.0
 30
0.0
  3
48CD62
  1

  0
INSERT
  5
2AA
330
2A8
100
AcDbEntity
  8
DAMAN
100
AcDbBlockReference
  2
100CROSS
 10
3.580698999999999
 20
4.748916
 30
0.0
 41
2.175292999999999
 42
2.175292999999999
  0
INSERT
  5
2AB
330
2A8
100
AcDbEntity
  8
DAMAN
100
AcDbBlockReference
  2
100CROSS
 10
4.986698999999999
 20
1.748915999999999
 30
0.0
 41
1.312119
 42
1.312119
  0
CIRCLE
  5
2AC
330
2A8
100
AcDbEntity
  8
DAMAN
100
AcDbCircle
 10
4.986698999999999
 20
1.748915999999999
 30
0.0
 40
0.6560600000000001
  0
CIRCLE
  5
2AD
330
2A8
100
AcDbEntity
  8
DAMAN
100
AcDbCircle
 10
4.986698999999999
 20
1.748915999999999
 30
0.0
 40
0.546716
  0
CIRCLE
  5
2AE
330
2A8
100
AcDbEntity
  8
DAMAN
100
AcDbCircle
 10
4.986698999999999
 20
1.748915999999999
 30
0.0
 40
0.546716
  0
CIRCLE
  5
2AF
330
2A8
100
AcDbEntity
  8
DAMAN
100
AcDbCircle
 10
4.986698999999999
 20
7.748916
 30
0.0
 40
0.6560600000000001
  0
CIRCLE
  5
2B0
330
2A8
100
AcDbEntity
  8
DAMAN
100
AcDbCircle
 10
4.986698999999999
 20
7.748916
 30
0.0
 40
0.546716
  0
INSERT
  5
2B1
330
2A8
100
AcDbEntity
  8
DAMAN
100
AcDbBlockReference
  2
100CROSS
 10
4.986698999999999
 20
7.748916
 30
0.0
 41
1.312119
 42
1.312119
  0
CIRCLE
  5
2B2
330
2A8
100
AcDbEntity
  8
DAMAN
100
AcDbCircle
 10
2.174699
 20
7.748916
 30
0.0
 40
0.6560600000000001
  0
CIRCLE
  5
2B3
330
2A8
100
AcDbEntity
  8
DAMAN
100
AcDbCircle
 10
2.174699
 20
7.748916
 30
0.0
 40
0.546716
  0
INSERT
  5
2B4
330
2A8
100
AcDbEntity
  8
DAMAN
100
AcDbBlockReference
  2
100CROSS
 10
2.174699
 20
7.748916
 30
0.0
 41
1.312119
 42
1.312119
  0
CIRCLE
  5
2B5
330
2A8
100
AcDbEntity
  8
DAMAN
100
AcDbCircle
 10
2.174699
 20
1.748915999999999
 30
0.0
 40
0.6560600000000001
  0
CIRCLE
  5
2B6
330
2A8
100
AcDbEntity
  8
DAMAN
100
AcDbCircle
 10
2.174699
 20
1.748915999999999
 30
0.0
 40
0.546716
  0
INSERT
  5
2B7
330
2A8
100
AcDbEntity
  8
DAMAN
100
AcDbBlockReference
  2
100CROSS
 10
2.174699
 20
1.748915999999999
 30
0.0
 41
1.312119
 42
1.312119
  0
CIRCLE
  5
2B8
330
2A8
100
AcDbEntity
  8
DAMAN
100
AcDbCircle
 10
3.580698999999999
 20
4.748916
 30
0.0
 40
1.5
  0
ENDBLK
  5
2B9
330
2A8
100
AcDbEntity
  8
0
100
AcDbBlockEnd
  0
BLOCK
  5
2C4
330
2C3
100
AcDbEntity
  8
0
100
AcDbBlockBegin
  2
M10T
 70
     0
 10
0.0
 20
0.0
 30
0.0
  3
M10T
  1

  0
INSERT
  5
2C5
330
2C3
100
AcDbEntity
  8
DAMAN
100
AcDbBlockReference
  2
100CROSS
 10
0.0
 20
0.0
 30
0.0
 41
0.59
 42
0.59
 43
0.59
  0
CIRCLE
  5
2C6
330
2C3
100
AcDbEntity
  8
DAMAN
100
AcDbCircle
 10
0.0
 20
0.0
 30
0.0
 40
0.3145
  0
CIRCLE
  5
2C7
330
2C3
100
AcDbEntity
  8
DAMAN
100
AcDbCircle
 10
0.0
 20
0.0
 30
0.0
 40
0.3935
  0
CIRCLE
  5
2C8
330
2C3
100
AcDbEntity
  8
DAMAN
100
AcDbCircle
 10
0.0
 20
0.0
 30
0.0
 40
0.2185
  0
CIRCLE
  5
2C9
330
2C3
100
AcDbEntity
  8
DAMAN
  6
HIDDEN
100
AcDbCircle
 10
0.0
 20
0.0
 30
0.0
 40
0.19685
  0
CIRCLE
  5
2CA
330
2C3
100
AcDbEntity
  8
DAMAN
100
AcDbCircle
 10
0.0
 20
0.0
 30
0.0
 40
0.1775
  0
ENDBLK
  5
2CB
330
2C3
100
AcDbEntity
  8
0
100
AcDbBlockEnd
  0
BLOCK
  5
2CD
330
2CC
100
AcDbEntity
  8
0
100
AcDbBlockBegin
  2
050NPTFT
 70
     0
 10
0.0
 20
0.0
 30
0.0
  3
050NPTFT
  1

  0
INSERT
  5
2CF
330
2CC
100
AcDbEntity
  8
DAMAN
100
AcDbBlockReference
  2
500NPTFT
 10
0.0
 20
0.0
 30
0.0
  0
ENDBLK
  5
2D0
330
2CC
100
AcDbEntity
  8
0
100
AcDbBlockEnd
  0
BLOCK
  5
2D1
330
2CE
100
AcDbEntity
  8
0
100
AcDbBlockBegin
  2
500NPTFT
 70
     0
 10
0.0
 20
0.0
 30
0.0
  3
500NPTFT
  1

  0
INSERT
  5
2D2
330
2CE
100
AcDbEntity
  8
DAMAN
 62
     5
100
AcDbBlockReference
  2
100CROSS
 10
0.0
 20
0.0
 30
0.0
 41
0.84
 42
0.84
  0
CIRCLE
  5
2D3
330
2CE
100
AcDbEntity
  8
DAMAN
 62
     5
100
AcDbCircle
 10
0.0
 20
0.0
 30
0.0
 40
0.384627
  0
CIRCLE
  5
2D4
330
2CE
100
AcDbEntity
  8
DAMAN
 62
     5
100
AcDbCircle
 10
0.0
 20
0.0
 30
0.0
 40
0.3439999999999999
  0
CIRCLE
  5
2D5
330
2CE
100
AcDbEntity
  8
DAMAN
 62
     5
100
AcDbCircle
 10
0.0
 20
0.0
 30
0.0
 40
0.4295
  0
ENDBLK
  5
2D6
330
2CE
100
AcDbEntity
  8
0
100
AcDbBlockEnd
  0
BLOCK
  5
2D8
330
2D7
100
AcDbEntity
  8
0
100
AcDbBlockBegin
  2
0500BSPPT
 70
     0
 10
0.0
 20
0.0
 30
0.0
  3
0500BSPPT
  1

  0
CIRCLE
  5
2D9
330
2D7
100
AcDbEntity
  8
DAMAN
100
AcDbCircle
 10
0.0
 20
0.0
 30
0.0
 40
0.3795
  0
INSERT
  5
2DA
330
2D7
100
AcDbEntity
  8
DAMAN
100
AcDbBlockReference
  2
100CROSS
 10
0.0
 20
0.0
 30
0.0
 41
1.199999999999999
 42
1.199999999999999
  0
CIRCLE
  5
2DB
330
2D7
100
AcDbEntity
  8
DAMAN
100
AcDbCircle
 10
0.0
 20
0.0
 30
0.0
 40
0.605
  0
CIRCLE
  5
2DC
330
2D7
100
AcDbEntity
  8
DAMAN
  6
HIDDEN
100
AcDbCircle
 10
0.0
 20
0.0
 30
0.0
 40
0.4125
  0
CIRCLE
  5
2DD
330
2D7
100
AcDbEntity
  8
DAMAN
100
AcDbCircle
 10
0.0
 20
0.0
 30
0.0
 40
0.4175
  0
ENDBLK
  5
2DE
330
2D7
100
AcDbEntity
  8
0
100
AcDbBlockEnd
  0
BLOCK
  5
2E0
330
2DF
100
AcDbEntity
  8
0
100
AcDbBlockBegin
  2
M18T
 70
     0
 10
0.0
 20
0.0
 30
0.0
  3
M18T
  1

  0
CIRCLE
  5
2E1
330
2DF
100
AcDbEntity
  8
DAMAN
  6
HIDDEN
100
AcDbCircle
 10
0.0
 20
0.0
 30
0.0
 40
0.35433
  0
CIRCLE
  5
2E2
330
2DF
100
AcDbEntity
  8
DAMAN
100
AcDbCircle
 10
0.0
 20
0.0
 30
0.0
 40
0.38976
  0
CIRCLE
  5
2E3
330
2DF
100
AcDbEntity
  8
DAMAN
100
AcDbCircle
 10
0.0
 20
0.0
 30
0.0
 40
0.32555
  0
CIRCLE
  5
2E4
330
2DF
100
AcDbEntity
  8
DAMAN
100
AcDbCircle
 10
0.0
 20
0.0
 30
0.0
 40
0.5911
  0
INSERT
  5
2E5
330
2DF
100
AcDbEntity
  8
DAMAN
100
AcDbBlockReference
  2
100CROSS
 10
0.0
 20
0.0
 30
0.0
 41
0.88
 42
0.88
  0
CIRCLE
  5
2E6
330
2DF
100
AcDbEntity
  8
DAMAN
100
AcDbCircle
 10
0.0
 20
0.0
 30
0.0
 40
0.51181
  0
ENDBLK
  5
2E7
330
2DF
100
AcDbEntity
  8
0
100
AcDbBlockEnd
  0
BLOCK
  5
2E9
330
2E8
100
AcDbEntity
  8
0
100
AcDbBlockBegin
  2
075NPTFT
 70
     0
 10
0.0
 20
0.0
 30
0.0
  3
075NPTFT
  1

  0
INSERT
  5
2EB
330
2E8
100
AcDbEntity
  8
DAMAN
100
AcDbBlockReference
  2
750NPTFT
 10
-6.410892999999999
 20
-4.555543
 30
0.0
  0
ENDBLK
  5
2EC
330
2E8
100
AcDbEntity
  8
0
100
AcDbBlockEnd
  0
BLOCK
  5
2ED
330
2EA
100
AcDbEntity
  8
0
100
AcDbBlockBegin
  2
750NPTFT
 70
     0
 10
0.0
 20
0.0
 30
0.0
  3
750NPTFT
  1

  0
INSERT
  5
2EE
330
2EA
100
AcDbEntity
  8
DAMAN
 62
     5
100
AcDbBlockReference
  2
100CROSS
 10
6.410892999999999
 20
4.555543
 30
0.0
 41
0.98
 42
0.98
  0
CIRCLE
  5
2EF
330
2EA
100
AcDbEntity
  8
DAMAN
 62
     5
100
AcDbCircle
 10
6.410892999999999
 20
4.555543
 30
0.0
 40
0.4910670000000001
  0
CIRCLE
  5
2F0
330
2EA
100
AcDbEntity
  8
DAMAN
 62
     5
100
AcDbCircle
 10
6.410892999999999
 20
4.555543
 30
0.0
 40
0.453
  0
CIRCLE
  5
2F1
330
2EA
100
AcDbEntity
  8
DAMAN
 62
     5
100
AcDbCircle
 10
6.410892999999999
 20
4.555543
 30
0.0
 40
0.53125
  0
ENDBLK
  5
2F2
330
2EA
100
AcDbEntity
  8
0
100
AcDbBlockEnd
  0
BLOCK
  5
2F4
330
2F3
100
AcDbEntity
  8
0
100
AcDbBlockBegin
  2
12SAET
 70
     0
 10
0.0
 20
0.0
 30
0.0
  3
12SAET
  1

  0
CIRCLE
  5
2F5
330
2F3
100
AcDbEntity
  8
DAMAN
100
AcDbCircle
 10
0.0
 20
0.0
 30
0.0
 40
0.53125
  0
INSERT
  5
2F6
330
2F3
100
AcDbEntity
  8
DAMAN
100
AcDbBlockReference
  2
100CROSS
 10
0.0
 20
0.0
 30
0.0
 41
1.33
 42
1.33
  0
CIRCLE
  5
2F7
330
2F3
100
AcDbEntity
  8
DAMAN
100
AcDbCircle
 10
0.0
 20
0.0
 30
0.0
 40
0.8125
  0
CIRCLE
  5
2F8
330
2F3
100
AcDbEntity
  8
DAMAN
100
AcDbCircle
 10
0.0
 20
0.0
 30
0.0
 40
0.453
  0
CIRCLE
  5
2F9
330
2F3
100
AcDbEntity
  8
DAMAN
100
AcDbCircle
 10
0.0
 20
0.0
 30
0.0
 40
0.4920000000000001
  0
ENDBLK
  5
2FA
330
2F3
100
AcDbEntity
  8
0
100
AcDbBlockEnd
  0
BLOCK
  5
2FC
330
2FB
100
AcDbEntity
  8
0
100
AcDbBlockBegin
  2
075BSPPT
 70
     0
 10
0.0
 20
0.0
 30
0.0
  3
075BSPPT
  1

  0
CIRCLE
  5
2FD
330
2FB
100
AcDbEntity
  8
DAMAN
100
AcDbCircle
 10
0.0
 20
0.0
 30
0.0
 40
0.453
  0
CIRCLE
  5
2FE
330
2FB
100
AcDbEntity
  8
DAMAN
100
AcDbCircle
 10
0.0
 20
0.0
 30
0.0
 40
0.475
  0
CIRCLE
  5
2FF
330
2FB
100
AcDbEntity
  8
DAMAN
100
AcDbCircle
 10
0.0
 20
0.0
 30
0.0
 40
0.72
  0
LINE
  5
300
330
2FB
100
AcDbEntity
  8
DAMAN
  6
CENTER
100
AcDbLine
 10
-0.8125
 20
0.0
 30
0.0
 11
0.8125
 21
0.0
 31
0.0
  0
CIRCLE
  5
301
330
2FB
100
AcDbEntity
  8
DAMAN
  6
HIDDEN
100
AcDbCircle
 10
0.0
 20
0.0
 30
0.0
 40
0.5200000000000001
  0
LINE
  5
302
330
2FB
100
AcDbEntity
  8
DAMAN
  6
CENTER
100
AcDbLine
 10
0.0
 20
0.8125
 30
0.0
 11
0.0
 21
-0.8125
 31
0.0
  0
ENDBLK
  5
303
330
2FB
100
AcDbEntity
  8
0
100
AcDbBlockEnd
  0
BLOCK
  5
305
330
304
100
AcDbEntity
  8
0
100
AcDbBlockBegin
  2
M27T
 70
     0
 10
0.0
 20
0.0
 30
0.0
  3
M27T
  1

  0
CIRCLE
  5
306
330
304
100
AcDbEntity
  8
DAMAN
100
AcDbCircle
 10
0.0
 20
0.0
 30
0.0
 40
0.5787
  0
CIRCLE
  5
307
330
304
100
AcDbEntity
  8
DAMAN
  6
HIDDEN
100
AcDbCircle
 10
0.0
 20
0.0
 30
0.0
 40
0.53145
  0
CIRCLE
  5
308
330
304
100
AcDbEntity
  8
DAMAN
100
AcDbCircle
 10
0.0
 20
0.0
 30
0.0
 40
0.7874
  0
INSERT
  5
309
330
304
100
AcDbEntity
  8
DAMAN
100
AcDbBlockReference
  2
100CROSS
 10
0.0
 20
0.0
 30
0.0
 41
1.33
 42
1.33
  0
CIRCLE
  5
30A
330
304
100
AcDbEntity
  8
DAMAN
100
AcDbCircle
 10
0.0
 20
0.0
 30
0.0
 40
0.66929
  0
CIRCLE
  5
30B
330
304
100
AcDbEntity
  8
DAMAN
100
AcDbCircle
 10
0.0
 20
0.0
 30
0.0
 40
0.4955
  0
ENDBLK
  5
30C
330
304
100
AcDbEntity
  8
0
100
AcDbBlockEnd
  0
BLOCK
  5
30E
330
30D
100
AcDbEntity
  8
0
100
AcDbBlockBegin
  2
106SAET
 70
     0
 10
0.0
 20
0.0
 30
0.0
  3
106SAET
  1

  0
CIRCLE
  5
30F
330
30D
100
AcDbEntity
  8
CSOLID
100
AcDbCircle
 10
0.0
 20
0.0
 30
0.0
 40
0.4920000000000001
  0
CIRCLE
  5
310
330
30D
100
AcDbEntity
  8
CSOLID
100
AcDbCircle
 10
0.0
 20
0.0
 30
0.0
 40
0.453
  0
CIRCLE
  5
311
330
30D
100
AcDbEntity
  8
CSOLID
100
AcDbCircle
 10
0.0
 20
0.0
 30
0.0
 40
0.8125
  0
INSERT
  5
312
330
30D
100
AcDbEntity
  8
CCENTER
100
AcDbBlockReference
  2
100CROSS
 10
0.0
 20
0.0
 30
0.0
 41
1.33
 42
1.33
  0
CIRCLE
  5
313
330
30D
100
AcDbEntity
  8
CHIDDEN
100
AcDbCircle
 10
0.0
 20
0.0
 30
0.0
 40
0.53125
  0
CIRCLE
  5
314
330
30D
100
AcDbEntity
  8
PHANTOM
100
AcDbCircle
 10
0.0
 20
0.0
 30
0.0
 40
0.725
  0
ENDBLK
  5
315
330
30D
100
AcDbEntity
  8
0
100
AcDbBlockEnd
  0
BLOCK
  5
317
330
316
100
AcDbEntity
  8
0
100
AcDbBlockBegin
  2
C102T
 70
     0
 10
0.0
 20
0.0
 30
0.0
  3
C102T
  1

  0
CIRCLE
  5
318
330
316
100
AcDbEntity
  8
DAMAN
100
AcDbCircle
 10
0.0
 20
0.0
 30
0.0
 40
0.4060000000000001
  0
INSERT
  5
319
330
316
100
AcDbEntity
  8
DAMAN
100
AcDbBlockReference
  2
100CROSS
 10
0.0
 20
0.0
 30
0.0
 41
1.199999999999999
 42
1.199999999999999
  0
CIRCLE
  5
31A
330
316
100
AcDbEntity
  8
DAMAN
100
AcDbCircle
 10
0.0
 20
0.0
 30
0.0
 40
0.594
  0
CIRCLE
  5
31B
330
316
100
AcDbEntity
  8
DAMAN
  6
HIDDEN
100
AcDbCircle
 10
0.0
 20
0.0
 30
0.0
 40
0.4375
  0
CIRCLE
  5
31C
330
316
100
AcDbEntity
  8
DAMAN
100
AcDbCircle
 10
0.0
 20
0.0
 30
0.0
 40
0.4725
  0
CIRCLE
  5
31D
330
316
100
AcDbEntity
  8
DAMAN
100
AcDbCircle
 10
0.0
 20
0.0
 30
0.0
 40
0.3125
  0
ENDBLK
  5
31E
330
316
100
AcDbEntity
  8
0
100
AcDbBlockEnd
  0
BLOCK
  5
320
330
31F
100
AcDbEntity
  8
0
100
AcDbBlockBegin
  2
T10AT
 70
     0
 10
0.0
 20
0.0
 30
0.0
  3
T10AT
  1

  0
CIRCLE
  5
321
330
31F
100
AcDbEntity
  8
DAMAN
100
AcDbCircle
 10
0.0
 20
0.0
 30
0.0
 40
0.365
  0
CIRCLE
  5
322
330
31F
100
AcDbEntity
  8
DAMAN
100
AcDbCircle
 10
0.0
 20
0.0
 30
0.0
 40
0.3435
  0
CIRCLE
  5
323
330
31F
100
AcDbEntity
  8
DAMAN
  6
HIDDEN
100
AcDbCircle
 10
0.0
 20
0.0
 30
0.0
 40
0.3937
  0
INSERT
  5
324
330
31F
100
AcDbEntity
  8
DAMAN
100
AcDbBlockReference
  2
100CROSS
 10
0.0
 20
0.0
 30
0.0
 41
0.88
 42
0.88
  0
CIRCLE
  5
325
330
31F
100
AcDbEntity
  8
DAMAN
100
AcDbCircle
 10
0.0
 20
0.0
 30
0.0
 40
0.4060000000000001
  0
CIRCLE
  5
326
330
31F
100
AcDbEntity
  8
DAMAN
100
AcDbCircle
 10
0.0
 20
0.0
 30
0.0
 40
0.4295
  0
CIRCLE
  5
327
330
31F
100
AcDbEntity
  8
DAMAN
100
AcDbCircle
 10
0.0
 20
0.0
 30
0.0
 40
0.281
  0
ENDBLK
  5
328
330
31F
100
AcDbEntity
  8
0
100
AcDbBlockEnd
  0
BLOCK
  5
32A
330
329
100
AcDbEntity
  8
0
100
AcDbBlockBegin
  2
100NPTFT
 70
     0
 10
0.0
 20
0.0
 30
0.0
  3
100NPTFT
  1

  0
CIRCLE
  5
32B
330
329
100
AcDbEntity
  8
DAMAN
100
AcDbCircle
 10
0.0
 20
0.0
 30
0.0
 40
0.5625
  0
CIRCLE
  5
32C
330
329
100
AcDbEntity
  8
DAMAN
100
AcDbCircle
 10
0.0
 20
0.0
 30
0.0
 40
0.6720000000000001
  0
INSERT
  5
32D
330
329
100
AcDbEntity
  8
DAMAN
100
AcDbBlockReference
  2
100CROSS
 10
0.0
 20
0.0
 30
0.0
 41
1.199999999999999
 42
1.199999999999999
  0
CIRCLE
  5
32E
330
329
100
AcDbEntity
  8
DAMAN
100
AcDbCircle
 10
0.0
 20
0.0
 30
0.0
 40
0.625
  0
ENDBLK
  5
32F
330
329
100
AcDbEntity
  8
0
100
AcDbBlockEnd
  0
BLOCK
  5
331
330
330
100
AcDbEntity
  8
0
100
AcDbBlockBegin
  2
D05H
 70
     0
 10
0.0
 20
0.0
 30
0.0
  3
D05H
  1

  0
INSERT
  5
332
330
330
100
AcDbEntity
  8
DAMAN
100
AcDbBlockReference
  2
D05
 10
5.03125
 20
5.71875
 30
0.0
  0
CIRCLE
  5
333
330
330
100
AcDbEntity
  8
DAMAN
100
AcDbCircle
 10
5.12525
 20
6.156749999999999
 30
0.0
 40
0.094
  0
INSERT
  5
334
330
330
100
AcDbEntity
  8
DAMAN
100
AcDbBlockReference
  2
100CROSS
 10
5.12525
 20
6.156749999999999
 30
0.0
 41
0.25
 42
0.25
  0
CIRCLE
  5
335
330
330
100
AcDbEntity
  8
DAMAN
100
AcDbCircle
 10
6.75025
 20
3.15675
 30
0.0
 40
0.094
  0
INSERT
  5
336
330
330
100
AcDbEntity
  8
DAMAN
100
AcDbBlockReference
  2
100CROSS
 10
6.75025
 20
3.15675
 30
0.0
 41
0.25
 42
0.25
  0
ENDBLK
  5
337
330
330
100
AcDbEntity
  8
0
100
AcDbBlockEnd
  0
BLOCK
  5
339
330
338
100
AcDbEntity
  8
0
100
AcDbBlockBegin
  2
16SAET
 70
     0
 10
0.0
 20
0.0
 30
0.0
  3
16SAET
  1

  0
CIRCLE
  5
33A
330
338
100
AcDbEntity
  8
DAMAN
100
AcDbCircle
 10
0.0
 20
0.0
 30
0.0
 40
0.6125
  0
CIRCLE
  5
33B
330
338
100
AcDbEntity
  8
DAMAN
100
AcDbCircle
 10
0.0
 20
0.0
 30
0.0
 40
0.5620000000000001
  0
CIRCLE
  5
33C
330
338
100
AcDbEntity
  8
DAMAN
100
AcDbCircle
 10
0.0
 20
0.0
 30
0.0
 40
1.0
  0
INSERT
  5
33D
330
338
100
AcDbEntity
  8
DAMAN
100
AcDbBlockReference
  2
100CROSS
 10
0.0
 20
0.0
 30
0.0
 41
1.6
 42
1.6
  0
CIRCLE
  5
33E
330
338
100
AcDbEntity
  8
DAMAN
100
AcDbCircle
 10
0.0
 20
0.0
 30
0.0
 40
0.65625
  0
ENDBLK
  5
33F
330
338
100
AcDbEntity
  8
0
100
AcDbBlockEnd
  0
BLOCK
  5
341
330
340
100
AcDbEntity
  8
0
100
AcDbBlockBegin
  2
100BSPPT
 70
     0
 10
0.0
 20
0.0
 30
0.0
  3
100BSPPT
  1

  0
CIRCLE
  5
342
330
340
100
AcDbEntity
  8
DAMAN
  6
HIDDEN
100
AcDbCircle
 10
0.0
 20
0.0
 30
0.0
 40
0.6545
  0
CIRCLE
  5
343
330
340
100
AcDbEntity
  8
DAMAN
100
AcDbCircle
 10
0.0
 20
0.0
 30
0.0
 40
0.6125
  0
CIRCLE
  5
344
330
340
100
AcDbEntity
  8
DAMAN
100
AcDbCircle
 10
0.0
 20
0.0
 30
0.0
 40
0.915
  0
INSERT
  5
345
330
340
100
AcDbEntity
  8
DAMAN
100
AcDbBlockReference
  2
100CROSS
 10
0.0
 20
0.0
 30
0.0
 41
1.33
 42
1.33
  0
CIRCLE
  5
346
330
340
100
AcDbEntity
  8
DAMAN
100
AcDbCircle
 10
0.0
 20
0.0
 30
0.0
 40
0.6575
  0
ENDBLK
  5
347
330
340
100
AcDbEntity
  8
0
100
AcDbBlockEnd
  0
BLOCK
  5
349
330
348
100
AcDbEntity
  8
0
100
AcDbBlockBegin
  2
M33T
 70
     0
 10
0.0
 20
0.0
 30
0.0
  3
M33T
  1

  0
CIRCLE
  5
34A
330
348
100
AcDbEntity
  8
DAMAN
100
AcDbCircle
 10
0.0
 20
0.0
 30
0.0
 40
0.6970000000000001
  0
CIRCLE
  5
34B
330
348
100
AcDbEntity
  8
DAMAN
  6
HIDDEN
100
AcDbCircle
 10
0.0
 20
0.0
 30
0.0
 40
0.649606
  0
CIRCLE
  5
34C
330
348
100
AcDbEntity
  8
DAMAN
100
AcDbCircle
 10
0.0
 20
0.0
 30
0.0
 40
0.9644999999999999
  0
INSERT
  5
34D
330
348
100
AcDbEntity
  8
DAMAN
100
AcDbBlockReference
  2
100CROSS
 10
0.0
 20
0.0
 30
0.0
 41
1.33
 42
1.33
  0
CIRCLE
  5
34E
330
348
100
AcDbEntity
  8
DAMAN
100
AcDbCircle
 10
0.0
 20
0.0
 30
0.0
 40
0.8464999999999999
  0
CIRCLE
  5
34F
330
348
100
AcDbEntity
  8
DAMAN
100
AcDbCircle
 10
0.0
 20
0.0
 30
0.0
 40
0.614
  0
ENDBLK
  5
350
330
348
100
AcDbEntity
  8
0
100
AcDbBlockEnd
  0
BLOCK
  5
352
330
351
100
AcDbEntity
  8
0
100
AcDbBlockBegin
  2
C162T
 70
     0
 10
0.0
 20
0.0
 30
0.0
  3
C162T
  1

  0
CIRCLE
  5
353
330
351
100
AcDbEntity
  8
DAMAN
100
AcDbCircle
 10
0.0
 20
0.0
 30
0.0
 40
0.375
  0
CIRCLE
  5
354
330
351
100
AcDbEntity
  8
DAMAN
100
AcDbCircle
 10
0.0
 20
0.0
 30
0.0
 40
0.5635
  0
CIRCLE
  5
355
330
351
100
AcDbEntity
  8
DAMAN
100
AcDbCircle
 10
0.0
 20
0.0
 30
0.0
 40
0.617
  0
CIRCLE
  5
356
330
351
100
AcDbEntity
  8
DAMAN
100
AcDbCircle
 10
0.0
 20
0.0
 30
0.0
 40
0.7005
  0
CIRCLE
  5
357
330
351
100
AcDbEntity
  8
DAMAN
100
AcDbCircle
 10
0.0
 20
0.0
 30
0.0
 40
0.875
  0
CIRCLE
  5
358
330
351
100
AcDbEntity
  8
DAMAN
  6
HIDDEN
100
AcDbCircle
 10
0.0
 20
0.0
 30
0.0
 40
0.6559999999999999
  0
INSERT
  5
359
330
351
100
AcDbEntity
  8
DAMAN
100
AcDbBlockReference
  2
100CROSS
 10
0.0
 20
0.0
 30
0.0
 41
1.32
 42
1.32
 43
1.5
  0
ENDBLK
  5
35A
330
351
100
AcDbEntity
  8
0
100
AcDbBlockEnd
  0
BLOCK
  5
35C
330
35B
100
AcDbEntity
  8
0
100
AcDbBlockBegin
  2
T3AT
 70
     0
 10
0.0
 20
0.0
 30
0.0
  3
T3AT
  1

  0
CIRCLE
  5
35D
330
35B
100
AcDbEntity
  8
DAMAN
100
AcDbCircle
 10
0.0
 20
0.0
 30
0.0
 40
0.4665
  0
CIRCLE
  5
35E
330
35B
100
AcDbEntity
  8
DAMAN
100
AcDbCircle
 10
0.0
 20
0.0
 30
0.0
 40
0.4375
  0
CIRCLE
  5
35F
330
35B
100
AcDbEntity
  8
DAMAN
  6
HIDDEN
100
AcDbCircle
 10
0.0
 20
0.0
 30
0.0
 40
0.5
  0
INSERT
  5
360
330
35B
100
AcDbEntity
  8
DAMAN
100
AcDbBlockReference
  2
100CROSS
 10
0.0
 20
0.0
 30
0.0
 41
0.88
 42
0.88
  0
CIRCLE
  5
361
330
35B
100
AcDbEntity
  8
DAMAN
100
AcDbCircle
 10
0.0
 20
0.0
 30
0.0
 40
0.5160000000000001
  0
CIRCLE
  5
362
330
35B
100
AcDbEntity
  8
DAMAN
100
AcDbCircle
 10
0.0
 20
0.0
 30
0.0
 40
0.5390000000000001
  0
CIRCLE
  5
363
330
35B
100
AcDbEntity
  8
DAMAN
100
AcDbCircle
 10
0.0
 20
0.0
 30
0.0
 40
0.3439999999999999
  0
ENDBLK
  5
364
330
35B
100
AcDbEntity
  8
0
100
AcDbBlockEnd
  0
BLOCK
  5
366
330
365
100
AcDbEntity
  8
0
100
AcDbBlockBegin
  2
T16AT
 70
     0
 10
0.0
 20
0.0
 30
0.0
  3
T16AT
  1

  0
LINE
  5
367
330
365
100
AcDbEntity
  8
DAMAN
  6
CENTER
100
AcDbLine
 10
1.727236999999999
 20
1.930909999999999
 30
0.0
 11
1.727236999999999
 21
0.591066
 31
0.0
  0
LINE
  5
368
330
365
100
AcDbEntity
  8
DAMAN
  6
CENTER
100
AcDbLine
 10
1.057315
 20
1.260987999999999
 30
0.0
 11
2.397158999999999
 21
1.260987999999999
 31
0.0
  0
CIRCLE
  5
369
330
365
100
AcDbEntity
  8
DAMAN
100
AcDbCircle
 10
1.727236999999999
 20
1.260987999999999
 30
0.0
 40
0.5400000000000001
  0
CIRCLE
  5
36A
330
365
100
AcDbEntity
  8
DAMAN
100
AcDbCircle
 10
1.727236999999999
 20
1.260987999999999
 30
0.0
 40
0.5165
  0
CIRCLE
  5
36B
330
365
100
AcDbEntity
  8
DAMAN
  6
HIDDEN
100
AcDbCircle
 10
1.727236999999999
 20
1.260987999999999
 30
0.0
 40
0.5
  0
CIRCLE
  5
36C
330
365
100
AcDbEntity
  8
DAMAN
100
AcDbCircle
 10
1.727236999999999
 20
1.260987999999999
 30
0.0
 40
0.4685000000000001
  0
CIRCLE
  5
36D
330
365
100
AcDbEntity
  8
DAMAN
100
AcDbCircle
 10
1.727236999999999
 20
1.260987999999999
 30
0.0
 40
0.4375
  0
CIRCLE
  5
36E
330
365
100
AcDbEntity
  8
DAMAN
100
AcDbCircle
 10
1.727236999999999
 20
1.260987999999999
 30
0.0
 40
0.3439999999999999
  0
ENDBLK
  5
36F
330
365
100
AcDbEntity
  8
0
100
AcDbBlockEnd
  0
BLOCK
  5
371
330
370
100
AcDbEntity
  8
0
100
AcDbBlockBegin
  2
300MKT
 70
     0
 10
0.0
 20
0.0
 30
0.0
  3
300MKT
  1

  0
LINE
  5
372
330
370
100
AcDbEntity
  8
DAMAN
100
AcDbLine
 10
0.6245000000000001
 20
0.0005
 30
0.0
 11
0.6245000000000001
 21
3.0005
 31
0.0
  0
INSERT
  5
373
330
370
100
AcDbEntity
  8
DAMAN
100
AcDbBlockReference
  2
100CROSS
 10
0.312
 20
0.313
 30
0.0
 41
-0.34
 42
0.34
 43
0.34
 50
270.0
  0
LWPOLYLINE
  5
374
330
370
100
AcDbEntity
  8
DAMAN
100
AcDbPolyline
 90
        6
 70
   129
 43
0.0
 10
0.0625
 20
0.4568380000000001
 10
0.0625
 20
0.168162
 10
0.3125
 20
0.023825
 10
0.5625
 20
0.168162
 10
0.5625
 20
0.4568380000000001
 10
0.3125
 20
0.6011750000000001
  0
CIRCLE
  5
37C
330
370
100
AcDbEntity
  8
DAMAN
100
AcDbCircle
 10
0.313
 20
0.313
 30
0.0
 40
0.249501
  0
LINE
  5
37D
330
370
100
AcDbEntity
  8
DAMAN
100
AcDbLine
 10
-0.84325
 20
2.53175
 30
0.0
 11
-0.3745
 21
2.53175
 31
0.0
  0
LINE
  5
37E
330
370
100
AcDbEntity
  8
DAMAN
100
AcDbLine
 10
-0.3745
 20
2.84425
 30
0.0
 11
-0.84325
 21
2.84425
 31
0.0
  0
LINE
  5
37F
330
370
100
AcDbEntity
  8
DAMAN
  6
HIDDEN
100
AcDbLine
 10
-0.8745
 20
2.813
 30
0.0
 11
-0.3745
 21
2.813
 31
0.0
  0
LINE
  5
380
330
370
100
AcDbEntity
  8
DAMAN
  6
HIDDEN
100
AcDbLine
 10
-0.3745
 20
2.563
 30
0.0
 11
-0.8745
 21
2.563
 31
0.0
  0
LINE
  5
381
330
370
100
AcDbEntity
  8
DAMAN
100
AcDbLine
 10
0.1255
 20
2.688
 30
0.0
 11
-1.03075
 21
2.688
 31
0.0
  0
LINE
  5
382
330
370
100
AcDbEntity
  8
DAMAN
100
AcDbLine
 10
-0.84325
 20
2.84425
 30
0.0
 11
-0.84325
 21
2.53175
 31
0.0
  0
LINE
  5
383
330
370
100
AcDbEntity
  8
DAMAN
100
AcDbLine
 10
-0.84325
 20
2.84425
 30
0.0
 11
-0.8745
 21
2.813
 31
0.0
  0
LINE
  5
384
330
370
100
AcDbEntity
  8
DAMAN
100
AcDbLine
 10
-0.8745
 20
2.563
 30
0.0
 11
-0.84325
 21
2.53175
 31
0.0
  0
LINE
  5
385
330
370
100
AcDbEntity
  8
DAMAN
100
AcDbLine
 10
-0.8745
 20
2.813
 30
0.0
 11
-0.8745
 21
2.563
 31
0.0
  0
INSERT
  5
386
330
370
100
AcDbEntity
  8
DAMAN
100
AcDbBlockReference
  2
100CROSS
 10
0.312
 20
2.688
 30
0.0
 41
-0.34
 42
0.34
 43
0.34
 50
270.0
  0
LWPOLYLINE
  5
387
330
370
100
AcDbEntity
  8
DAMAN
100
AcDbPolyline
 90
        6
 70
   129
 43
0.0
 10
0.0625
 20
2.831838
 10
0.0625
 20
2.543161999999999
 10
0.3125
 20
2.398824999999999
 10
0.5625
 20
2.543161999999999
 10
0.5625
 20
2.831838
 10
0.3125
 20
2.976174999999999
  0
CIRCLE
  5
38F
330
370
100
AcDbEntity
  8
DAMAN
100
AcDbCircle
 10
0.313
 20
2.688
 30
0.0
 40
0.249501
  0
LINE
  5
390
330
370
100
AcDbEntity
  8
DAMAN
100
AcDbLine
 10
0.0005
 20
2.438
 30
0.0
 11
0.0005
 21
2.938
 31
0.0
  0
ARC
  5
391
330
370
100
AcDbEntity
  8
DAMAN
100
AcDbCircle
 10
-0.098458
 20
2.471493999999999
 30
0.0
 40
0.098958
100
AcDbArc
 50
313.1735509999999
 51
46.826449
  0
LINE
  5
392
330
370
100
AcDbEntity
  8
DAMAN
100
AcDbLine
 10
-0.2495
 20
2.399325
 30
0.0
 11
-0.03075
 21
2.399325
 31
0.0
  0
LINE
  5
393
330
370
100
AcDbEntity
  8
DAMAN
100
AcDbLine
 10
-0.03075
 20
2.399325
 30
0.0
 11
0.0005
 21
2.438
 31
0.0
  0
LINE
  5
394
330
370
100
AcDbEntity
  8
DAMAN
100
AcDbLine
 10
0.6245000000000001
 20
3.0005
 30
0.0
 11
-0.3755
 21
3.0005
 31
0.0
  0
LINE
  5
395
330
370
100
AcDbEntity
  8
DAMAN
100
AcDbLine
 10
-0.2495
 20
2.832338
 30
0.0
 11
-0.03075
 21
2.832338
 31
0.0
  0
LINE
  5
396
330
370
100
AcDbEntity
  8
DAMAN
100
AcDbLine
 10
-0.03075
 20
2.543661999999999
 30
0.0
 11
-0.2495
 21
2.543661999999999
 31
0.0
  0
LINE
  5
397
330
370
100
AcDbEntity
  8
DAMAN
100
AcDbLine
 10
-0.03075
 20
2.976675
 30
0.0
 11
-0.2495
 21
2.976675
 31
0.0
  0
ARC
  5
398
330
370
100
AcDbEntity
  8
DAMAN
100
AcDbCircle
 10
-0.348458
 20
2.688
 30
0.0
 40
0.348958
100
AcDbArc
 50
335.5673019999999
 51
24.432698
  0
ARC
  5
399
330
370
100
AcDbEntity
  8
DAMAN
100
AcDbCircle
 10
-0.098458
 20
2.904505999999999
 30
0.0
 40
0.098958
100
AcDbArc
 50
313.1735509999999
 51
46.826449
  0
LINE
  5
39A
330
370
100
AcDbEntity
  8
DAMAN
100
AcDbLine
 10
-0.03075
 20
2.976675
 30
0.0
 11
0.0005
 21
2.938
 31
0.0
  0
LINE
  5
39B
330
370
100
AcDbEntity
  8
DAMAN
100
AcDbLine
 10
-0.3745
 20
0.46925
 30
0.0
 11
-0.84325
 21
0.46925
 31
0.0
  0
LINE
  5
39C
330
370
100
AcDbEntity
  8
DAMAN
  6
HIDDEN
100
AcDbLine
 10
-0.8745
 20
0.4379999999999999
 30
0.0
 11
-0.3745
 21
0.4379999999999999
 31
0.0
  0
LINE
  5
39D
330
370
100
AcDbEntity
  8
DAMAN
100
AcDbLine
 10
-0.84325
 20
0.15675
 30
0.0
 11
-0.3745
 21
0.15675
 31
0.0
  0
LINE
  5
39E
330
370
100
AcDbEntity
  8
DAMAN
  6
HIDDEN
100
AcDbLine
 10
-0.3745
 20
0.188
 30
0.0
 11
-0.8745
 21
0.188
 31
0.0
  0
LINE
  5
39F
330
370
100
AcDbEntity
  8
DAMAN
100
AcDbLine
 10
0.1255
 20
0.313
 30
0.0
 11
-1.03075
 21
0.313
 31
0.0
  0
LINE
  5
3A0
330
370
100
AcDbEntity
  8
DAMAN
100
AcDbLine
 10
-0.84325
 20
0.46925
 30
0.0
 11
-0.84325
 21
0.15675
 31
0.0
  0
LINE
  5
3A1
330
370
100
AcDbEntity
  8
DAMAN
100
AcDbLine
 10
-0.8745
 20
0.188
 30
0.0
 11
-0.84325
 21
0.15675
 31
0.0
  0
LINE
  5
3A2
330
370
100
AcDbEntity
  8
DAMAN
100
AcDbLine
 10
-0.8745
 20
0.4379999999999999
 30
0.0
 11
-0.8745
 21
0.188
 31
0.0
  0
LINE
  5
3A3
330
370
100
AcDbEntity
  8
DAMAN
100
AcDbLine
 10
-0.84325
 20
0.46925
 30
0.0
 11
-0.8745
 21
0.4379999999999999
 31
0.0
  0
LINE
  5
3A4
330
370
100
AcDbEntity
  8
DAMAN
100
AcDbLine
 10
0.0005
 20
0.063
 30
0.0
 11
0.0005
 21
0.5629999999999999
 31
0.0
  0
ARC
  5
3A5
330
370
100
AcDbEntity
  8
DAMAN
100
AcDbCircle
 10
-0.098458
 20
0.5295060000000001
 30
0.0
 40
0.098958
100
AcDbArc
 50
313.1735509999999
 51
46.826449
  0
LINE
  5
3A6
330
370
100
AcDbEntity
  8
DAMAN
100
AcDbLine
 10
-0.2495
 20
0.4573380000000001
 30
0.0
 11
-0.03075
 21
0.4573380000000001
 31
0.0
  0
LINE
  5
3A7
330
370
100
AcDbEntity
  8
DAMAN
100
AcDbLine
 10
-0.2495
 20
0.024325
 30
0.0
 11
-0.03075
 21
0.024325
 31
0.0
  0
LINE
  5
3A8
330
370
100
AcDbEntity
  8
DAMAN
100
AcDbLine
 10
-0.03075
 20
0.168662
 30
0.0
 11
-0.2495
 21
0.168662
 31
0.0
  0
ARC
  5
3A9
330
370
100
AcDbEntity
  8
DAMAN
100
AcDbCircle
 10
-0.098458
 20
0.096494
 30
0.0
 40
0.098958
100
AcDbArc
 50
313.1735509999999
 51
46.826449
  0
LINE
  5
3AA
330
370
100
AcDbEntity
  8
DAMAN
100
AcDbLine
 10
-0.03075
 20
0.024325
 30
0.0
 11
0.0005
 21
0.063
 31
0.0
  0
ARC
  5
3AB
330
370
100
AcDbEntity
  8
DAMAN
100
AcDbCircle
 10
-0.348458
 20
0.313
 30
0.0
 40
0.348958
100
AcDbArc
 50
335.5673019999999
 51
24.432698
  0
LINE
  5
3AC
330
370
100
AcDbEntity
  8
DAMAN
100
AcDbLine
 10
-0.03075
 20
0.601675
 30
0.0
 11
-0.2495
 21
0.601675
 31
0.0
  0
LINE
  5
3AD
330
370
100
AcDbEntity
  8
DAMAN
100
AcDbLine
 10
-0.03075
 20
0.601675
 30
0.0
 11
0.0005
 21
0.5629999999999999
 31
0.0
  0
LINE
  5
3AE
330
370
100
AcDbEntity
  8
DAMAN
100
AcDbLine
 10
-0.2555
 20
3.0005
 30
0.0
 11
-0.2555
 21
0.0005
 31
0.0
  0
LINE
  5
3AF
330
370
100
AcDbEntity
  8
DAMAN
100
AcDbLine
 10
-0.3755
 20
3.0005
 30
0.0
 11
-0.3755
 21
0.0005
 31
0.0
  0
LINE
  5
3B0
330
370
100
AcDbEntity
  8
DAMAN
100
AcDbLine
 10
-0.3755
 20
0.0005
 30
0.0
 11
0.6245000000000001
 21
0.0005
 31
0.0
  0
ENDBLK
  5
3B1
330
370
100
AcDbEntity
  8
0
100
AcDbBlockEnd
  0
BLOCK
  5
3B3
330
3B2
100
AcDbEntity
  8
0
100
AcDbBlockBegin
  2
250SHCST
 70
     0
 10
0.0
 20
0.0
 30
0.0
  3
250SHCST
  1

  0
CIRCLE
  5
3B4
330
3B2
100
AcDbEntity
  8
DAMAN
100
AcDbCircle
 10
0.0
 20
0.0
 30
0.0
 40
0.1875
  0
CIRCLE
  5
3B5
330
3B2
100
AcDbEntity
  8
DAMAN
100
AcDbCircle
 10
0.0
 20
0.0
 30
0.0
 40
0.156
  0
CIRCLE
  5
3B6
330
3B2
100
AcDbEntity
  8
DAMAN
100
AcDbCircle
 10
0.0
 20
0.0
 30
0.0
 40
0.1085
  0
LWPOLYLINE
  5
3B7
330
3B2
100
AcDbEntity
  8
DAMAN
100
AcDbPolyline
 90
        6
 70
     1
 43
0.0
 10
-0.054
 20
0.093531
 10
-0.108
 20
0.0
 10
-0.054
 20
-0.093531
 10
0.054
 20
-0.093531
 10
0.108
 20
0.0
 10
0.054
 20
0.093531
  0
ENDBLK
  5
3BF
330
3B2
100
AcDbEntity
  8
0
100
AcDbBlockEnd
  0
BLOCK
  5
3C1
330
3C0
100
AcDbEntity
  8
0
100
AcDbBlockBegin
  2
250SHCS
 70
     0
 10
0.0
 20
0.0
 30
0.0
  3
250SHCS
  1

  0
LINE
  5
3C2
330
3C0
100
AcDbEntity
  8
DAMAN
100
AcDbLine
 10
-0.1875
 20
0.0
 30
0.0
 11
-0.1875
 21
0.21875
 31
0.0
  0
LINE
  5
3C3
330
3C0
100
AcDbEntity
  8
DAMAN
100
AcDbLine
 10
-0.15625
 20
0.25
 30
0.0
 11
0.15625
 21
0.25
 31
0.0
  0
LINE
  5
3C4
330
3C0
100
AcDbEntity
  8
DAMAN
100
AcDbLine
 10
0.1875
 20
0.21875
 30
0.0
 11
0.1875
 21
0.0
 31
0.0
  0
LINE
  5
3C5
330
3C0
100
AcDbEntity
  8
DAMAN
100
AcDbLine
 10
-0.1875
 20
0.21875
 30
0.0
 11
0.1875
 21
0.21875
 31
0.0
  0
LINE
  5
3C6
330
3C0
100
AcDbEntity
  8
DAMAN
100
AcDbLine
 10
0.1875
 20
0.0
 30
0.0
 11
-0.1875
 21
0.0
 31
0.0
  0
LINE
  5
3C7
330
3C0
100
AcDbEntity
  8
DAMAN
100
AcDbLine
 10
0.15625
 20
0.25
 30
0.0
 11
0.1875
 21
0.21875
 31
0.0
  0
LINE
  5
3C8
330
3C0
100
AcDbEntity
  8
DAMAN
100
AcDbLine
 10
-0.15625
 20
0.25
 30
0.0
 11
-0.1875
 21
0.21875
 31
0.0
  0
ENDBLK
  5
3C9
330
3C0
100
AcDbEntity
  8
0
100
AcDbBlockEnd
  0
BLOCK
  5
3CB
330
3CA
100
AcDbEntity
  8
0
100
AcDbBlockBegin
  2
250MKT
 70
     0
 10
0.0
 20
0.0
 30
0.0
  3
250MKT
  1

  0
LINE
  5
3CC
330
3CA
100
AcDbEntity
  8
DAMAN
  6
CONTINUOUS
 62
     5
100
AcDbLine
 10
2.859262999999999
 20
3.728867999999999
 30
0.0
 11
1.921748
 21
3.728867999999999
 31
0.0
  0
LINE
  5
3CD
330
3CA
100
AcDbEntity
  8
DAMAN
  6
CONTINUOUS
 62
     5
100
AcDbLine
 10
1.921748
 20
3.728867999999999
 30
0.0
 11
1.921748
 21
6.228868
 31
0.0
  0
LINE
  5
3CE
330
3CA
100
AcDbEntity
  8
DAMAN
  6
CONTINUOUS
 62
     5
100
AcDbLine
 10
1.921748
 20
6.228868
 30
0.0
 11
2.859262999999999
 21
6.228868
 31
0.0
  0
LINE
  5
3CF
330
3CA
100
AcDbEntity
  8
DAMAN
  6
CONTINUOUS
 62
     5
100
AcDbLine
 10
2.859262999999999
 20
6.228868
 30
0.0
 11
2.859262999999999
 21
3.728867999999999
 31
0.0
  0
LINE
  5
3D0
330
3CA
100
AcDbEntity
  8
DAMAN
  6
CONTINUOUS
 62
     5
100
AcDbLine
 10
2.029163
 20
3.728867999999999
 30
0.0
 11
2.029163
 21
6.228868
 31
0.0
  0
LINE
  5
3D1
330
3CA
100
AcDbEntity
  8
DAMAN
  6
CONTINUOUS
100
AcDbLine
 10
2.029163
 20
3.747920999999999
 30
0.0
 11
2.204168
 21
3.747920999999999
 31
0.0
  0
LINE
  5
3D2
330
3CA
100
AcDbEntity
  8
DAMAN
  6
CONTINUOUS
100
AcDbLine
 10
2.204168
 20
3.863394
 30
0.0
 11
2.029163
 21
3.863394
 31
0.0
  0
LINE
  5
3D3
330
3CA
100
AcDbEntity
  8
DAMAN
  6
CONTINUOUS
100
AcDbLine
 10
2.204168
 20
4.209814999999999
 30
0.0
 11
2.029163
 21
4.209814999999999
 31
0.0
  0
LINE
  5
3D4
330
3CA
100
AcDbEntity
  8
DAMAN
  6
CONTINUOUS
100
AcDbLine
 10
2.029163
 20
4.094342
 30
0.0
 11
2.204168
 21
4.094342
 31
0.0
  0
LINE
  5
3D5
330
3CA
100
AcDbEntity
  8
DAMAN
  6
CENTER
100
AcDbLine
 10
2.831529999999999
 20
3.978867999999999
 30
0.0
 11
1.404144
 21
3.978867999999999
 31
0.0
  0
ARC
  5
3D6
330
3CA
100
AcDbEntity
  8
DAMAN
  6
CONTINUOUS
100
AcDbCircle
 10
1.949993999999999
 20
3.978867999999999
 30
0.0
 40
0.279175
100
AcDbArc
 50
335.5673019999999
 51
24.432698
  0
LINE
  5
3D7
330
3CA
100
AcDbEntity
  8
DAMAN
  6
CONTINUOUS
100
AcDbLine
 10
2.229168999999999
 20
3.778862
 30
0.0
 11
2.229168999999999
 21
4.178873999999999
 31
0.0
  0
ARC
  5
3D8
330
3CA
100
AcDbEntity
  8
DAMAN
  6
CONTINUOUS
100
AcDbCircle
 10
2.149999999999999
 20
4.152077999999999
 30
0.0
 40
0.079169
100
AcDbArc
 50
313.1735509999999
 51
46.826449
  0
LINE
  5
3D9
330
3CA
100
AcDbEntity
  8
DAMAN
  6
CONTINUOUS
100
AcDbLine
 10
2.229168999999999
 20
4.178873999999999
 30
0.0
 11
2.204168
 21
4.209814999999999
 31
0.0
  0
ARC
  5
3DA
330
3CA
100
AcDbEntity
  8
DAMAN
  6
CONTINUOUS
100
AcDbCircle
 10
2.149999999999999
 20
3.805658
 30
0.0
 40
0.079169
100
AcDbArc
 50
313.1735509999999
 51
46.826449
  0
LINE
  5
3DB
330
3CA
100
AcDbEntity
  8
DAMAN
  6
CONTINUOUS
100
AcDbLine
 10
2.204168
 20
3.747920999999999
 30
0.0
 11
2.229168999999999
 21
3.778862
 31
0.0
  0
LINE
  5
3DC
330
3CA
100
AcDbEntity
  8
DAMAN
  6
CONTINUOUS
100
AcDbLine
 10
1.521735999999999
 20
4.078870999999999
 30
0.0
 11
1.521735999999999
 21
3.878865
 31
0.0
  0
LINE
  5
3DD
330
3CA
100
AcDbEntity
  8
DAMAN
  6
CONTINUOUS
100
AcDbLine
 10
1.546737
 20
4.103871999999999
 30
0.0
 11
1.546737
 21
3.853863999999999
 31
0.0
  0
LINE
  5
3DE
330
3CA
100
AcDbEntity
  8
DAMAN
  6
HIDDEN
100
AcDbLine
 10
1.521735999999999
 20
4.078870999999999
 30
0.0
 11
1.921748
 21
4.078870999999999
 31
0.0
  0
LINE
  5
3DF
330
3CA
100
AcDbEntity
  8
DAMAN
  6
CONTINUOUS
100
AcDbLine
 10
1.921748
 20
4.103871999999999
 30
0.0
 11
1.546737
 21
4.103871999999999
 31
0.0
  0
LINE
  5
3E0
330
3CA
100
AcDbEntity
  8
DAMAN
  6
CONTINUOUS
100
AcDbLine
 10
1.546737
 20
4.103871999999999
 30
0.0
 11
1.521735999999999
 21
4.078870999999999
 31
0.0
  0
LINE
  5
3E1
330
3CA
100
AcDbEntity
  8
DAMAN
  6
HIDDEN
100
AcDbLine
 10
1.921748
 20
3.878865
 30
0.0
 11
1.521735999999999
 21
3.878865
 31
0.0
  0
LINE
  5
3E2
330
3CA
100
AcDbEntity
  8
DAMAN
  6
CONTINUOUS
100
AcDbLine
 10
1.546737
 20
3.853863999999999
 30
0.0
 11
1.921748
 21
3.853863999999999
 31
0.0
  0
LINE
  5
3E3
330
3CA
100
AcDbEntity
  8
DAMAN
  6
CONTINUOUS
100
AcDbLine
 10
1.521735999999999
 20
3.878865
 30
0.0
 11
1.546737
 21
3.853863999999999
 31
0.0
  0
CIRCLE
  5
3E4
330
3CA
100
AcDbEntity
  8
DAMAN
  6
CONTINUOUS
 62
     5
100
AcDbCircle
 10
2.609262999999999
 20
3.978867999999999
 30
0.0
 40
0.1875
  0
LWPOLYLINE
  5
3E5
330
3CA
100
AcDbEntity
  8
DAMAN
  6
CONTINUOUS
 62
     5
100
AcDbPolyline
 90
        6
 70
     1
 43
0.0
 10
2.796762999999999
 20
4.087120999999999
 10
2.609262999999999
 20
4.195374
 10
2.421762999999999
 20
4.087120999999999
 10
2.421762999999999
 20
3.870615
 10
2.609262999999999
 20
3.762362
 10
2.796762999999999
 20
3.870615
  0
LINE
  5
3ED
330
3CA
100
AcDbEntity
  8
DAMAN
  6
CENTER
100
AcDbLine
 10
2.609262999999999
 20
3.706481999999999
 30
0.0
 11
2.609262999999999
 21
4.261237
 31
0.0
  0
LINE
  5
3EE
330
3CA
100
AcDbEntity
  8
DAMAN
  6
CENTER
100
AcDbLine
 10
2.831529999999999
 20
5.978868
 30
0.0
 11
1.404144
 21
5.978868
 31
0.0
  0
LINE
  5
3EF
330
3CA
100
AcDbEntity
  8
DAMAN
  6
CONTINUOUS
100
AcDbLine
 10
2.204168
 20
6.209814999999999
 30
0.0
 11
2.029163
 21
6.209814999999999
 31
0.0
  0
LINE
  5
3F0
330
3CA
100
AcDbEntity
  8
DAMAN
  6
CONTINUOUS
100
AcDbLine
 10
2.029163
 20
6.094342
 30
0.0
 11
2.204168
 21
6.094342
 31
0.0
  0
LINE
  5
3F1
330
3CA
100
AcDbEntity
  8
DAMAN
  6
CONTINUOUS
100
AcDbLine
 10
2.204168
 20
5.863394
 30
0.0
 11
2.029163
 21
5.863394
 31
0.0
  0
LINE
  5
3F2
330
3CA
100
AcDbEntity
  8
DAMAN
  6
CONTINUOUS
100
AcDbLine
 10
2.029163
 20
5.747920999999999
 30
0.0
 11
2.204168
 21
5.747920999999999
 31
0.0
  0
LINE
  5
3F3
330
3CA
100
AcDbEntity
  8
DAMAN
  6
CONTINUOUS
100
AcDbLine
 10
1.521735999999999
 20
6.078870999999999
 30
0.0
 11
1.521735999999999
 21
5.878865
 31
0.0
  0
LINE
  5
3F4
330
3CA
100
AcDbEntity
  8
DAMAN
  6
CONTINUOUS
100
AcDbLine
 10
1.546737
 20
6.103871999999999
 30
0.0
 11
1.546737
 21
5.853863999999999
 31
0.0
  0
LINE
  5
3F5
330
3CA
100
AcDbEntity
  8
DAMAN
  6
HIDDEN
100
AcDbLine
 10
1.921748
 20
5.878865
 30
0.0
 11
1.521735999999999
 21
5.878865
 31
0.0
  0
LINE
  5
3F6
330
3CA
100
AcDbEntity
  8
DAMAN
  6
CONTINUOUS
100
AcDbLine
 10
1.546737
 20
5.853863999999999
 30
0.0
 11
1.921748
 21
5.853863999999999
 31
0.0
  0
LINE
  5
3F7
330
3CA
100
AcDbEntity
  8
DAMAN
  6
CONTINUOUS
100
AcDbLine
 10
1.521735999999999
 20
5.878865
 30
0.0
 11
1.546737
 21
5.853863999999999
 31
0.0
  0
LINE
  5
3F8
330
3CA
100
AcDbEntity
  8
DAMAN
  6
HIDDEN
100
AcDbLine
 10
1.521735999999999
 20
6.078870999999999
 30
0.0
 11
1.921748
 21
6.078870999999999
 31
0.0
  0
LINE
  5
3F9
330
3CA
100
AcDbEntity
  8
DAMAN
  6
CONTINUOUS
100
AcDbLine
 10
1.921748
 20
6.103871999999999
 30
0.0
 11
1.546737
 21
6.103871999999999
 31
0.0
  0
LINE
  5
3FA
330
3CA
100
AcDbEntity
  8
DAMAN
  6
CONTINUOUS
100
AcDbLine
 10
1.546737
 20
6.103871999999999
 30
0.0
 11
1.521735999999999
 21
6.078870999999999
 31
0.0
  0
LINE
  5
3FB
330
3CA
100
AcDbEntity
  8
DAMAN
  6
CENTER
100
AcDbLine
 10
2.609262999999999
 20
5.706482
 30
0.0
 11
2.609262999999999
 21
6.261237
 31
0.0
  0
LINE
  5
3FC
330
3CA
100
AcDbEntity
  8
DAMAN
  6
CONTINUOUS
100
AcDbLine
 10
2.229168999999999
 20
5.778862
 30
0.0
 11
2.229168999999999
 21
6.178873999999999
 31
0.0
  0
ARC
  5
3FD
330
3CA
100
AcDbEntity
  8
DAMAN
  6
CONTINUOUS
100
AcDbCircle
 10
1.949993999999999
 20
5.978868
 30
0.0
 40
0.279175
100
AcDbArc
 50
335.5673019999999
 51
24.432698
  0
CIRCLE
  5
3FE
330
3CA
100
AcDbEntity
  8
DAMAN
  6
CONTINUOUS
 62
     5
100
AcDbCircle
 10
2.609262999999999
 20
5.978868
 30
0.0
 40
0.1875
  0
LWPOLYLINE
  5
3FF
330
3CA
100
AcDbEntity
  8
DAMAN
  6
CONTINUOUS
 62
     5
100
AcDbPolyline
 90
        6
 70
     1
 43
0.0
 10
2.796762999999999
 20
6.087120999999999
 10
2.609262999999999
 20
6.195374
 10
2.421762999999999
 20
6.087120999999999
 10
2.421762999999999
 20
5.870614999999999
 10
2.609262999999999
 20
5.762362
 10
2.796762999999999
 20
5.870614999999999
  0
ARC
  5
407
330
3CA
100
AcDbEntity
  8
DAMAN
  6
CONTINUOUS
100
AcDbCircle
 10
2.149999999999999
 20
5.805658
 30
0.0
 40
0.079169
100
AcDbArc
 50
313.1735509999999
 51
46.826449
  0
LINE
  5
408
330
3CA
100
AcDbEntity
  8
DAMAN
  6
CONTINUOUS
100
AcDbLine
 10
2.204168
 20
5.747920999999999
 30
0.0
 11
2.229168999999999
 21
5.778862
 31
0.0
  0
LINE
  5
409
330
3CA
100
AcDbEntity
  8
DAMAN
  6
CONTINUOUS
100
AcDbLine
 10
2.229168999999999
 20
6.178873999999999
 30
0.0
 11
2.204168
 21
6.209814999999999
 31
0.0
  0
ARC
  5
40A
330
3CA
100
AcDbEntity
  8
DAMAN
  6
CONTINUOUS
100
AcDbCircle
 10
2.149999999999999
 20
6.152077999999999
 30
0.0
 40
0.079169
100
AcDbArc
 50
313.1735509999999
 51
46.826449
  0
ENDBLK
  5
40B
330
3CA
100
AcDbEntity
  8
0
100
AcDbBlockEnd
  0
BLOCK
  5
40D
330
40C
100
AcDbEntity
  8
0
100
AcDbBlockBegin
  2
250MKS
 70
     0
 10
0.0
 20
0.0
 30
0.0
  3
250MKS
  1

  0
POINT
  5
40E
330
40C
100
AcDbEntity
  8
DAMAN
  6
CONTINUOUS
 62
     5
100
AcDbPoint
 10
1.921748
 20
3.460685999999999
 30
0.0
  0
POINT
  5
40F
330
40C
100
AcDbEntity
  8
DAMAN
  6
CONTINUOUS
 62
     5
100
AcDbPoint
 10
2.103855999999999
 20
3.642793
 30
0.0
  0
POINT
  5
410
330
40C
100
AcDbEntity
  8
DAMAN
  6
CONTINUOUS
 62
     5
100
AcDbPoint
 10
1.921748
 20
3.437120999999999
 30
0.0
  0
POINT
  5
411
330
40C
100
AcDbEntity
  8
DAMAN
  6
BYBLOCK
 62
     5
100
AcDbPoint
 10
1.921748
 20
3.437120999999999
 30
0.0
  0
POINT
  5
412
330
40C
100
AcDbEntity
  8
DAMAN
  6
BYBLOCK
 62
     5
100
AcDbPoint
 10
2.103855999999999
 20
3.642793
 30
0.0
  0
POINT
  5
413
330
40C
100
AcDbEntity
  8
DAMAN
  6
BYBLOCK
 62
     5
100
AcDbPoint
 10
1.921748
 20
3.460685999999999
 30
0.0
  0
POINT
  5
414
330
40C
100
AcDbEntity
  8
DAMAN
  6
BYBLOCK
 62
     5
100
AcDbPoint
 10
2.063136
 20
3.437120999999999
 30
0.0
  0
LINE
  5
415
330
40C
100
AcDbEntity
  8
DAMAN
  6
CONTINUOUS
 62
     5
100
AcDbLine
 10
2.127419999999999
 20
3.642793
 30
0.0
 11
2.103855999999999
 21
3.642793
 31
0.0
  0
LINE
  5
416
330
40C
100
AcDbEntity
  8
DAMAN
  6
CONTINUOUS
 62
     5
100
AcDbLine
 10
2.103855999999999
 20
3.642793
 30
0.0
 11
2.103855999999999
 21
3.501405
 31
0.0
  0
ARC
  5
417
330
40C
100
AcDbEntity
  8
DAMAN
  6
CONTINUOUS
 62
     5
100
AcDbCircle
 10
2.043467999999999
 20
3.521073
 30
0.0
 40
0.06351
100
AcDbArc
 50
288.0402609999999
 51
341.959739
  0
LINE
  5
418
330
40C
100
AcDbEntity
  8
DAMAN
  6
CONTINUOUS
 62
     5
100
AcDbLine
 10
2.063136
 20
3.460685999999999
 30
0.0
 11
1.921748
 21
3.460685999999999
 31
0.0
  0
LINE
  5
419
330
40C
100
AcDbEntity
  8
DAMAN
  6
CONTINUOUS
 62
     5
100
AcDbLine
 10
1.921748
 20
3.460685999999999
 30
0.0
 11
1.921748
 21
3.437120999999999
 31
0.0
  0
LINE
  5
41A
330
40C
100
AcDbEntity
  8
DAMAN
  6
CONTINUOUS
 62
     5
100
AcDbLine
 10
1.921748
 20
3.437120999999999
 30
0.0
 11
2.063136
 21
3.437120999999999
 31
0.0
  0
ARC
  5
41B
330
40C
100
AcDbEntity
  8
DAMAN
  6
CONTINUOUS
 62
     5
100
AcDbCircle
 10
2.047236999999999
 20
3.517304
 30
0.0
 40
0.081745
100
AcDbArc
 50
281.2154609999999
 51
348.7845389999999
  0
LINE
  5
41C
330
40C
100
AcDbEntity
  8
DAMAN
  6
CONTINUOUS
 62
     5
100
AcDbLine
 10
2.127419999999999
 20
3.501405
 30
0.0
 11
2.127419999999999
 21
3.642793
 31
0.0
  0
LINE
  5
41D
330
40C
100
AcDbEntity
  8
DAMAN
  6
CONTINUOUS
 62
     5
100
AcDbLine
 10
2.035079999999999
 20
3.460685999999999
 30
0.0
 11
2.035079999999999
 21
3.501923999999999
 31
0.0
  0
LINE
  5
41E
330
40C
100
AcDbEntity
  8
DAMAN
  6
CENTER
 62
     5
100
AcDbLine
 10
1.980659999999999
 20
3.531379
 30
0.0
 11
1.980659999999999
 21
3.313406999999999
 31
0.0
  0
ARC
  5
41F
330
40C
100
AcDbEntity
  8
DAMAN
  6
CONTINUOUS
 62
     5
100
AcDbCircle
 10
1.939845
 20
3.489158999999999
 30
0.0
 40
0.018655
100
AcDbArc
 50
43.17355100000001
 51
136.826449
  0
ARC
  5
420
330
40C
100
AcDbEntity
  8
DAMAN
  6
CONTINUOUS
 62
     5
100
AcDbCircle
 10
1.980659999999999
 20
3.44203
 30
0.0
 40
0.065785
100
AcDbArc
 50
65.567302
 51
114.4326979999999
  0
ARC
  5
421
330
40C
100
AcDbEntity
  8
DAMAN
  6
CONTINUOUS
 62
     5
100
AcDbCircle
 10
2.021475
 20
3.489158999999999
 30
0.0
 40
0.018655
100
AcDbArc
 50
43.17355100000001
 51
136.826449
  0
LINE
  5
422
330
40C
100
AcDbEntity
  8
DAMAN
  6
CONTINUOUS
 62
     5
100
AcDbLine
 10
2.035079999999999
 20
3.501923999999999
 30
0.0
 11
2.027788999999999
 21
3.507815
 31
0.0
  0
LINE
  5
423
330
40C
100
AcDbEntity
  8
DAMAN
  6
CONTINUOUS
 62
     5
100
AcDbLine
 10
2.027788999999999
 20
3.507815
 30
0.0
 11
1.933531
 21
3.507815
 31
0.0
  0
LINE
  5
424
330
40C
100
AcDbEntity
  8
DAMAN
  6
CONTINUOUS
 62
     5
100
AcDbLine
 10
1.933531
 20
3.507815
 30
0.0
 11
1.92624
 21
3.501923999999999
 31
0.0
  0
LINE
  5
425
330
40C
100
AcDbEntity
  8
DAMAN
  6
CONTINUOUS
 62
     5
100
AcDbLine
 10
1.92624
 20
3.501923999999999
 30
0.0
 11
1.92624
 21
3.460685999999999
 31
0.0
  0
LINE
  5
426
330
40C
100
AcDbEntity
  8
DAMAN
  6
CONTINUOUS
 62
     5
100
AcDbLine
 10
1.953449999999999
 20
3.460685999999999
 30
0.0
 11
1.953449999999999
 21
3.501923999999999
 31
0.0
  0
LINE
  5
427
330
40C
100
AcDbEntity
  8
DAMAN
  6
CONTINUOUS
 62
     5
100
AcDbLine
 10
2.00787
 20
3.501923999999999
 30
0.0
 11
2.00787
 21
3.460685999999999
 31
0.0
  0
LINE
  5
428
330
40C
100
AcDbEntity
  8
DAMAN
  6
HIDDEN
 62
     5
100
AcDbLine
 10
2.004224
 20
3.437120999999999
 30
0.0
 11
2.004224
 21
3.342862
 31
0.0
  0
LINE
  5
429
330
40C
100
AcDbEntity
  8
DAMAN
  6
HIDDEN
 62
     5
100
AcDbLine
 10
1.957094999999999
 20
3.342862
 30
0.0
 11
1.957094999999999
 21
3.437120999999999
 31
0.0
  0
LINE
  5
42A
330
40C
100
AcDbEntity
  8
DAMAN
  6
CONTINUOUS
 62
     5
100
AcDbLine
 10
1.951204
 20
3.437120999999999
 30
0.0
 11
1.951204
 21
3.348754
 31
0.0
  0
LINE
  5
42B
330
40C
100
AcDbEntity
  8
DAMAN
  6
CONTINUOUS
 62
     5
100
AcDbLine
 10
1.951204
 20
3.348754
 30
0.0
 11
1.957094999999999
 21
3.342862
 31
0.0
  0
LINE
  5
42C
330
40C
100
AcDbEntity
  8
DAMAN
  6
CONTINUOUS
 62
     5
100
AcDbLine
 10
1.957094999999999
 20
3.342862
 30
0.0
 11
2.004224
 21
3.342862
 31
0.0
  0
LINE
  5
42D
330
40C
100
AcDbEntity
  8
DAMAN
  6
CONTINUOUS
 62
     5
100
AcDbLine
 10
2.004224
 20
3.342862
 30
0.0
 11
2.010116
 21
3.348754
 31
0.0
  0
LINE
  5
42E
330
40C
100
AcDbEntity
  8
DAMAN
  6
CONTINUOUS
 62
     5
100
AcDbLine
 10
2.010116
 20
3.348754
 30
0.0
 11
2.010116
 21
3.437120999999999
 31
0.0
  0
LINE
  5
42F
330
40C
100
AcDbEntity
  8
DAMAN
  6
CONTINUOUS
 62
     5
100
AcDbLine
 10
1.951204
 20
3.348754
 30
0.0
 11
2.010116
 21
3.348754
 31
0.0
  0
LINE
  5
430
330
40C
100
AcDbEntity
  8
DAMAN
  6
CENTER
 62
     5
100
AcDbLine
 10
2.033161999999999
 20
3.583880999999999
 30
0.0
 11
2.198113999999999
 21
3.583880999999999
 31
0.0
  0
LINE
  5
431
330
40C
100
AcDbEntity
  8
DAMAN
  6
CONTINUOUS
 62
     5
100
AcDbLine
 10
2.103855999999999
 20
3.556670999999999
 30
0.0
 11
2.062616999999999
 21
3.556670999999999
 31
0.0
  0
LINE
  5
432
330
40C
100
AcDbEntity
  8
DAMAN
  6
CONTINUOUS
 62
     5
100
AcDbLine
 10
2.103855999999999
 20
3.638301999999999
 30
0.0
 11
2.062616999999999
 21
3.638301999999999
 31
0.0
  0
LINE
  5
433
330
40C
100
AcDbEntity
  8
DAMAN
  6
CONTINUOUS
 62
     5
100
AcDbLine
 10
2.062616999999999
 20
3.611091
 30
0.0
 11
2.103855999999999
 21
3.611091
 31
0.0
  0
ARC
  5
434
330
40C
100
AcDbEntity
  8
DAMAN
  6
CONTINUOUS
 62
     5
100
AcDbCircle
 10
2.075381999999999
 20
3.543066
 30
0.0
 40
0.018655
100
AcDbArc
 50
133.173551
 51
226.826449
  0
ARC
  5
435
330
40C
100
AcDbEntity
  8
DAMAN
  6
CONTINUOUS
 62
     5
100
AcDbCircle
 10
2.122511
 20
3.583880999999999
 30
0.0
 40
0.065785
100
AcDbArc
 50
155.567302
 51
204.432698
  0
ARC
  5
436
330
40C
100
AcDbEntity
  8
DAMAN
  6
CONTINUOUS
 62
     5
100
AcDbCircle
 10
2.075381999999999
 20
3.624697
 30
0.0
 40
0.018655
100
AcDbArc
 50
133.173551
 51
226.826449
  0
LINE
  5
437
330
40C
100
AcDbEntity
  8
DAMAN
  6
CONTINUOUS
 62
     5
100
AcDbLine
 10
2.062616999999999
 20
3.638301999999999
 30
0.0
 11
2.056725999999999
 21
3.631010999999999
 31
0.0
  0
LINE
  5
438
330
40C
100
AcDbEntity
  8
DAMAN
  6
CONTINUOUS
 62
     5
100
AcDbLine
 10
2.056725999999999
 20
3.631010999999999
 30
0.0
 11
2.056725999999999
 21
3.536751999999999
 31
0.0
  0
LINE
  5
439
330
40C
100
AcDbEntity
  8
DAMAN
  6
CONTINUOUS
 62
     5
100
AcDbLine
 10
2.056725999999999
 20
3.536751999999999
 30
0.0
 11
2.062616999999999
 21
3.529460999999999
 31
0.0
  0
LINE
  5
43A
330
40C
100
AcDbEntity
  8
DAMAN
  6
CONTINUOUS
 62
     5
100
AcDbLine
 10
2.062616999999999
 20
3.529460999999999
 30
0.0
 11
2.103855999999999
 21
3.529460999999999
 31
0.0
  0
ENDBLK
  5
43B
330
40C
100
AcDbEntity
  8
0
100
AcDbBlockEnd
  0
BLOCK
  5
43D
330
43C
100
AcDbEntity
  8
0
100
AcDbBlockBegin
  2
038NPTFT
 70
     0
 10
0.0
 20
0.0
 30
0.0
  3
038NPTFT
  1

  0
INSERT
  5
43F
330
43C
100
AcDbEntity
  8
DAMAN
100
AcDbBlockReference
  2
375NPTFT
 10
0.0
 20
0.0
 30
0.0
  0
ENDBLK
  5
440
330
43C
100
AcDbEntity
  8
0
100
AcDbBlockEnd
  0
BLOCK
  5
441
330
43E
100
AcDbEntity
  8
0
100
AcDbBlockBegin
  2
375NPTFT
 70
     0
 10
0.0
 20
0.0
 30
0.0
  3
375NPTFT
  1

  0
INSERT
  5
442
330
43E
100
AcDbEntity
  8
DAMAN
100
AcDbBlockReference
  2
100CROSS
 10
0.0
 20
0.0
 30
0.0
 41
0.6800000000000001
 42
0.6800000000000001
  0
CIRCLE
  5
443
330
43E
100
AcDbEntity
  8
DAMAN
100
AcDbCircle
 10
0.0
 20
0.0
 30
0.0
 40
0.3125
  0
CIRCLE
  5
444
330
43E
100
AcDbEntity
  8
DAMAN
100
AcDbCircle
 10
0.0
 20
0.0
 30
0.0
 40
0.281
  0
CIRCLE
  5
445
330
43E
100
AcDbEntity
  8
DAMAN
100
AcDbCircle
 10
0.0
 20
0.0
 30
0.0
 40
0.3439999999999999
  0
ENDBLK
  5
446
330
43E
100
AcDbEntity
  8
0
100
AcDbBlockEnd
  0
BLOCK
  5
448
330
447
100
AcDbEntity
  8
0
100
AcDbBlockBegin
  2
D07
 70
     0
 10
0.0
 20
0.0
 30
0.0
  3
D07
  1

  0
CIRCLE
  5
449
330
447
100
AcDbEntity
  8
DAMAN
100
AcDbCircle
 10
0.0
 20
1.249
 30
0.0
 40
0.3439999999999999
  0
CIRCLE
  5
44A
330
447
100
AcDbEntity
  8
DAMAN
100
AcDbCircle
 10
0.0
 20
0.0
 30
0.0
 40
0.3439999999999999
  0
INSERT
  5
44B
330
447
100
AcDbEntity
  8
DAMAN
100
AcDbBlockReference
  2
100CROSS
 10
0.0
 20
1.249
 30
0.0
 41
0.5625
 42
0.5625
  0
INSERT
  5
44C
330
447
100
AcDbEntity
  8
DAMAN
100
AcDbBlockReference
  2
100CROSS
 10
0.0
 20
0.0
 30
0.0
 41
0.5625
 42
0.5625
  0
INSERT
  5
44D
330
447
100
AcDbEntity
  8
DAMAN
100
AcDbBlockReference
  2
100CROSS
 10
-2.2505
 20
-0.001
 30
0.0
 41
0.25
 42
0.25
  0
CIRCLE
  5
44E
330
447
100
AcDbEntity
  8
DAMAN
100
AcDbCircle
 10
-2.188
 20
-2.032
 30
0.0
 40
0.1875
  0
CIRCLE
  5
44F
330
447
100
AcDbEntity
  8
DAMAN
100
AcDbCircle
 10
-2.188
 20
-2.032
 30
0.0
 40
0.15625
  0
INSERT
  5
450
330
447
100
AcDbEntity
  8
DAMAN
100
AcDbBlockReference
  2
100CROSS
 10
-2.188
 20
-2.032
 30
0.0
 41
0.375
 42
0.375
  0
CIRCLE
  5
451
330
447
100
AcDbEntity
  8
DAMAN
100
AcDbCircle
 10
-2.250999999999999
 20
-0.00075
 30
0.0
 40
0.125
  0
CIRCLE
  5
452
330
447
100
AcDbEntity
  8
DAMAN
100
AcDbCircle
 10
-2.2505
 20
-0.001
 30
0.0
 40
0.1055
  0
CIRCLE
  5
453
330
447
100
AcDbEntity
  8
DAMAN
100
AcDbCircle
 10
-1.625999999999999
 20
-0.626
 30
0.0
 40
0.3439999999999999
  0
INSERT
  5
454
330
447
100
AcDbEntity
  8
DAMAN
100
AcDbBlockReference
  2
100CROSS
 10
-1.625999999999999
 20
-0.626
 30
0.0
 41
0.5625
 42
0.5625
  0
CIRCLE
  5
455
330
447
100
AcDbEntity
  8
DAMAN
100
AcDbCircle
 10
-1.688
 20
-1.5
 30
0.0
 40
0.125
  0
INSERT
  5
456
330
447
100
AcDbEntity
  8
DAMAN
100
AcDbBlockReference
  2
100CROSS
 10
-1.688
 20
-1.5
 30
0.0
 41
0.375
 42
0.375
  0
TEXT
  5
457
330
447
100
AcDbEntity
  8
DAMAN
100
AcDbText
 10
-1.563
 20
-1.31325
 30
0.0
 40
0.12
  1
Y
100
AcDbText
  0
TEXT
  5
458
330
447
100
AcDbEntity
  8
DAMAN
100
AcDbText
 10
-1.313
 20
-0.2195
 30
0.0
 40
0.12
  1
B
100
AcDbText
  0
CIRCLE
  5
459
330
447
100
AcDbEntity
  8
DAMAN
100
AcDbCircle
 10
-2.188
 20
1.249
 30
0.0
 40
0.0845
  0
CIRCLE
  5
45A
330
447
100
AcDbEntity
  8
DAMAN
100
AcDbCircle
 10
-2.188
 20
1.968
 30
0.0
 40
0.1875
  0
CIRCLE
  5
45B
330
447
100
AcDbEntity
  8
DAMAN
100
AcDbCircle
 10
-2.188
 20
1.968
 30
0.0
 40
0.15625
  0
INSERT
  5
45C
330
447
100
AcDbEntity
  8
DAMAN
100
AcDbBlockReference
  2
100CROSS
 10
-2.188
 20
1.968
 30
0.0
 41
0.375
 42
0.375
  0
INSERT
  5
45D
330
447
100
AcDbEntity
  8
DAMAN
100
AcDbBlockReference
  2
100CROSS
 10
-2.188
 20
1.249
 30
0.0
 41
0.25
 42
0.25
  0
CIRCLE
  5
45E
330
447
100
AcDbEntity
  8
DAMAN
100
AcDbCircle
 10
-1.625999999999999
 20
0.6240000000000001
 30
0.0
 40
0.3439999999999999
  0
INSERT
  5
45F
330
447
100
AcDbEntity
  8
DAMAN
100
AcDbBlockReference
  2
100CROSS
 10
-1.625999999999999
 20
0.6240000000000001
 30
0.0
 41
0.5625
 42
0.5625
  0
TEXT
  5
460
330
447
100
AcDbEntity
  8
DAMAN
100
AcDbText
 10
-1.344249999999999
 20
1.030499999999999
 30
0.0
 40
0.12
  1
A
100
AcDbText
  0
INSERT
  5
461
330
447
100
AcDbEntity
  8
DAMAN
100
AcDbBlockReference
  2
100CROSS
 10
0.5620000000000001
 20
-2.032
 30
0.0
 41
0.375
 42
0.375
  0
CIRCLE
  5
462
330
447
100
AcDbEntity
  8
DAMAN
100
AcDbCircle
 10
0.5620000000000001
 20
-2.032
 30
0.0
 40
0.1875
  0
CIRCLE
  5
463
330
447
100
AcDbEntity
  8
DAMAN
100
AcDbCircle
 10
0.5620000000000001
 20
-2.032
 30
0.0
 40
0.15625
  0
INSERT
  5
464
330
447
100
AcDbEntity
  8
DAMAN
100
AcDbBlockReference
  2
100CROSS
 10
0.5620000000000001
 20
-1.046999999999999
 30
0.0
 41
0.25
 42
0.25
  0
CIRCLE
  5
465
330
447
100
AcDbEntity
  8
DAMAN
100
AcDbCircle
 10
0.5620000000000001
 20
-1.046999999999999
 30
0.0
 40
0.0845
  0
INSERT
  5
466
330
447
100
AcDbEntity
  8
DAMAN
100
AcDbBlockReference
  2
100CROSS
 10
0.5620000000000001
 20
1.968
 30
0.0
 41
0.375
 42
0.375
  0
INSERT
  5
467
330
447
100
AcDbEntity
  8
DAMAN
100
AcDbBlockReference
  2
100CROSS
 10
0.6245000000000001
 20
0.6240000000000001
 30
0.0
 41
0.25
 42
0.25
  0
TEXT
  5
468
330
447
100
AcDbEntity
  8
DAMAN
100
AcDbText
 10
0.21825
 20
0.468
 30
0.0
 40
0.12
  1
P
100
AcDbText
  0
CIRCLE
  5
469
330
447
100
AcDbEntity
  8
DAMAN
100
AcDbCircle
 10
0.6240000000000001
 20
0.62425
 30
0.0
 40
0.125
  0
CIRCLE
  5
46A
330
447
100
AcDbEntity
  8
DAMAN
100
AcDbCircle
 10
0.6245000000000001
 20
0.6240000000000001
 30
0.0
 40
0.1055
  0
TEXT
  5
46B
330
447
100
AcDbEntity
  8
DAMAN
100
AcDbText
 10
0.2495
 20
1.718
 30
0.0
 40
0.12
  1
T
100
AcDbText
  0
CIRCLE
  5
46C
330
447
100
AcDbEntity
  8
DAMAN
100
AcDbCircle
 10
0.5620000000000001
 20
1.968
 30
0.0
 40
0.1875
  0
CIRCLE
  5
46D
330
447
100
AcDbEntity
  8
DAMAN
100
AcDbCircle
 10
0.5620000000000001
 20
1.968
 30
0.0
 40
0.15625
  0
ENDBLK
  5
46E
330
447
100
AcDbEntity
  8
0
100
AcDbBlockEnd
  0
ENDSEC
  0
SECTION
  2
ENTITIES
  0
TEXT
  5
46F
330
1E
100
AcDbEntity
  8
DAMAN
100
AcDbText
 10
8.839186999999999
 20
4.336727999999999
 30
0.0
 40
0.2
  1
DAMAN ****
 50
90.0
100
AcDbText
  0
TEXT
  5
470
330
1E
100
AcDbEntity
  8
DAMAN
100
AcDbText
 10
12.32201499999999
 20
7.645328
 30
0.0
 40
0.2
  1
T
100
AcDbText
  0
TEXT
  5
471
330
1E
100
AcDbEntity
  8
DAMAN
100
AcDbText
 10
12.404223
 20
3.642712999999999
 30
0.0
 40
0.2
  1
P
100
AcDbText
  0
TEXT
  5
472
330
1E
100
AcDbEntity
  8
DAMAN
100
AcDbText
 10
16.32451499999999
 20
3.689189999999999
 30
0.0
 40
0.2
  1
B
100
AcDbText
  0
TEXT
  5
473
330
1E
100
AcDbEntity
  8
DAMAN
100
AcDbText
 10
16.32218599999999
 20
7.657822999999999
 30
0.0
 40
0.2
  1
A
 50
353.0
100
AcDbText
  0
TEXT
  5
474
330
1E
100
AcDbEntity
  8
DAMAN
100
AcDbText
 10
15.742175
 20
2.479941999999999
 30
0.0
 40
0.2
  1
Y
100
AcDbText
  0
TEXT
  5
475
330
1E
100
AcDbEntity
  8
DAMAN
100
AcDbText
 10
12.738743
 20
2.520097999999999
 30
0.0
 40
0.2
  1
X
100
AcDbText
  0
CIRCLE
  5
476
330
1E
100
AcDbEntity
  8
DAMAN
100
AcDbCircle
 10
4.634663999999999
 20
2.77454
 30
0.0
 40
0.2655
  0
CIRCLE
  5
477
330
1E
100
AcDbEntity
  8
DAMAN
100
AcDbCircle
 10
4.634663999999999
 20
2.77454
 30
0.0
 40
0.40625
  0
CIRCLE
  5
478
330
1E
100
AcDbEntity
  8
DAMAN
100
AcDbCircle
 10
4.634663999999999
 20
7.774539999999999
 30
0.0
 40
0.40625
  0
CIRCLE
  5
479
330
1E
100
AcDbEntity
  8
DAMAN
100
AcDbCircle
 10
4.634663999999999
 20
7.774539999999999
 30
0.0
 40
0.2655
  0
INSERT
  5
47A
330
1E
100
AcDbEntity
  8
DAMAN
100
AcDbBlockReference
  2
100CROSS
 10
4.634663999999999
 20
7.774539999999999
 30
0.0
 41
0.646875
 42
0.646875
  0
INSERT
  5
47B
330
1E
100
AcDbEntity
  8
DAMAN
100
AcDbBlockReference
  2
100CROSS
 10
4.634663999999999
 20
2.77454
 30
0.0
 41
0.646875
 42
0.646875
  0
LINE
  5
47C
330
1E
100
AcDbEntity
  8
DAMAN
100
AcDbLine
 10
2.134663999999999
 20
2.27454
 30
0.0
 11
2.134663999999999
 21
8.27454
 31
0.0
  0
LINE
  5
47D
330
1E
100
AcDbEntity
  8
DAMAN
100
AcDbLine
 10
2.134663999999999
 20
8.27454
 30
0.0
 11
7.134663999999999
 21
8.27454
 31
0.0
  0
LINE
  5
47E
330
1E
100
AcDbEntity
  8
DAMAN
100
AcDbLine
 10
7.134663999999999
 20
2.27454
 30
0.0
 11
7.134663999999999
 21
8.27454
 31
0.0
  0
LINE
  5
47F
330
1E
100
AcDbEntity
  8
DAMAN
100
AcDbLine
 10
2.134663999999999
 20
2.27454
 30
0.0
 11
7.134663999999999
 21
2.27454
 31
0.0
  0
LINE
  5
480
330
1E
100
AcDbEntity
  8
DAMAN
100
AcDbLine
 10
8.134664
 20
2.27454
 30
0.0
 11
8.134664
 21
8.27454
 31
0.0
  0
LINE
  5
481
330
1E
100
AcDbEntity
  8
DAMAN
100
AcDbLine
 10
10.884664
 20
2.27454
 30
0.0
 11
10.884664
 21
8.27454
 31
0.0
  0
LINE
  5
482
330
1E
100
AcDbEntity
  8
DAMAN
100
AcDbLine
 10
11.884664
 20
2.27454
 30
0.0
 11
11.884664
 21
8.27454
 31
0.0
  0
LINE
  5
483
330
1E
100
AcDbEntity
  8
DAMAN
100
AcDbLine
 10
8.134664
 20
2.27454
 30
0.0
 11
10.884664
 21
2.27454
 31
0.0
  0
LINE
  5
484
330
1E
100
AcDbEntity
  8
DAMAN
100
AcDbLine
 10
11.884664
 20
2.27454
 30
0.0
 11
16.884664
 21
2.27454
 31
0.0
  0
LINE
  5
485
330
1E
100
AcDbEntity
  8
DAMAN
100
AcDbLine
 10
10.884664
 20
8.27454
 30
0.0
 11
8.134664
 21
8.27454
 31
0.0
  0
INSERT
  5
486
330
1E
100
AcDbEntity
  8
DAMAN
100
AcDbBlockReference
  2
100CROSS
 10
3.818664
 20
5.928539999999999
 30
0.0
 41
0.5625
 42
0.5625
  0
CIRCLE
  5
487
330
1E
100
AcDbEntity
  8
DAMAN
100
AcDbCircle
 10
5.444663999999999
 20
5.30454
 30
0.0
 40
0.3439999999999999
  0
INSERT
  5
488
330
1E
100
AcDbEntity
  8
DAMAN
100
AcDbBlockReference
  2
100CROSS
 10
5.444663999999999
 20
5.30454
 30
0.0
 41
0.5625
 42
0.5625
  0
INSERT
  5
489
330
1E
100
AcDbEntity
  8
DAMAN
100
AcDbBlockReference
  2
100CROSS
 10
3.756663999999999
 20
3.80454
 30
0.0
 41
0.375
 42
0.375
  0
INSERT
  5
48A
330
1E
100
AcDbEntity
  8
DAMAN
100
AcDbBlockReference
  2
100CROSS
 10
3.256663999999999
 20
3.27254
 30
0.0
 41
0.375
 42
0.375
  0
CIRCLE
  5
48B
330
1E
100
AcDbEntity
  8
DAMAN
100
AcDbCircle
 10
3.256663999999999
 20
3.27254
 30
0.0
 40
0.15625
  0
CIRCLE
  5
48C
330
1E
100
AcDbEntity
  8
DAMAN
100
AcDbCircle
 10
3.256663999999999
 20
3.27254
 30
0.0
 40
0.1875
  0
CIRCLE
  5
48D
330
1E
100
AcDbEntity
  8
DAMAN
100
AcDbCircle
 10
3.818664
 20
4.678539999999999
 30
0.0
 40
0.3439999999999999
  0
INSERT
  5
48E
330
1E
100
AcDbEntity
  8
DAMAN
100
AcDbBlockReference
  2
100CROSS
 10
3.818664
 20
4.678539999999999
 30
0.0
 41
0.5625
 42
0.5625
  0
CIRCLE
  5
48F
330
1E
100
AcDbEntity
  8
DAMAN
100
AcDbCircle
 10
3.194163999999999
 20
5.303539999999999
 30
0.0
 40
0.1055
  0
CIRCLE
  5
490
330
1E
100
AcDbEntity
  8
DAMAN
100
AcDbCircle
 10
3.193664
 20
5.30379
 30
0.0
 40
0.125
  0
INSERT
  5
491
330
1E
100
AcDbEntity
  8
DAMAN
100
AcDbBlockReference
  2
100CROSS
 10
3.194163999999999
 20
5.303539999999999
 30
0.0
 41
0.25
 42
0.25
  0
TEXT
  5
492
330
1E
100
AcDbEntity
  8
DAMAN
100
AcDbText
 10
3.881663999999999
 20
3.99129
 30
0.0
 40
0.12
  1
Y
100
AcDbText
  0
CIRCLE
  5
493
330
1E
100
AcDbEntity
  8
DAMAN
100
AcDbCircle
 10
3.756663999999999
 20
3.80454
 30
0.0
 40
0.125
  0
TEXT
  5
494
330
1E
100
AcDbEntity
  8
DAMAN
100
AcDbText
 10
4.131663999999999
 20
5.08504
 30
0.0
 40
0.12
  1
B
100
AcDbText
  0
INSERT
  5
495
330
1E
100
AcDbEntity
  8
DAMAN
100
AcDbBlockReference
  2
100CROSS
 10
6.006663999999999
 20
3.27254
 30
0.0
 41
0.375
 42
0.375
  0
CIRCLE
  5
496
330
1E
100
AcDbEntity
  8
DAMAN
100
AcDbCircle
 10
6.006663999999999
 20
3.27254
 30
0.0
 40
0.15625
  0
CIRCLE
  5
497
330
1E
100
AcDbEntity
  8
DAMAN
100
AcDbCircle
 10
6.006663999999999
 20
3.27254
 30
0.0
 40
0.1875
  0
CIRCLE
  5
498
330
1E
100
AcDbEntity
  8
DAMAN
100
AcDbCircle
 10
6.006663999999999
 20
4.25754
 30
0.0
 40
0.0845
  0
INSERT
  5
499
330
1E
100
AcDbEntity
  8
DAMAN
100
AcDbBlockReference
  2
100CROSS
 10
6.006663999999999
 20
4.25754
 30
0.0
 41
0.25
 42
0.25
  0
CIRCLE
  5
49A
330
1E
100
AcDbEntity
  8
DAMAN
100
AcDbCircle
 10
3.818664
 20
5.928539999999999
 30
0.0
 40
0.3439999999999999
  0
CIRCLE
  5
49B
330
1E
100
AcDbEntity
  8
DAMAN
100
AcDbCircle
 10
3.256663999999999
 20
6.553539999999999
 30
0.0
 40
0.0845
  0
INSERT
  5
49C
330
1E
100
AcDbEntity
  8
DAMAN
100
AcDbBlockReference
  2
100CROSS
 10
3.256663999999999
 20
6.553539999999999
 30
0.0
 41
0.25
 42
0.25
  0
INSERT
  5
49D
330
1E
100
AcDbEntity
  8
DAMAN
100
AcDbBlockReference
  2
100CROSS
 10
3.256663999999999
 20
7.272539999999999
 30
0.0
 41
0.375
 42
0.375
  0
CIRCLE
  5
49E
330
1E
100
AcDbEntity
  8
DAMAN
100
AcDbCircle
 10
3.256663999999999
 20
7.272539999999999
 30
0.0
 40
0.1875
  0
CIRCLE
  5
49F
330
1E
100
AcDbEntity
  8
DAMAN
100
AcDbCircle
 10
3.256663999999999
 20
7.272539999999999
 30
0.0
 40
0.15625
  0
TEXT
  5
4A0
330
1E
100
AcDbEntity
  8
DAMAN
100
AcDbText
 10
4.100413999999999
 20
6.33504
 30
0.0
 40
0.12
  1
A
100
AcDbText
  0
CIRCLE
  5
4A1
330
1E
100
AcDbEntity
  8
DAMAN
100
AcDbCircle
 10
6.006663999999999
 20
7.272539999999999
 30
0.0
 40
0.15625
  0
CIRCLE
  5
4A2
330
1E
100
AcDbEntity
  8
DAMAN
100
AcDbCircle
 10
6.006663999999999
 20
7.272539999999999
 30
0.0
 40
0.1875
  0
INSERT
  5
4A3
330
1E
100
AcDbEntity
  8
DAMAN
100
AcDbBlockReference
  2
100CROSS
 10
6.006663999999999
 20
7.272539999999999
 30
0.0
 41
0.375
 42
0.375
  0
INSERT
  5
4A4
330
1E
100
AcDbEntity
  8
DAMAN
100
AcDbBlockReference
  2
100CROSS
 10
6.069163999999999
 20
5.928539999999999
 30
0.0
 41
0.25
 42
0.25
  0
CIRCLE
  5
4A5
330
1E
100
AcDbEntity
  8
DAMAN
100
AcDbCircle
 10
6.069163999999999
 20
5.928539999999999
 30
0.0
 40
0.1055
  0
CIRCLE
  5
4A6
330
1E
100
AcDbEntity
  8
DAMAN
100
AcDbCircle
 10
6.068664
 20
5.92879
 30
0.0
 40
0.125
  0
CIRCLE
  5
4A7
330
1E
100
AcDbEntity
  8
DAMAN
100
AcDbCircle
 10
5.444663999999999
 20
6.553539999999999
 30
0.0
 40
0.3439999999999999
  0
INSERT
  5
4A8
330
1E
100
AcDbEntity
  8
DAMAN
100
AcDbBlockReference
  2
100CROSS
 10
5.444663999999999
 20
6.553539999999999
 30
0.0
 41
0.5625
 42
0.5625
  0
TEXT
  5
4A9
330
1E
100
AcDbEntity
  8
DAMAN
100
AcDbText
 10
5.662913999999999
 20
5.77254
 30
0.0
 40
0.12
  1
P
100
AcDbText
  0
TEXT
  5
4AA
330
1E
100
AcDbEntity
  8
DAMAN
100
AcDbText
 10
5.694163999999999
 20
7.022539999999999
 30
0.0
 40
0.12
  1
T
100
AcDbText
  0
INSERT
  5
4AB
330
1E
100
AcDbEntity
  8
DAMAN
100
AcDbBlockReference
  2
100CROSS
 10
14.384664
 20
7.774539999999999
 30
0.0
 41
-0.646875
 42
0.646875
  0
CIRCLE
  5
4AC
330
1E
100
AcDbEntity
  8
DAMAN
100
AcDbCircle
 10
14.384664
 20
7.774539999999999
 30
0.0
 40
0.2655
  0
INSERT
  5
4AD
330
1E
100
AcDbEntity
  8
DAMAN
100
AcDbBlockReference
  2
100CROSS
 10
14.384664
 20
2.77454
 30
0.0
 41
-0.646875
 42
0.646875
  0
CIRCLE
  5
4AE
330
1E
100
AcDbEntity
  8
DAMAN
100
AcDbCircle
 10
14.384664
 20
2.77454
 30
0.0
 40
0.2655
  0
INSERT
  5
4AF
330
1E
100
AcDbEntity
  8
PIPE
100
AcDbBlockReference
  2
100NPTFT
 10
15.509664
 20
6.899539999999999
 30
0.0
  0
INSERT
  5
4B0
330
1E
100
AcDbEntity
  8
SAE
100
AcDbBlockReference
  2
16SAET
 10
15.509664
 20
6.899539999999999
 30
0.0
  0
INSERT
  5
4B1
330
1E
100
AcDbEntity
  8
BSPP
100
AcDbBlockReference
  2
100BSPPT
 10
15.509664
 20
6.899539999999999
 30
0.0
  0
INSERT
  5
4B2
330
1E
100
AcDbEntity
  8
ISO
100
AcDbBlockReference
  2
M33T
 10
15.509664
 20
6.899539999999999
 30
0.0
  0
INSERT
  5
4B3
330
1E
100
AcDbEntity
  8
PIPE
100
AcDbBlockReference
  2
100NPTFT
 10
15.509664
 20
4.64954
 30
0.0
  0
INSERT
  5
4B4
330
1E
100
AcDbEntity
  8
SAE
100
AcDbBlockReference
  2
16SAET
 10
15.509664
 20
4.64954
 30
0.0
  0
INSERT
  5
4B5
330
1E
100
AcDbEntity
  8
BSPP
100
AcDbBlockReference
  2
100BSPPT
 10
15.509664
 20
4.64954
 30
0.0
  0
INSERT
  5
4B6
330
1E
100
AcDbEntity
  8
ISO
100
AcDbBlockReference
  2
M33T
 10
15.509664
 20
4.64954
 30
0.0
  0
INSERT
  5
4B7
330
1E
100
AcDbEntity
  8
PIPE
100
AcDbBlockReference
  2
100NPTFT
 10
13.259664
 20
4.64954
 30
0.0
  0
INSERT
  5
4B8
330
1E
100
AcDbEntity
  8
SAE
100
AcDbBlockReference
  2
16SAET
 10
13.259664
 20
4.64954
 30
0.0
  0
INSERT
  5
4B9
330
1E
100
AcDbEntity
  8
BSPP
100
AcDbBlockReference
  2
100BSPPT
 10
13.259664
 20
4.64954
 30
0.0
  0
INSERT
  5
4BA
330
1E
100
AcDbEntity
  8
ISO
100
AcDbBlockReference
  2
M33T
 10
13.259664
 20
4.64954
 30
0.0
  0
INSERT
  5
4BB
330
1E
100
AcDbEntity
  8
PIPE
100
AcDbBlockReference
  2
100NPTFT
 10
13.259664
 20
6.899539999999999
 30
0.0
  0
INSERT
  5
4BC
330
1E
100
AcDbEntity
  8
SAE
100
AcDbBlockReference
  2
16SAET
 10
13.259664
 20
6.899539999999999
 30
0.0
  0
INSERT
  5
4BD
330
1E
100
AcDbEntity
  8
BSPP
100
AcDbBlockReference
  2
100BSPPT
 10
13.259664
 20
6.899539999999999
 30
0.0
  0
INSERT
  5
4BE
330
1E
100
AcDbEntity
  8
ISO
100
AcDbBlockReference
  2
M33T
 10
13.259664
 20
6.899539999999999
 30
0.0
  0
INSERT
  5
4BF
330
1E
100
AcDbEntity
  8
SAE
100
AcDbBlockReference
  2
04SAET
 10
13.446664
 20
2.96204
 30
0.0
  0
INSERT
  5
4C0
330
1E
100
AcDbEntity
  8
BSPP
100
AcDbBlockReference
  2
025BSPPT
 10
13.446664
 20
2.96204
 30
0.0
  0
INSERT
  5
4C1
330
1E
100
AcDbEntity
  8
ISO
100
AcDbBlockReference
  2
M10T
 10
13.446664
 20
2.96204
 30
0.0
  0
INSERT
  5
4C2
330
1E
100
AcDbEntity
  8
PIPE
100
AcDbBlockReference
  2
025NPTFT
 10
13.446664
 20
2.96204
 30
0.0
  0
INSERT
  5
4C3
330
1E
100
AcDbEntity
  8
SAE
100
AcDbBlockReference
  2
04SAET
 10
15.259664
 20
2.96204
 30
0.0
  0
INSERT
  5
4C4
330
1E
100
AcDbEntity
  8
BSPP
100
AcDbBlockReference
  2
025BSPPT
 10
15.259664
 20
2.96204
 30
0.0
  0
INSERT
  5
4C5
330
1E
100
AcDbEntity
  8
ISO
100
AcDbBlockReference
  2
M10T
 10
15.259664
 20
2.96204
 30
0.0
  0
INSERT
  5
4C6
330
1E
100
AcDbEntity
  8
PIPE
100
AcDbBlockReference
  2
025NPTFT
 10
15.259664
 20
2.96204
 30
0.0
  0
LINE
  5
4C7
330
1E
100
AcDbEntity
  8
DAMAN
100
AcDbLine
 10
16.884664
 20
2.27454
 30
0.0
 11
16.884664
 21
8.27454
 31
0.0
  0
LINE
  5
4C8
330
1E
100
AcDbEntity
  8
DAMAN
100
AcDbLine
 10
11.884664
 20
8.27454
 30
0.0
 11
16.884664
 21
8.27454
 31
0.0
  0
CIRCLE
  5
4C9
330
1E
100
AcDbEntity
  8
DAMAN
100
AcDbCircle
 10
5.382664
 20
4.25754
 30
0.0
 40
0.125
  0
INSERT
  5
4CA
330
1E
100
AcDbEntity
  8
DAMAN
100
AcDbBlockReference
  2
100CROSS
 10
5.382664
 20
4.25754
 30
0.0
 41
0.375
 42
0.375
  0
TEXT
  5
4CB
330
1E
100
AcDbEntity
  8
DAMAN
100
AcDbText
 10
5.507664
 20
4.44429
 30
0.0
 40
0.12
  1
X
100
AcDbText
  0
ENDSEC
  0
SECTION
  2
OBJECTS
  0
DICTIONARY
  5
C
330
0
100
AcDbDictionary
  3
ACAD_GROUP
350
D
  3
ACAD_LAYOUT
350
19
  3
ACAD_MLINESTYLE
350
16
  3
ACAD_PLOTSETTINGS
350
18
  3
ACAD_PLOTSTYLENAME
350
E
  3
ACDBHEADERROUNDTRIPXREC
350
4CD
  0
DICTIONARY
  5
4EF
330
1E
100
AcDbDictionary
280
     1
  3
ACAD_LAYOUTSELFREF
360
4F0
  0
DICTIONARY
  5
4ED
330
1A
100
AcDbDictionary
280
     1
  3
ACAD_LAYOUTSELFREF
360
4EE
  0
DICTIONARY
  5
D
102
{ACAD_REACTORS
330
C
102
}
330
C
100
AcDbDictionary
  0
DICTIONARY
  5
19
102
{ACAD_REACTORS
330
C
102
}
330
C
100
AcDbDictionary
  0
DICTIONARY
  5
16
102
{ACAD_REACTORS
330
C
102
}
330
C
100
AcDbDictionary
  3
STANDARD
350
17
  0
DICTIONARY
  5
18
102
{ACAD_REACTORS
330
C
102
}
330
C
100
AcDbDictionary
  0
ACDBDICTIONARYWDFLT
  5
E
102
{ACAD_REACTORS
330
C
102
}
330
C
100
AcDbDictionary
281
     1
  3
Normal
350
F
100
AcDbDictionaryWithDefault
340
F
  0
DICTIONARY
  5
4CD
102
{ACAD_REACTORS
330
C
102
}
330
C
100
AcDbDictionary
  3
CEPSNTYPE
350
4D7
  3
FINGERPRINTGUID
350
4D8
  3
HYPERLINKBASE
350
4D0
  3
INSUNITS
350
4D6
  3
LAYOUTDICT
350
4D2
  3
LWETCUNION
350
4D5
  3
PLOTSETDICT
350
4D3
  3
PLOTSTYLNAMDICT
350
4D4
  3
PSVPSCALE
350
4DA
  3
PUCSBASE
350
4DD
  3
PUCSORGBACK
350
4E3
  3
PUCSORGBOTTOM
350
4DF
  3
PUCSORGFRONT
350
4E2
  3
PUCSORGLEFT
350
4E0
  3
PUCSORGRIGHT
350
4E1
  3
PUCSORGTOP
350
4DE
  3
PUCSORTHOREF
350
4DB
  3
PUCSORTHOVIEW
350
4DC
  3
STYLESHEET
350
4D1
  3
TSTACKALIGN
350
4CE
  3
TSTACKSIZE
350
4CF
  3
UCSBASE
350
4E6
  3
UCSORGBACK
350
4EC
  3
UCSORGBOTTOM
350
4E8
  3
UCSORGFRONT
350
4EB
  3
UCSORGLEFT
350
4E9
  3
UCSORGRIGHT
350
4EA
  3
UCSORGTOP
350
4E7
  3
UCSORTHOREF
350
4E4
  3
UCSORTHOVIEW
350
4E5
  3
VERSIONGUID
350
4D9
  0
XRECORD
  5
4F0
102
{ACAD_REACTORS
330
4EF
102
}
330
4EF
100
AcDbXrecord
340
1E
  0
XRECORD
  5
4EE
102
{ACAD_REACTORS
330
4ED
102
}
330
4ED
100
AcDbXrecord
340
1A
  0
MLINESTYLE
  5
17
102
{ACAD_REACTORS
330
16
102
}
330
16
100
AcDbMlineStyle
  2
STANDARD
 70
     0
  3

 62
   256
 51
90.0
 52
90.0
 71
     2
 49
0.5
 62
   256
  6
BYLAYER
 49
-0.5
 62
   256
  6
BYLAYER
  0
ACDBPLACEHOLDER
  5
F
102
{ACAD_REACTORS
330
E
102
}
330
E
100
AcDbPlaceHolder
280
     0
  0
XRECORD
  5
4D7
102
{ACAD_REACTORS
330
4CD
102
}
330
4CD
100
AcDbXrecord
 90
        0
  0
XRECORD
  5
4D8
102
{ACAD_REACTORS
330
4CD
102
}
330
4CD
100
AcDbXrecord
  1
{B50959E6-0BD2-447F-B87F-6E92F3E38033}
  0
XRECORD
  5
4D0
102
{ACAD_REACTORS
330
4CD
102
}
330
4CD
100
AcDbXrecord
  1

  0
XRECORD
  5
4D6
102
{ACAD_REACTORS
330
4CD
102
}
330
4CD
100
AcDbXrecord
 90
        0
  0
XRECORD
  5
4D2
102
{ACAD_REACTORS
330
4CD
102
}
330
4CD
100
AcDbXrecord
340
19
  0
XRECORD
  5
4D5
102
{ACAD_REACTORS
330
4CD
102
}
330
4CD
100
AcDbXrecord
 90
    10781
  0
XRECORD
  5
4D3
102
{ACAD_REACTORS
330
4CD
102
}
330
4CD
100
AcDbXrecord
340
18
  0
XRECORD
  5
4D4
102
{ACAD_REACTORS
330
4CD
102
}
330
4CD
100
AcDbXrecord
340
E
  0
XRECORD
  5
4DA
102
{ACAD_REACTORS
330
4CD
102
}
330
4CD
100
AcDbXrecord
 40
0.0
  0
XRECORD
  5
4DD
102
{ACAD_REACTORS
330
4CD
102
}
330
4CD
100
AcDbXrecord
340
0
  0
XRECORD
  5
4E3
102
{ACAD_REACTORS
330
4CD
102
}
330
4CD
100
AcDbXrecord
 10
0.0
 20
0.0
 30
0.0
  0
XRECORD
  5
4DF
102
{ACAD_REACTORS
330
4CD
102
}
330
4CD
100
AcDbXrecord
 10
0.0
 20
0.0
 30
0.0
  0
XRECORD
  5
4E2
102
{ACAD_REACTORS
330
4CD
102
}
330
4CD
100
AcDbXrecord
 10
0.0
 20
0.0
 30
0.0
  0
XRECORD
  5
4E0
102
{ACAD_REACTORS
330
4CD
102
}
330
4CD
100
AcDbXrecord
 10
0.0
 20
0.0
 30
0.0
  0
XRECORD
  5
4E1
102
{ACAD_REACTORS
330
4CD
102
}
330
4CD
100
AcDbXrecord
 10
0.0
 20
0.0
 30
0.0
  0
XRECORD
  5
4DE
102
{ACAD_REACTORS
330
4CD
102
}
330
4CD
100
AcDbXrecord
 10
0.0
 20
0.0
 30
0.0
  0
XRECORD
  5
4DB
102
{ACAD_REACTORS
330
4CD
102
}
330
4CD
100
AcDbXrecord
340
0
  0
XRECORD
  5
4DC
102
{ACAD_REACTORS
330
4CD
102
}
330
4CD
100
AcDbXrecord
 70
     0
  0
XRECORD
  5
4D1
102
{ACAD_REACTORS
330
4CD
102
}
330
4CD
100
AcDbXrecord
  1

  0
XRECORD
  5
4CE
102
{ACAD_REACTORS
330
4CD
102
}
330
4CD
100
AcDbXrecord
 90
        1
  0
XRECORD
  5
4CF
102
{ACAD_REACTORS
330
4CD
102
}
330
4CD
100
AcDbXrecord
 90
       70
  0
XRECORD
  5
4E6
102
{ACAD_REACTORS
330
4CD
102
}
330
4CD
100
AcDbXrecord
340
0
  0
XRECORD
  5
4EC
102
{ACAD_REACTORS
330
4CD
102
}
330
4CD
100
AcDbXrecord
 10
0.0
 20
0.0
 30
0.0
  0
XRECORD
  5
4E8
102
{ACAD_REACTORS
330
4CD
102
}
330
4CD
100
AcDbXrecord
 10
0.0
 20
0.0
 30
0.0
  0
XRECORD
  5
4EB
102
{ACAD_REACTORS
330
4CD
102
}
330
4CD
100
AcDbXrecord
 10
0.0
 20
0.0
 30
0.0
  0
XRECORD
  5
4E9
102
{ACAD_REACTORS
330
4CD
102
}
330
4CD
100
AcDbXrecord
 10
0.0
 20
0.0
 30
0.0
  0
XRECORD
  5
4EA
102
{ACAD_REACTORS
330
4CD
102
}
330
4CD
100
AcDbXrecord
 10
0.0
 20
0.0
 30
0.0
  0
XRECORD
  5
4E7
102
{ACAD_REACTORS
330
4CD
102
}
330
4CD
100
AcDbXrecord
 10
0.0
 20
0.0
 30
0.0
  0
XRECORD
  5
4E4
102
{ACAD_REACTORS
330
4CD
102
}
330
4CD
100
AcDbXrecord
340
0
  0
XRECORD
  5
4E5
102
{ACAD_REACTORS
330
4CD
102
}
330
4CD
100
AcDbXrecord
 70
     0
  0
XRECORD
  5
4D9
102
{ACAD_REACTORS
330
4CD
102
}
330
4CD
100
AcDbXrecord
  1
{5FB15BDB-21C5-4102-BBF2-B9CEBA14434A}
  0
ENDSEC
  0
EOF
