  0
SECTION
  2
HEADER
  9
$ACADVER
  1
AC1009
  9
$INSBASE
 10
0.0
 20
0.0
 30
0.0
  9
$EXTMIN
 10
1.0
 20
3.0
 30
0.0
  9
$EXTMAX
 10
22.040154
 20
15.683022
 30
0.0
  9
$LIMMIN
 10
0.0
 20
0.0
  9
$LIMMAX
 10
12.0
 20
9.0
  9
$ORTHOMODE
 70
     0
  9
$REGENMODE
 70
     1
  9
$FILLMODE
 70
     1
  9
$QTEXTMODE
 70
     0
  9
$MIRRTEXT
 70
     1
  9
$DRAGMODE
 70
     2
  9
$LTSCALE
 40
1.0
  9
$OSMODE
 70
     0
  9
$ATTMODE
 70
     1
  9
$TEXTSIZE
 40
0.188
  9
$TRACEWID
 40
0.05
  9
$TEXTSTYLE
  7
STANDARD
  9
$CLAYER
  8
DAMAN
  9
$CELTYPE
  6
BYLAYER
  9
$CECOLOR
 62
   256
  9
$DIMSCALE
 40
1.0
  9
$DIMASZ
 40
0.18
  9
$DIMEXO
 40
0.0625
  9
$DIMDLI
 40
0.38
  9
$DIMRND
 40
0.0
  9
$DIMDLE
 40
0.0
  9
$DIMEXE
 40
0.18
  9
$DIMTP
 40
0.0
  9
$DIMTM
 40
0.0
  9
$DIMTXT
 40
0.18
  9
$DIMCEN
 40
0.09
  9
$DIMTSZ
 40
0.0
  9
$DIMTOL
 70
     0
  9
$DIMLIM
 70
     0
  9
$DIMTIH
 70
     1
  9
$DIMTOH
 70
     1
  9
$DIMSE1
 70
     0
  9
$DIMSE2
 70
     0
  9
$DIMTAD
 70
     0
  9
$DIMZIN
 70
     0
  9
$DIMBLK
  1

  9
$DIMASO
 70
     1
  9
$DIMSHO
 70
     1
  9
$DIMPOST
  1

  9
$DIMAPOST
  1

  9
$DIMALT
 70
     0
  9
$DIMALTD
 70
     2
  9
$DIMALTF
 40
25.4
  9
$DIMLFAC
 40
1.0
  9
$DIMTOFL
 70
     0
  9
$DIMTVP
 40
0.0
  9
$DIMTIX
 70
     0
  9
$DIMSOXD
 70
     0
  9
$DIMSAH
 70
     0
  9
$DIMBLK1
  1

  9
$DIMBLK2
  1

  9
$DIMSTYLE
  2
*UNNAMED
  9
$DIMCLRD
 70
     0
  9
$DIMCLRE
 70
     0
  9
$DIMCLRT
 70
     0
  9
$DIMTFAC
 40
1.0
  9
$DIMGAP
 40
0.09
  9
$LUNITS
 70
     2
  9
$LUPREC
 70
     4
  9
$SKETCHINC
 40
0.1
  9
$FILLETRAD
 40
0.0
  9
$AUNITS
 70
     0
  9
$AUPREC
 70
     0
  9
$MENU
  1
tom
  9
$ELEVATION
 40
0.0
  9
$PELEVATION
 40
0.0
  9
$THICKNESS
 40
0.0
  9
$LIMCHECK
 70
     0
  9
$BLIPMODE
 70
     1
  9
$CHAMFERA
 40
0.0
  9
$CHAMFERB
 40
0.0
  9
$SKPOLY
 70
     0
  9
$TDCREATE
 40
2449743.266530694
  9
$TDUPDATE
 40
2449743.266530694
  9
$TDINDWG
 40
0.0000000000
  9
$TDUSRTIMER
 40
0.0000000000
  9
$USRTIMER
 70
     1
  9
$ANGBASE
 50
0.0
  9
$ANGDIR
 70
     0
  9
$PDMODE
 70
     0
  9
$PDSIZE
 40
0.0
  9
$PLINEWID
 40
0.0
  9
$COORDS
 70
     1
  9
$SPLFRAME
 70
     0
  9
$SPLINETYPE
 70
     6
  9
$SPLINESEGS
 70
     8
  9
$ATTDIA
 70
     0
  9
$ATTREQ
 70
     1
  9
$HANDLING
 70
     0
  9
$HANDSEED
  5
0
  9
$SURFTAB1
 70
     6
  9
$SURFTAB2
 70
     6
  9
$SURFTYPE
 70
     6
  9
$SURFU
 70
     6
  9
$SURFV
 70
     6
  9
$UCSNAME
  2

  9
$UCSORG
 10
0.0
 20
0.0
 30
0.0
  9
$UCSXDIR
 10
1.0
 20
0.0
 30
0.0
  9
$UCSYDIR
 10
0.0
 20
1.0
 30
0.0
  9
$PUCSNAME
  2

  9
$PUCSORG
 10
0.0
 20
0.0
 30
0.0
  9
$PUCSXDIR
 10
1.0
 20
0.0
 30
0.0
  9
$PUCSYDIR
 10
0.0
 20
1.0
 30
0.0
  9
$USERI1
 70
     0
  9
$USERI2
 70
     0
  9
$USERI3
 70
     0
  9
$USERI4
 70
     0
  9
$USERI5
 70
     0
  9
$USERR1
 40
0.0
  9
$USERR2
 40
0.0
  9
$USERR3
 40
0.0
  9
$USERR4
 40
0.0
  9
$USERR5
 40
0.0
  9
$WORLDVIEW
 70
     1
  9
$SHADEDGE
 70
     3
  9
$SHADEDIF
 70
    70
  9
$TILEMODE
 70
     1
  9
$MAXACTVP
 70
    16
  9
$PINSBASE
 10
0.0
 20
0.0
 30
0.0
  9
$PLIMCHECK
 70
     0
  9
$PEXTMIN
 10
1.000000E+20
 20
1.000000E+20
 30
1.000000E+20
  9
$PEXTMAX
 10
-1.000000E+20
 20
-1.000000E+20
 30
-1.000000E+20
  9
$PLIMMIN
 10
0.0
 20
0.0
  9
$PLIMMAX
 10
12.0
 20
9.0
  9
$UNITMODE
 70
     0
  9
$VISRETAIN
 70
     0
  9
$PLINEGEN
 70
     0
  9
$PSLTSCALE
 70
     1
  9
$TREEDEPTH
 70
  3020
  9
$DWGCODEPAGE
  3
ascii
  0
ENDSEC
  0
SECTION
  2
TABLES
  0
TABLE
  2
VPORT
 70
     2
  0
VPORT
  2
*ACTIVE
 70
     0
 10
0.0
 20
0.0
 11
1.0
 21
1.0
 12
9.625
 22
11.71875
 13
0.0
 23
0.0
 14
0.03125
 24
0.03125
 15
0.0
 25
0.0
 16
0.0
 26
0.0
 36
1.0
 17
0.0
 27
0.0
 37
0.0
 40
16.138808
 41
1.365662
 42
50.0
 43
0.0
 44
0.0
 50
0.0
 51
0.0
 71
     0
 72
   100
 73
     1
 74
     1
 75
     1
 76
     0
 77
     0
 78
     0
  0
ENDTAB
  0
TABLE
  2
LTYPE
 70
     3
  0
LTYPE
  2
CONTINUOUS
 70
    64
  3
Solid line
 72
    65
 73
     0
 40
0.0
  0
LTYPE
  2
HIDDEN
 70
    64
  3
_ _ _ _ _ _ _ _ _ _ _ _ _ _ _ _ _ _ _ _ _ _ _
 72
    65
 73
     2
 40
0.375
 49
0.25
 49
-0.125
  0
LTYPE
  2
CENTER
 70
    64
  3
____ _ ____ _ ____ _ ____ _ ____ _ ____ _ ____
 72
    65
 73
     4
 40
2.0
 49
1.25
 49
-0.25
 49
0.25
 49
-0.25
  0
ENDTAB
  0
TABLE
  2
LAYER
 70
     9
  0
LAYER
  2
0
 70
     0
 62
     7
  6
CONTINUOUS
  0
LAYER
  2
DAMAN
 70
     0
 62
     5
  6
CONTINUOUS
  0
LAYER
  2
BORDER
 70
    64
 62
     7
  6
CONTINUOUS
  0
LAYER
  2
HEX
 70
    64
 62
     5
  6
CONTINUOUS
  0
LAYER
  2
SOLID
 70
    64
 62
     4
  6
CONTINUOUS
  0
LAYER
  2
CDIM
 70
    64
 62
     2
  6
CONTINUOUS
  0
LAYER
  2
CSOLID
 70
    64
 62
     3
  6
CONTINUOUS
  0
LAYER
  2
CHIDDEN
 70
    64
 62
     3
  6
HIDDEN
  0
LAYER
  2
CCENTER
 70
    64
 62
     4
  6
CENTER
  0
ENDTAB
  0
TABLE
  2
STYLE
 70
     2
  0
STYLE
  2
STANDARD
 70
    64
 40
0.0
 41
1.0
 50
0.0
 71
     0
 42
0.188
  3
txt
  4

  0
STYLE
  2
STR
 70
    64
 40
0.0
 41
1.0
 50
0.0
 71
     0
 42
0.25
  3
SIMPLEX
  4

  0
ENDTAB
  0
TABLE
  2
VIEW
 70
     0
  0
ENDTAB
  0
TABLE
  2
UCS
 70
     0
  0
ENDTAB
  0
TABLE
  2
APPID
 70
     1
  0
APPID
  2
ACAD
 70
    64
  0
ENDTAB
  0
TABLE
  2
DIMSTYLE
 70
     0
  0
ENDTAB
  0
ENDSEC
  0
SECTION
  2
BLOCKS
  0
BLOCK
  8
0
  2
D07SPB
 70
    64
 10
0.0
 20
0.0
 30
0.0
  3
D07SPB
  0
INSERT
  8
CCENTER
  2
100CROSS
 10
16.5
 20
8.875
 30
0.0
 41
0.406
 42
0.406
 43
0.0
  0
CIRCLE
  8
CSOLID
 10
16.5
 20
8.875
 30
0.0
 40
0.203
  0
CIRCLE
  8
CSOLID
 10
16.5
 20
12.875
 30
0.0
 40
0.203
  0
INSERT
  8
CCENTER
  2
100CROSS
 10
16.5
 20
12.875
 30
0.0
 41
0.406
 42
0.406
 43
0.0
  0
INSERT
  8
CSOLID
  2
CIRCLE
 10
5.75
 20
9.859375
 30
0.0
 41
0.21
 42
0.25
 43
0.0
  0
INSERT
  8
CCENTER
  2
100CROSS
 10
5.0
 20
8.875
 30
0.0
 41
0.625
 42
0.625
 43
0.0
  0
CIRCLE
  8
CSOLID
 10
5.0
 20
8.875
 30
0.0
 40
0.203
  0
CIRCLE
  8
CSOLID
 10
5.0
 20
8.875
 30
0.0
 40
0.3125
  0
CIRCLE
  8
CSOLID
 10
5.0
 20
12.875
 30
0.0
 40
0.3125
  0
CIRCLE
  8
CSOLID
 10
5.0
 20
12.875
 30
0.0
 40
0.203
  0
INSERT
  8
CCENTER
  2
100CROSS
 10
5.0
 20
12.875
 30
0.0
 41
0.625
 42
0.625
 43
0.0
  0
INSERT
  8
CCENTER
  2
100CROSS
 10
3.625
 20
12.875
 30
0.0
 41
0.375
 42
0.375
 43
0.0
  0
CIRCLE
  8
CSOLID
 10
3.625
 20
12.875
 30
0.0
 40
0.15625
  0
ARC
  8
CSOLID
 10
3.625
 20
12.875
 30
0.0
 40
0.1875
 50
0.0
 51
270.0
  0
ARC
  8
CSOLID
 10
3.625
 20
8.875
 30
0.0
 40
0.1875
 50
0.0
 51
270.0
  0
CIRCLE
  8
CSOLID
 10
3.625
 20
8.875
 30
0.0
 40
0.15625
  0
INSERT
  8
CCENTER
  2
100CROSS
 10
3.625
 20
8.875
 30
0.0
 41
0.375
 42
0.375
 43
0.0
  0
ARC
  8
CSOLID
 10
6.375
 20
12.875
 30
0.0
 40
0.1875
 50
0.0
 51
270.0
  0
CIRCLE
  8
CSOLID
 10
6.375
 20
12.875
 30
0.0
 40
0.15625
  0
INSERT
  8
CCENTER
  2
100CROSS
 10
6.375
 20
12.875
 30
0.0
 41
0.375
 42
0.375
 43
0.0
  0
ARC
  8
CSOLID
 10
6.375
 20
8.875
 30
0.0
 40
0.1875
 50
0.0
 51
270.0
  0
CIRCLE
  8
CSOLID
 10
6.375
 20
8.875
 30
0.0
 40
0.15625
  0
INSERT
  8
CCENTER
  2
100CROSS
 10
6.375
 20
8.875
 30
0.0
 41
0.375
 42
0.375
 43
0.0
  0
INSERT
  8
CCENTER
  2
100CROSS
 10
3.563
 20
10.906
 30
0.0
 41
0.25
 42
0.25
 43
0.0
  0
CIRCLE
  8
CSOLID
 10
3.563
 20
10.906
 30
0.0
 40
0.1055
  0
ARC
  8
CSOLID
 10
3.563
 20
10.906
 30
0.0
 40
0.125
 50
0.0
 51
270.0
  0
ARC
  8
CSOLID
 10
6.438
 20
11.531
 30
0.0
 40
0.125
 50
0.0
 51
270.0
  0
CIRCLE
  8
CSOLID
 10
6.438
 20
11.531
 30
0.0
 40
0.1055
  0
INSERT
  8
CCENTER
  2
100CROSS
 10
6.438
 20
11.531
 30
0.0
 41
0.25
 42
0.25
 43
0.0
  0
INSERT
  8
CCENTER
  2
100CROSS
 10
4.187
 20
11.531
 30
0.0
 41
0.688
 42
0.688
 43
0.0
  0
CIRCLE
  8
CSOLID
 10
4.187
 20
11.531
 30
0.0
 40
0.344
  0
CIRCLE
  8
CSOLID
 10
4.187
 20
10.281
 30
0.0
 40
0.344
  0
INSERT
  8
CCENTER
  2
100CROSS
 10
4.187
 20
10.281
 30
0.0
 41
0.688
 42
0.688
 43
0.0
  0
INSERT
  8
CCENTER
  2
100CROSS
 10
5.812
 20
10.906
 30
0.0
 41
0.688
 42
0.688
 43
0.0
  0
CIRCLE
  8
CSOLID
 10
5.812
 20
10.906
 30
0.0
 40
0.344
  0
CIRCLE
  8
CSOLID
 10
5.812
 20
12.156
 30
0.0
 40
0.344
  0
INSERT
  8
CCENTER
  2
100CROSS
 10
5.812
 20
12.156
 30
0.0
 41
0.688
 42
0.688
 43
0.0
  0
INSERT
  8
CCENTER
  2
100CROSS
 10
3.625
 20
12.15625
 30
0.0
 41
0.171
 42
0.171
 43
0.0
  0
CIRCLE
  8
CSOLID
 10
3.625
 20
12.15625
 30
0.0
 40
0.0855
  0
CIRCLE
  8
CSOLID
 10
6.375
 20
9.85925
 30
0.0
 40
0.0855
  0
INSERT
  8
CCENTER
  2
100CROSS
 10
6.375
 20
9.85925
 30
0.0
 41
0.171
 42
0.171
 43
0.0
  0
INSERT
  8
CCENTER
  2
100CROSS
 10
4.125
 20
9.407
 30
0.0
 41
0.25
 42
0.25
 43
0.0
  0
CIRCLE
  8
CSOLID
 10
4.125
 20
9.407
 30
0.0
 40
0.125
  0
INSERT
  8
CCENTER
  2
100CROSS
 10
5.75
 20
9.86
 30
0.0
 41
0.25
 42
0.25
 43
0.0
  0
INSERT
  8
BORDER
  2
BOX
 10
14.5
 20
8.5
 30
0.0
 41
4.0
 42
4.75
 43
0.0
  0
INSERT
  8
BORDER
  2
BOX
 10
10.0
 20
8.5
 30
0.0
 41
1.5
 42
4.75
 43
0.0
  0
INSERT
  8
BORDER
  2
BOX
 10
3.0
 20
8.5
 30
0.0
 41
4.0
 42
4.75
 43
0.0
  0
INSERT
  8
CSOLID
  2
106SAET
 10
15.5625
 20
12.15625
 30
0.0
  0
INSERT
  8
CSOLID
  2
106SAET
 10
17.375043
 20
12.0
 30
0.0
  0
CIRCLE
  8
CSOLID
 10
15.5625
 20
10.4375
 30
0.0
 40
0.492
  0
CIRCLE
  8
CSOLID
 10
15.5625
 20
10.4375
 30
0.0
 40
0.453
  0
ARC
  8
CSOLID
 10
15.5625
 20
10.4375
 30
0.0
 40
0.8125
 50
289.38323
 51
250.61677
  0
INSERT
  8
CCENTER
  2
100CROSS
 10
15.5625
 20
10.4375
 30
0.0
 41
1.33
 42
1.33
 43
0.0
  0
CIRCLE
  8
CHIDDEN
 10
15.5625
 20
10.4375
 30
0.0
 40
0.53125
  0
INSERT
  8
CCENTER
  2
100CROSS
 10
15.5625
 20
9.25
 30
0.0
 43
0.0
  0
CIRCLE
  8
CHIDDEN
 10
15.5625
 20
9.25
 30
0.0
 40
0.28125
  0
ARC
  8
CSOLID
 10
15.5625
 20
9.25
 30
0.0
 40
0.5
 50
122.636898
 51
57.363102
  0
CIRCLE
  8
CSOLID
 10
15.5625
 20
9.25
 30
0.0
 40
0.25
  0
INSERT
  8
CCENTER
  2
100CROSS
 10
17.375043
 20
9.15625
 30
0.0
 43
0.0
  0
CIRCLE
  8
CHIDDEN
 10
17.375043
 20
9.15625
 30
0.0
 40
0.28125
  0
ARC
  8
CSOLID
 10
17.375043
 20
9.15625
 30
0.0
 40
0.5
 50
122.636898
 51
57.363102
  0
CIRCLE
  8
CSOLID
 10
17.375043
 20
9.15625
 30
0.0
 40
0.25
  0
CIRCLE
  8
CSOLID
 10
17.375043
 20
10.34375
 30
0.0
 40
0.492
  0
CIRCLE
  8
CSOLID
 10
17.375043
 20
10.34375
 30
0.0
 40
0.453
  0
ARC
  8
CSOLID
 10
17.375043
 20
10.34375
 30
0.0
 40
0.8125
 50
289.38323
 51
250.61677
  0
INSERT
  8
CCENTER
  2
100CROSS
 10
17.375043
 20
10.34375
 30
0.0
 41
1.33
 42
1.33
 43
0.0
  0
CIRCLE
  8
CHIDDEN
 10
17.375043
 20
10.34375
 30
0.0
 40
0.53125
  0
TEXT
  8
CDIM
 10
16.21875
 20
11.34375
 30
0.0
 40
0.25
  1
T
  7
STR
  0
TEXT
  8
CDIM
 10
16.59375
 20
11.21875
 30
0.0
 40
0.25
  1
A
  7
STR
  0
TEXT
  8
CDIM
 10
16.28125
 20
10.90625
 30
0.0
 40
0.25
  1
P
  7
STR
  0
TEXT
  8
CDIM
 10
16.59375
 20
10.875
 30
0.0
 40
0.25
  1
B
  7
STR
  0
TEXT
  8
CDIM
 10
16.125
 20
9.375
 30
0.0
 40
0.25
  1
X
  7
STR
  0
TEXT
  8
CDIM
 10
16.6875
 20
9.3125
 30
0.0
 40
0.25
  1
Y
  7
STR
  0
LINE
  8
CDIM
 10
3.0
 20
13.375556
 30
0.0
 11
3.0
 21
13.95089
 31
0.0
  0
LINE
  8
CDIM
 10
5.812
 20
12.625556
 30
0.0
 11
5.812
 21
13.95089
 31
0.0
  0
LINE
  8
CDIM
 10
3.241068
 20
13.75
 30
0.0
 11
3.796634
 21
13.75
 31
0.0
  0
LINE
  8
CDIM
 10
5.570932
 20
13.75
 30
0.0
 11
5.015366
 21
13.75
 31
0.0
  0
SOLID
  8
CDIM
 10
3.241068
 20
13.709822
 30
0.0
 11
3.241068
 21
13.790178
 31
0.0
 12
3.0
 22
13.75
 32
0.0
 13
3.0
 23
13.75
 33
0.0
  0
SOLID
  8
CDIM
 10
5.570932
 20
13.709822
 30
0.0
 11
5.570932
 21
13.790178
 31
0.0
 12
5.812
 22
13.75
 32
0.0
 13
5.812
 23
13.75
 33
0.0
  0
TEXT
  8
CDIM
 10
4.037702
 20
13.609377
 30
0.0
 40
0.281246
  1
2.81
  7
STR
  0
LINE
  8
CDIM
 10
3.0
 20
13.375556
 30
0.0
 11
3.0
 21
14.714272
 31
0.0
  0
LINE
  8
CDIM
 10
7.0
 20
13.375556
 30
0.0
 11
7.0
 21
14.714272
 31
0.0
  0
LINE
  8
CDIM
 10
3.241068
 20
14.513382
 30
0.0
 11
4.330367
 21
14.513382
 31
0.0
  0
LINE
  8
CDIM
 10
6.758932
 20
14.513382
 30
0.0
 11
5.669633
 21
14.513382
 31
0.0
  0
SOLID
  8
CDIM
 10
3.241068
 20
14.473204
 30
0.0
 11
3.241068
 21
14.55356
 31
0.0
 12
3.0
 22
14.513382
 32
0.0
 13
3.0
 23
14.513382
 33
0.0
  0
SOLID
  8
CDIM
 10
6.758932
 20
14.473204
 30
0.0
 11
6.758932
 21
14.55356
 31
0.0
 12
7.0
 22
14.513382
 32
0.0
 13
7.0
 23
14.513382
 33
0.0
  0
TEXT
  8
CDIM
 10
4.571435
 20
14.372759
 30
0.0
 40
0.281246
  1
4.00
  7
STR
  0
LINE
  8
CDIM
 10
2.874444
 20
13.25
 30
0.0
 11
2.17411
 21
13.25
 31
0.0
  0
LINE
  8
CDIM
 10
5.686444
 20
10.906
 30
0.0
 11
2.17411
 21
10.906
 31
0.0
  0
LINE
  8
CDIM
 10
2.375
 20
13.008932
 30
0.0
 11
2.375
 21
12.459691
 31
0.0
  0
LINE
  8
CDIM
 10
2.375
 20
11.147068
 30
0.0
 11
2.375
 21
11.696309
 31
0.0
  0
SOLID
  8
CDIM
 10
2.415178
 20
13.008932
 30
0.0
 11
2.334822
 21
13.008932
 31
0.0
 12
2.375
 22
13.25
 32
0.0
 13
2.375
 23
13.25
 33
0.0
  0
SOLID
  8
CDIM
 10
2.415178
 20
11.147068
 30
0.0
 11
2.334822
 21
11.147068
 31
0.0
 12
2.375
 22
10.906
 32
0.0
 13
2.375
 23
10.906
 33
0.0
  0
TEXT
  8
CDIM
 10
1.939738
 20
11.937377
 30
0.0
 40
0.281246
  1
2.34
  7
STR
  0
LINE
  8
CDIM
 10
2.874444
 20
13.25
 30
0.0
 11
1.410728
 21
13.25
 31
0.0
  0
LINE
  8
CDIM
 10
2.874444
 20
8.5
 30
0.0
 11
1.410728
 21
8.5
 31
0.0
  0
LINE
  8
CDIM
 10
1.611618
 20
13.008932
 30
0.0
 11
1.611618
 21
10.850441
 31
0.0
  0
LINE
  8
CDIM
 10
1.611618
 20
8.741068
 30
0.0
 11
1.611618
 21
10.087059
 31
0.0
  0
SOLID
  8
CDIM
 10
1.651796
 20
13.008932
 30
0.0
 11
1.57144
 21
13.008932
 31
0.0
 12
1.611618
 22
13.25
 32
0.0
 13
1.611618
 23
13.25
 33
0.0
  0
SOLID
  8
CDIM
 10
1.651796
 20
8.741068
 30
0.0
 11
1.57144
 21
8.741068
 31
0.0
 12
1.611618
 22
8.5
 32
0.0
 13
1.611618
 23
8.5
 33
0.0
  0
TEXT
  8
CDIM
 10
1.183053
 20
10.328127
 30
0.0
 40
0.281246
  1
4.75
  7
STR
  0
LINE
  8
CDIM
 10
7.125556
 20
13.25
 30
0.0
 11
7.82589
 21
13.25
 31
0.0
  0
LINE
  8
CDIM
 10
5.125556
 20
12.875
 30
0.0
 11
7.82589
 21
12.875
 31
0.0
  0
LINE
  8
CDIM
 10
7.625
 20
12.633932
 30
0.0
 11
7.625
 21
12.392864
 31
0.0
  0
LINE
  8
CDIM
 10
7.625
 20
13.491068
 30
0.0
 11
7.625
 21
13.732136
 31
0.0
  0
SOLID
  8
CDIM
 10
7.665178
 20
12.633932
 30
0.0
 11
7.584822
 21
12.633932
 31
0.0
 12
7.625
 22
12.875
 32
0.0
 13
7.625
 23
12.875
 33
0.0
  0
SOLID
  8
CDIM
 10
7.665178
 20
13.491068
 30
0.0
 11
7.584822
 21
13.491068
 31
0.0
 12
7.625
 22
13.25
 32
0.0
 13
7.625
 23
13.25
 33
0.0
  0
TEXT
  8
CDIM
 10
7.129483
 20
11.970991
 30
0.0
 40
0.281246
  1
0.37
  7
STR
  0
LINE
  8
CDIM
 10
7.125556
 20
13.25
 30
0.0
 11
8.589272
 21
13.25
 31
0.0
  0
LINE
  8
CDIM
 10
5.125556
 20
8.875
 30
0.0
 11
8.589272
 21
8.875
 31
0.0
  0
LINE
  8
CDIM
 10
8.388382
 20
13.008932
 30
0.0
 11
8.388382
 21
11.444191
 31
0.0
  0
LINE
  8
CDIM
 10
8.388382
 20
9.116068
 30
0.0
 11
8.388382
 21
10.680809
 31
0.0
  0
SOLID
  8
CDIM
 10
8.42856
 20
13.008932
 30
0.0
 11
8.348204
 21
13.008932
 31
0.0
 12
8.388382
 22
13.25
 32
0.0
 13
8.388382
 23
13.25
 33
0.0
  0
SOLID
  8
CDIM
 10
8.42856
 20
9.116068
 30
0.0
 11
8.348204
 21
9.116068
 31
0.0
 12
8.388382
 22
8.875
 32
0.0
 13
8.388382
 23
8.875
 33
0.0
  0
TEXT
  8
CDIM
 10
7.959817
 20
10.921877
 30
0.0
 40
0.281246
  1
4.37
  7
STR
  0
LINE
  8
CDIM
 10
10.0
 20
13.375556
 30
0.0
 11
10.0
 21
13.95089
 31
0.0
  0
LINE
  8
CDIM
 10
11.5
 20
13.375556
 30
0.0
 11
11.5
 21
13.95089
 31
0.0
  0
LINE
  8
CDIM
 10
11.741068
 20
13.75
 30
0.0
 11
11.982136
 21
13.75
 31
0.0
  0
LINE
  8
CDIM
 10
9.758932
 20
13.75
 30
0.0
 11
9.517864
 21
13.75
 31
0.0
  0
SOLID
  8
CDIM
 10
11.741068
 20
13.709822
 30
0.0
 11
11.741068
 21
13.790178
 31
0.0
 12
11.5
 22
13.75
 32
0.0
 13
11.5
 23
13.75
 33
0.0
  0
SOLID
  8
CDIM
 10
9.758932
 20
13.709822
 30
0.0
 11
9.758932
 21
13.790178
 31
0.0
 12
10.0
 22
13.75
 32
0.0
 13
10.0
 23
13.75
 33
0.0
  0
TEXT
  8
CDIM
 10
10.348204
 20
13.609377
 30
0.0
 40
0.281246
  1
1.50
  7
STR
  0
LINE
  8
CDIM
 10
18.5
 20
13.375556
 30
0.0
 11
18.5
 21
13.95089
 31
0.0
  0
LINE
  8
CDIM
 10
17.375043
 20
12.617556
 30
0.0
 11
17.375043
 21
13.95089
 31
0.0
  0
LINE
  8
CDIM
 10
17.133975
 20
13.75
 30
0.0
 11
16.892907
 21
13.75
 31
0.0
  0
LINE
  8
CDIM
 10
18.741068
 20
13.75
 30
0.0
 11
18.982136
 21
13.75
 31
0.0
  0
SOLID
  8
CDIM
 10
17.133975
 20
13.709822
 30
0.0
 11
17.133975
 21
13.790178
 31
0.0
 12
17.375043
 22
13.75
 32
0.0
 13
17.375043
 23
13.75
 33
0.0
  0
SOLID
  8
CDIM
 10
18.741068
 20
13.709822
 30
0.0
 11
18.741068
 21
13.790178
 31
0.0
 12
18.5
 22
13.75
 32
0.0
 13
18.5
 23
13.75
 33
0.0
  0
TEXT
  8
CDIM
 10
17.812556
 20
13.609377
 30
0.0
 40
0.281246
  1
A
  7
STR
  0
LINE
  8
CDIM
 10
18.5
 20
13.375556
 30
0.0
 11
18.5
 21
14.714272
 31
0.0
  0
LINE
  8
CDIM
 10
15.5625
 20
12.773806
 30
0.0
 11
15.5625
 21
14.714272
 31
0.0
  0
LINE
  8
CDIM
 10
18.258932
 20
14.513382
 30
0.0
 11
17.366067
 21
14.513382
 31
0.0
  0
LINE
  8
CDIM
 10
15.803568
 20
14.513382
 30
0.0
 11
16.696433
 21
14.513382
 31
0.0
  0
SOLID
  8
CDIM
 10
18.258932
 20
14.473204
 30
0.0
 11
18.258932
 21
14.55356
 31
0.0
 12
18.5
 22
14.513382
 32
0.0
 13
18.5
 23
14.513382
 33
0.0
  0
SOLID
  8
CDIM
 10
15.803568
 20
14.473204
 30
0.0
 11
15.803568
 21
14.55356
 31
0.0
 12
15.5625
 22
14.513382
 32
0.0
 13
15.5625
 23
14.513382
 33
0.0
  0
TEXT
  8
CDIM
 10
16.937501
 20
14.372759
 30
0.0
 40
0.281246
  1
B
  7
STR
  0
LINE
  8
CDIM
 10
18.5
 20
8.374444
 30
0.0
 11
18.5
 21
7.79911
 31
0.0
  0
LINE
  8
CDIM
 10
17.375043
 20
8.780694
 30
0.0
 11
17.375043
 21
7.79911
 31
0.0
  0
LINE
  8
CDIM
 10
17.133975
 20
8.0
 30
0.0
 11
16.892907
 21
8.0
 31
0.0
  0
LINE
  8
CDIM
 10
18.741068
 20
8.0
 30
0.0
 11
18.982136
 21
8.0
 31
0.0
  0
SOLID
  8
CDIM
 10
17.133975
 20
7.959822
 30
0.0
 11
17.133975
 21
8.040178
 31
0.0
 12
17.375043
 22
8.0
 32
0.0
 13
17.375043
 23
8.0
 33
0.0
  0
SOLID
  8
CDIM
 10
18.741068
 20
7.959822
 30
0.0
 11
18.741068
 21
8.040178
 31
0.0
 12
18.5
 22
8.0
 32
0.0
 13
18.5
 23
8.0
 33
0.0
  0
TEXT
  8
CDIM
 10
14.428656
 20
7.859377
 30
0.0
 40
0.281246
  1
H (Y port)
  7
STR
  0
LINE
  8
CDIM
 10
18.5
 20
8.374444
 30
0.0
 11
18.5
 21
7.035728
 31
0.0
  0
LINE
  8
CDIM
 10
15.5625
 20
8.874444
 30
0.0
 11
15.5625
 21
8.375
 31
0.0
  0
LINE
  8
CDIM
 10
15.321432
 20
7.236618
 30
0.0
 11
15.080364
 21
7.236618
 31
0.0
  0
LINE
  8
CDIM
 10
18.741068
 20
7.236618
 30
0.0
 11
18.982136
 21
7.236618
 31
0.0
  0
SOLID
  8
CDIM
 10
15.321432
 20
7.19644
 30
0.0
 11
15.321432
 21
7.276796
 31
0.0
 12
15.5625
 22
7.236618
 32
0.0
 13
15.5625
 23
7.236618
 33
0.0
  0
SOLID
  8
CDIM
 10
18.741068
 20
7.19644
 30
0.0
 11
18.741068
 21
7.276796
 31
0.0
 12
18.5
 22
7.236618
 32
0.0
 13
18.5
 23
7.236618
 33
0.0
  0
TEXT
  8
CDIM
 10
16.053611
 20
7.095995
 30
0.0
 40
0.281246
  1
I (X port)
  7
STR
  0
LINE
  8
CDIM
 10
18.625556
 20
13.25
 30
0.0
 11
19.32589
 21
13.25
 31
0.0
  0
LINE
  8
CDIM
 10
17.953599
 20
12.0
 30
0.0
 11
19.32589
 21
12.0
 31
0.0
  0
LINE
  8
CDIM
 10
19.125
 20
11.758932
 30
0.0
 11
19.125
 21
11.517864
 31
0.0
  0
LINE
  8
CDIM
 10
19.125
 20
13.491068
 30
0.0
 11
19.125
 21
13.732136
 31
0.0
  0
SOLID
  8
CDIM
 10
19.165178
 20
11.758932
 30
0.0
 11
19.084822
 21
11.758932
 31
0.0
 12
19.125
 22
12.0
 32
0.0
 13
19.125
 23
12.0
 33
0.0
  0
SOLID
  8
CDIM
 10
19.165178
 20
13.491068
 30
0.0
 11
19.084822
 21
13.491068
 31
0.0
 12
19.125
 22
13.25
 32
0.0
 13
19.125
 23
13.25
 33
0.0
  0
TEXT
  8
CDIM
 10
19.035724
 20
12.439741
 30
0.0
 40
0.281246
  1
C
  7
STR
  0
LINE
  8
CDIM
 10
18.625556
 20
13.25
 30
0.0
 11
20.089272
 21
13.25
 31
0.0
  0
LINE
  8
CDIM
 10
17.953599
 20
10.34375
 30
0.0
 11
20.089272
 21
10.34375
 31
0.0
  0
LINE
  8
CDIM
 10
19.888382
 20
13.008932
 30
0.0
 11
19.888382
 21
12.178566
 31
0.0
  0
LINE
  8
CDIM
 10
19.888382
 20
10.584818
 30
0.0
 11
19.888382
 21
11.415184
 31
0.0
  0
SOLID
  8
CDIM
 10
19.92856
 20
13.008932
 30
0.0
 11
19.848204
 21
13.008932
 31
0.0
 12
19.888382
 22
13.25
 32
0.0
 13
19.888382
 23
13.25
 33
0.0
  0
SOLID
  8
CDIM
 10
19.92856
 20
10.584818
 30
0.0
 11
19.848204
 21
10.584818
 31
0.0
 12
19.888382
 22
10.34375
 32
0.0
 13
19.888382
 23
10.34375
 33
0.0
  0
TEXT
  8
CDIM
 10
19.794633
 20
11.656252
 30
0.0
 40
0.281246
  1
D
  7
STR
  0
LINE
  8
CDIM
 10
18.625556
 20
13.25
 30
0.0
 11
20.852654
 21
13.25
 31
0.0
  0
LINE
  8
CDIM
 10
17.781849
 20
9.15625
 30
0.0
 11
20.852654
 21
9.15625
 31
0.0
  0
LINE
  8
CDIM
 10
20.651764
 20
13.008932
 30
0.0
 11
20.651764
 21
11.584816
 31
0.0
  0
LINE
  8
CDIM
 10
20.651764
 20
9.397318
 30
0.0
 11
20.651764
 21
10.821434
 31
0.0
  0
SOLID
  8
CDIM
 10
20.691942
 20
13.008932
 30
0.0
 11
20.611586
 21
13.008932
 31
0.0
 12
20.651764
 22
13.25
 32
0.0
 13
20.651764
 23
13.25
 33
0.0
  0
SOLID
  8
CDIM
 10
20.691942
 20
9.397318
 30
0.0
 11
20.611586
 21
9.397318
 31
0.0
 12
20.651764
 22
9.15625
 32
0.0
 13
20.651764
 23
9.15625
 33
0.0
  0
TEXT
  8
CDIM
 10
20.564712
 20
11.062502
 30
0.0
 40
0.281246
  1
E
  7
STR
  0
LINE
  8
CDIM
 10
14.374444
 20
13.25
 30
0.0
 11
13.67411
 21
13.25
 31
0.0
  0
LINE
  8
CDIM
 10
14.983944
 20
12.15625
 30
0.0
 11
13.67411
 21
12.15625
 31
0.0
  0
LINE
  8
CDIM
 10
13.875
 20
11.915182
 30
0.0
 11
13.875
 21
11.674114
 31
0.0
  0
LINE
  8
CDIM
 10
13.875
 20
13.491068
 30
0.0
 11
13.875
 21
13.732136
 31
0.0
  0
SOLID
  8
CDIM
 10
13.915178
 20
11.915182
 30
0.0
 11
13.834822
 21
11.915182
 31
0.0
 12
13.875
 22
12.15625
 32
0.0
 13
13.875
 23
12.15625
 33
0.0
  0
SOLID
  8
CDIM
 10
13.915178
 20
13.491068
 30
0.0
 11
13.834822
 21
13.491068
 31
0.0
 12
13.875
 22
13.25
 32
0.0
 13
13.875
 23
13.25
 33
0.0
  0
TEXT
  8
CDIM
 10
13.477697
 20
12.564741
 30
0.0
 40
0.281246
  1
1.09
  7
STR
  0
LINE
  8
CDIM
 10
14.374444
 20
13.25
 30
0.0
 11
12.910728
 21
13.25
 31
0.0
  0
LINE
  8
CDIM
 10
14.983944
 20
10.4375
 30
0.0
 11
12.910728
 21
10.4375
 31
0.0
  0
LINE
  8
CDIM
 10
13.111618
 20
13.008932
 30
0.0
 11
13.111618
 21
12.225441
 31
0.0
  0
LINE
  8
CDIM
 10
13.111618
 20
10.678568
 30
0.0
 11
13.111618
 21
11.462059
 31
0.0
  0
SOLID
  8
CDIM
 10
13.151796
 20
13.008932
 30
0.0
 11
13.07144
 21
13.008932
 31
0.0
 12
13.111618
 22
13.25
 32
0.0
 13
13.111618
 23
13.25
 33
0.0
  0
SOLID
  8
CDIM
 10
13.151796
 20
10.678568
 30
0.0
 11
13.07144
 21
10.678568
 31
0.0
 12
13.111618
 22
10.4375
 32
0.0
 13
13.111618
 23
10.4375
 33
0.0
  0
TEXT
  8
CDIM
 10
13.024566
 20
11.703127
 30
0.0
 40
0.281246
  1
F
  7
STR
  0
LINE
  8
CDIM
 10
14.374444
 20
13.25
 30
0.0
 11
12.147346
 21
13.25
 31
0.0
  0
LINE
  8
CDIM
 10
15.186944
 20
9.25
 30
0.0
 11
12.147346
 21
9.25
 31
0.0
  0
LINE
  8
CDIM
 10
12.348236
 20
13.008932
 30
0.0
 11
12.348236
 21
11.631691
 31
0.0
  0
LINE
  8
CDIM
 10
12.348236
 20
9.491068
 30
0.0
 11
12.348236
 21
10.868309
 31
0.0
  0
SOLID
  8
CDIM
 10
12.388414
 20
13.008932
 30
0.0
 11
12.308058
 21
13.008932
 31
0.0
 12
12.348236
 22
13.25
 32
0.0
 13
12.348236
 23
13.25
 33
0.0
  0
SOLID
  8
CDIM
 10
12.388414
 20
9.491068
 30
0.0
 11
12.308058
 21
9.491068
 31
0.0
 12
12.348236
 22
9.25
 32
0.0
 13
12.348236
 23
9.25
 33
0.0
  0
TEXT
  8
CDIM
 10
12.247791
 20
11.109377
 30
0.0
 40
0.281246
  1
G
  7
STR
  0
LINE
  8
CDIM
 10
3.0
 20
8.374444
 30
0.0
 11
3.0
 21
7.79911
 31
0.0
  0
LINE
  8
CDIM
 10
5.0
 20
8.546444
 30
0.0
 11
5.0
 21
7.79911
 31
0.0
  0
LINE
  8
CDIM
 10
3.241068
 20
8.0
 30
0.0
 11
3.330367
 21
8.0
 31
0.0
  0
LINE
  8
CDIM
 10
4.758932
 20
8.0
 30
0.0
 11
4.669633
 21
8.0
 31
0.0
  0
SOLID
  8
CDIM
 10
3.241068
 20
7.959822
 30
0.0
 11
3.241068
 21
8.040178
 31
0.0
 12
3.0
 22
8.0
 32
0.0
 13
3.0
 23
8.0
 33
0.0
  0
SOLID
  8
CDIM
 10
4.758932
 20
7.959822
 30
0.0
 11
4.758932
 21
8.040178
 31
0.0
 12
5.0
 22
8.0
 32
0.0
 13
5.0
 23
8.0
 33
0.0
  0
TEXT
  8
CDIM
 10
3.571435
 20
7.859377
 30
0.0
 40
0.281246
  1
2.00
  7
STR
  0
LINE
  8
CDIM
 10
15.5625
 20
7.59375
 30
0.0
 11
15.5625
 21
7.035728
 31
0.0
  0
ENDBLK
  8
0
  0
BLOCK
  8
HEX
  2
100CROSS
 70
    64
 10
7.25
 20
11.46875
 30
0.0
  0
INSERT
  8
0
  2
050CROSS
 10
7.25
 20
11.46875
 30
0.0
 43
0.0
  0
ENDBLK
  8
0
  0
BLOCK
  8
0
  2
050CROSS
 70
    64
 10
6.625
 20
11.875
 30
0.0
  0
LINE
  8
0
 10
6.625
 20
12.15625
 30
0.0
 11
6.625
 21
12.65625
 31
0.0
  0
LINE
  8
0
 10
6.625
 20
11.75
 30
0.0
 11
6.625
 21
12.0
 31
0.0
  0
LINE
  8
0
 10
6.625
 20
11.03125
 30
0.0
 11
6.625
 21
11.59375
 31
0.0
  0
LINE
  8
0
 10
6.875
 20
11.875
 30
0.0
 11
7.4375
 21
11.875
 31
0.0
  0
LINE
  8
0
 10
6.53125
 20
11.875
 30
0.0
 11
6.71875
 21
11.875
 31
0.0
  0
LINE
  8
0
 10
5.8125
 20
11.875
 30
0.0
 11
6.375
 21
11.875
 31
0.0
  0
ENDBLK
  8
0
  0
BLOCK
  8
HEX
  2
CIRCLE
 70
    64
 10
31.5
 20
22.5
 30
0.0
  0
CIRCLE
  8
0
 10
31.5
 20
22.5
 30
0.0
 40
0.5
  0
ENDBLK
  8
0
  0
BLOCK
  8
0
  2
BOX
 70
    64
 10
0.0
 20
0.0
 30
0.0
  0
LINE
  8
0
 10
0.0
 20
1.0
 30
0.0
 11
1.0
 21
1.0
 31
0.0
  0
LINE
  8
0
 10
1.0
 20
1.0
 30
0.0
 11
1.0
 21
0.0
 31
0.0
  0
LINE
  8
0
 10
1.0
 20
0.0
 30
0.0
 11
0.0
 21
0.0
 31
0.0
  0
LINE
  8
0
 10
0.0
 20
0.0
 30
0.0
 11
0.0
 21
1.0
 31
0.0
  0
ENDBLK
  8
0
  0
BLOCK
  8
0
  2
106SAET
 70
    64
 10
6.625
 20
14.28125
 30
0.0
  0
CIRCLE
  8
CSOLID
 10
6.625
 20
14.28125
 30
0.0
 40
0.492
  0
CIRCLE
  8
CSOLID
 10
6.625
 20
14.28125
 30
0.0
 40
0.453
  0
CIRCLE
  8
CSOLID
 10
6.625
 20
14.28125
 30
0.0
 40
0.8125
  0
INSERT
  8
CCENTER
  2
100CROSS
 10
6.625
 20
14.28125
 30
0.0
 41
1.33
 42
1.33
 43
0.0
  0
CIRCLE
  8
CHIDDEN
 10
6.625
 20
14.28125
 30
0.0
 40
0.53125
  0
ENDBLK
  8
0
  0
ENDSEC
  0
SECTION
  2
ENTITIES
  0
INSERT
  8
DAMAN
  2
100CROSS
 10
13.6875
 20
9.84375
 30
0.0
 41
0.406
 42
0.406
 43
0.0
  0
CIRCLE
  8
DAMAN
 10
13.6875
 20
9.84375
 30
0.0
 40
0.203
  0
CIRCLE
  8
DAMAN
 10
13.6875
 20
13.84375
 30
0.0
 40
0.203
  0
INSERT
  8
DAMAN
  2
100CROSS
 10
13.6875
 20
13.84375
 30
0.0
 41
0.406
 42
0.406
 43
0.0
  0
INSERT
  8
DAMAN
  2
CIRCLE
 10
6.9375
 20
10.828125
 30
0.0
 41
0.21
 42
0.25
 43
0.0
  0
INSERT
  8
DAMAN
  2
100CROSS
 10
6.1875
 20
9.84375
 30
0.0
 41
0.625
 42
0.625
 43
0.0
  0
CIRCLE
  8
DAMAN
 10
6.1875
 20
9.84375
 30
0.0
 40
0.203
  0
CIRCLE
  8
DAMAN
 10
6.1875
 20
9.84375
 30
0.0
 40
0.3125
  0
CIRCLE
  8
DAMAN
 10
6.1875
 20
13.84375
 30
0.0
 40
0.3125
  0
CIRCLE
  8
DAMAN
 10
6.1875
 20
13.84375
 30
0.0
 40
0.203
  0
INSERT
  8
DAMAN
  2
100CROSS
 10
6.1875
 20
13.84375
 30
0.0
 41
0.625
 42
0.625
 43
0.0
  0
INSERT
  8
DAMAN
  2
100CROSS
 10
4.8125
 20
13.84375
 30
0.0
 41
0.375
 42
0.375
 43
0.0
  0
CIRCLE
  8
DAMAN
 10
4.8125
 20
13.84375
 30
0.0
 40
0.15625
  0
ARC
  8
DAMAN
 10
4.8125
 20
13.84375
 30
0.0
 40
0.1875
 50
0.0
 51
270.0
  0
ARC
  8
DAMAN
 10
4.8125
 20
9.84375
 30
0.0
 40
0.1875
 50
0.0
 51
270.0
  0
CIRCLE
  8
DAMAN
 10
4.8125
 20
9.84375
 30
0.0
 40
0.15625
  0
INSERT
  8
DAMAN
  2
100CROSS
 10
4.8125
 20
9.84375
 30
0.0
 41
0.375
 42
0.375
 43
0.0
  0
ARC
  8
DAMAN
 10
7.5625
 20
13.84375
 30
0.0
 40
0.1875
 50
0.0
 51
270.0
  0
CIRCLE
  8
DAMAN
 10
7.5625
 20
13.84375
 30
0.0
 40
0.15625
  0
INSERT
  8
DAMAN
  2
100CROSS
 10
7.5625
 20
13.84375
 30
0.0
 41
0.375
 42
0.375
 43
0.0
  0
ARC
  8
DAMAN
 10
7.5625
 20
9.84375
 30
0.0
 40
0.1875
 50
0.0
 51
270.0
  0
CIRCLE
  8
DAMAN
 10
7.5625
 20
9.84375
 30
0.0
 40
0.15625
  0
INSERT
  8
DAMAN
  2
100CROSS
 10
7.5625
 20
9.84375
 30
0.0
 41
0.375
 42
0.375
 43
0.0
  0
INSERT
  8
DAMAN
  2
100CROSS
 10
4.7505
 20
11.87475
 30
0.0
 41
0.25
 42
0.25
 43
0.0
  0
CIRCLE
  8
DAMAN
 10
4.7505
 20
11.87475
 30
0.0
 40
0.1055
  0
ARC
  8
DAMAN
 10
4.7505
 20
11.87475
 30
0.0
 40
0.125
 50
0.0
 51
270.0
  0
ARC
  8
DAMAN
 10
7.6255
 20
12.49975
 30
0.0
 40
0.125
 50
0.0
 51
270.0
  0
CIRCLE
  8
DAMAN
 10
7.6255
 20
12.49975
 30
0.0
 40
0.1055
  0
INSERT
  8
DAMAN
  2
100CROSS
 10
7.6255
 20
12.49975
 30
0.0
 41
0.25
 42
0.25
 43
0.0
  0
INSERT
  8
DAMAN
  2
100CROSS
 10
5.3745
 20
12.49975
 30
0.0
 41
0.688
 42
0.688
 43
0.0
  0
CIRCLE
  8
DAMAN
 10
5.3745
 20
12.49975
 30
0.0
 40
0.344
  0
CIRCLE
  8
DAMAN
 10
5.3745
 20
11.24975
 30
0.0
 40
0.344
  0
INSERT
  8
DAMAN
  2
100CROSS
 10
5.3745
 20
11.24975
 30
0.0
 41
0.688
 42
0.688
 43
0.0
  0
INSERT
  8
DAMAN
  2
100CROSS
 10
6.9995
 20
11.87475
 30
0.0
 41
0.688
 42
0.688
 43
0.0
  0
CIRCLE
  8
DAMAN
 10
6.9995
 20
11.87475
 30
0.0
 40
0.344
  0
CIRCLE
  8
DAMAN
 10
6.9995
 20
13.12475
 30
0.0
 40
0.344
  0
INSERT
  8
DAMAN
  2
100CROSS
 10
6.9995
 20
13.12475
 30
0.0
 41
0.688
 42
0.688
 43
0.0
  0
INSERT
  8
DAMAN
  2
100CROSS
 10
4.8125
 20
13.125
 30
0.0
 41
0.171
 42
0.171
 43
0.0
  0
CIRCLE
  8
DAMAN
 10
4.8125
 20
13.125
 30
0.0
 40
0.0855
  0
CIRCLE
  8
DAMAN
 10
7.5625
 20
10.828
 30
0.0
 40
0.0855
  0
INSERT
  8
DAMAN
  2
100CROSS
 10
7.5625
 20
10.828
 30
0.0
 41
0.171
 42
0.171
 43
0.0
  0
INSERT
  8
DAMAN
  2
100CROSS
 10
5.3125
 20
10.37575
 30
0.0
 41
0.25
 42
0.25
 43
0.0
  0
CIRCLE
  8
DAMAN
 10
5.3125
 20
10.37575
 30
0.0
 40
0.125
  0
INSERT
  8
DAMAN
  2
100CROSS
 10
6.9375
 20
10.82875
 30
0.0
 41
0.25
 42
0.25
 43
0.0
  0
INSERT
  8
DAMAN
  2
BOX
 10
11.6875
 20
9.46875
 30
0.0
 41
4.0
 42
4.75
 43
0.0
  0
INSERT
  8
DAMAN
  2
BOX
 10
9.1875
 20
9.46875
 30
0.0
 41
1.5
 42
4.75
 43
0.0
  0
INSERT
  8
DAMAN
  2
BOX
 10
4.1875
 20
9.46875
 30
0.0
 41
4.0
 42
4.75
 43
0.0
  0
CIRCLE
  8
DAMAN
 10
12.75
 20
11.40625
 30
0.0
 40
0.492
  0
CIRCLE
  8
DAMAN
 10
12.75
 20
11.40625
 30
0.0
 40
0.453
  0
ARC
  8
DAMAN
 10
12.75
 20
11.40625
 30
0.0
 40
0.8125
 50
289.38323
 51
250.61677
  0
INSERT
  8
DAMAN
  2
100CROSS
 10
12.75
 20
11.40625
 30
0.0
 41
1.33
 42
1.33
 43
0.0
  0
CIRCLE
  8
DAMAN
 10
12.75
 20
11.40625
 30
0.0
 40
0.53125
  0
INSERT
  8
DAMAN
  2
100CROSS
 10
12.75
 20
10.21875
 30
0.0
 43
0.0
  0
CIRCLE
  8
DAMAN
 10
12.75
 20
10.21875
 30
0.0
 40
0.28125
  0
ARC
  8
DAMAN
 10
12.75
 20
10.21875
 30
0.0
 40
0.5
 50
122.636898
 51
57.363102
  0
CIRCLE
  8
DAMAN
 10
12.75
 20
10.21875
 30
0.0
 40
0.25
  0
CIRCLE
  8
DAMAN
 10
14.562543
 20
10.125
 30
0.0
 40
0.28125
  0
ARC
  8
DAMAN
 10
14.562543
 20
10.125
 30
0.0
 40
0.5
 50
122.636898
 51
57.363102
  0
CIRCLE
  8
DAMAN
 10
14.562543
 20
10.125
 30
0.0
 40
0.25
  0
CIRCLE
  8
DAMAN
 10
14.562543
 20
11.3125
 30
0.0
 40
0.492
  0
CIRCLE
  8
DAMAN
 10
14.562543
 20
11.3125
 30
0.0
 40
0.453
  0
ARC
  8
DAMAN
 10
14.562543
 20
11.3125
 30
0.0
 40
0.8125
 50
289.38323
 51
250.61677
  0
INSERT
  8
DAMAN
  2
100CROSS
 10
14.562543
 20
11.3125
 30
0.0
 41
1.33
 42
1.33
 43
0.0
  0
CIRCLE
  8
DAMAN
 10
14.562543
 20
11.3125
 30
0.0
 40
0.53125
  0
TEXT
  8
DAMAN
 10
13.40625
 20
12.3125
 30
0.0
 40
0.25
  1
T
  7
STR
  0
TEXT
  8
DAMAN
 10
13.78125
 20
12.1875
 30
0.0
 40
0.25
  1
A
  7
STR
  0
TEXT
  8
DAMAN
 10
13.46875
 20
11.875
 30
0.0
 40
0.25
  1
P
  7
STR
  0
TEXT
  8
DAMAN
 10
13.78125
 20
11.84375
 30
0.0
 40
0.25
  1
B
  7
STR
  0
TEXT
  8
DAMAN
 10
13.3125
 20
10.34375
 30
0.0
 40
0.25
  1
X
  7
STR
  0
TEXT
  8
DAMAN
 10
13.875
 20
10.28125
 30
0.0
 40
0.25
  1
Y
  7
STR
  0
CIRCLE
  8
DAMAN
 10
14.562543
 20
12.96875
 30
0.0
 40
0.492
  0
CIRCLE
  8
DAMAN
 10
14.562543
 20
12.96875
 30
0.0
 40
0.453
  0
CIRCLE
  8
DAMAN
 10
14.562543
 20
12.96875
 30
0.0
 40
0.8125
  0
INSERT
  8
DAMAN
  2
100CROSS
 10
14.562543
 20
12.96875
 30
0.0
 41
1.33
 42
1.33
 43
0.0
  0
CIRCLE
  8
DAMAN
 10
14.562543
 20
12.96875
 30
0.0
 40
0.53125
  0
CIRCLE
  8
DAMAN
 10
12.75
 20
13.125
 30
0.0
 40
0.492
  0
CIRCLE
  8
DAMAN
 10
12.75
 20
13.125
 30
0.0
 40
0.453
  0
CIRCLE
  8
DAMAN
 10
12.75
 20
13.125
 30
0.0
 40
0.8125
  0
INSERT
  8
DAMAN
  2
100CROSS
 10
12.75
 20
13.125
 30
0.0
 41
1.33
 42
1.33
 43
0.0
  0
CIRCLE
  8
DAMAN
 10
12.75
 20
13.125
 30
0.0
 40
0.53125
  0
LINE
  8
DAMAN
 10
4.15625
 20
6.0
 30
0.0
 11
8.15625
 21
6.0
 31
0.0
  0
LINE
  8
DAMAN
 10
8.15625
 20
6.0
 30
0.0
 11
8.15625
 21
7.5
 31
0.0
  0
LINE
  8
DAMAN
 10
8.15625
 20
7.5
 30
0.0
 11
4.15625
 21
7.5
 31
0.0
  0
LINE
  8
DAMAN
 10
4.15625
 20
7.5
 30
0.0
 11
4.15625
 21
6.0
 31
0.0
  0
TEXT
  8
DAMAN
 10
4.9375
 20
6.96875
 30
0.0
 40
0.188
  1
DAMAN ****
  0
ENDSEC
  0
EOF
