  0
SECTION
  2
HEADER
  9
$ACADVER
  1
AC1014
  9
$ACADMAINTVER
 70
     9
  9
$DWGCODEPAGE
  3
ANSI_1252
  9
$INSBASE
 10
0.0
 20
0.0
 30
0.0
  9
$EXTMIN
 10
1.819231730665903
 20
1.509463865388261
 30
0.0
  9
$EXTMAX
 10
53.00173173066589
 20
22.07196386538825
 30
0.0
  9
$LIMMIN
 10
0.0
 20
0.0
  9
$LIMMAX
 10
28.0
 20
28.0
  9
$ORTHOMODE
 70
     0
  9
$REGENMODE
 70
     1
  9
$FILLMODE
 70
     1
  9
$QTEXTMODE
 70
     0
  9
$MIRRTEXT
 70
     1
  9
$DRAGMODE
 70
     2
  9
$LTSCALE
 40
1.0
  9
$OSMODE
 70
    37
  9
$ATTMODE
 70
     1
  9
$TEXTSIZE
 40
0.2
  9
$TRACEWID
 40
0.05
  9
$TEXTSTYLE
  7
STANDARD
  9
$CLAYER
  8
DAMAN
  9
$CELTYPE
  6
BYLAYER
  9
$CECOLOR
 62
   256
  9
$CELTSCALE
 40
1.0
  9
$DELOBJ
 70
     1
  9
$DISPSILH
 70
     0
  9
$DIMSCALE
 40
1.0
  9
$DIMASZ
 40
0.18
  9
$DIMEXO
 40
0.0625
  9
$DIMDLI
 40
0.38
  9
$DIMRND
 40
0.0
  9
$DIMDLE
 40
0.0
  9
$DIMEXE
 40
0.18
  9
$DIMTP
 40
0.0
  9
$DIMTM
 40
0.0
  9
$DIMTXT
 40
0.18
  9
$DIMCEN
 40
0.09
  9
$DIMTSZ
 40
0.0
  9
$DIMTOL
 70
     0
  9
$DIMLIM
 70
     0
  9
$DIMTIH
 70
     1
  9
$DIMTOH
 70
     1
  9
$DIMSE1
 70
     0
  9
$DIMSE2
 70
     0
  9
$DIMTAD
 70
     0
  9
$DIMZIN
 70
     0
  9
$DIMBLK
  1

  9
$DIMASO
 70
     1
  9
$DIMSHO
 70
     1
  9
$DIMPOST
  1

  9
$DIMAPOST
  1

  9
$DIMALT
 70
     0
  9
$DIMALTD
 70
     2
  9
$DIMALTF
 40
25.4
  9
$DIMLFAC
 40
1.0
  9
$DIMTOFL
 70
     0
  9
$DIMTVP
 40
0.0
  9
$DIMTIX
 70
     0
  9
$DIMSOXD
 70
     0
  9
$DIMSAH
 70
     0
  9
$DIMBLK1
  1

  9
$DIMBLK2
  1

  9
$DIMSTYLE
  2
DAMAN
  9
$DIMCLRD
 70
     0
  9
$DIMCLRE
 70
     0
  9
$DIMCLRT
 70
     0
  9
$DIMTFAC
 40
1.0
  9
$DIMGAP
 40
0.09
  9
$DIMJUST
 70
     0
  9
$DIMSD1
 70
     0
  9
$DIMSD2
 70
     0
  9
$DIMTOLJ
 70
     1
  9
$DIMTZIN
 70
     0
  9
$DIMALTZ
 70
     0
  9
$DIMALTTZ
 70
     0
  9
$DIMFIT
 70
     3
  9
$DIMUPT
 70
     0
  9
$DIMUNIT
 70
     2
  9
$DIMDEC
 70
     4
  9
$DIMTDEC
 70
     4
  9
$DIMALTU
 70
     2
  9
$DIMALTTD
 70
     2
  9
$DIMTXSTY
  7
STANDARD
  9
$DIMAUNIT
 70
     0
  9
$LUNITS
 70
     2
  9
$LUPREC
 70
     4
  9
$SKETCHINC
 40
0.1
  9
$FILLETRAD
 40
0.0
  9
$AUNITS
 70
     0
  9
$AUPREC
 70
     0
  9
$MENU
  1
tom
  9
$ELEVATION
 40
0.0
  9
$PELEVATION
 40
0.0
  9
$THICKNESS
 40
0.0
  9
$LIMCHECK
 70
     0
  9
$BLIPMODE
 70
     0
  9
$CHAMFERA
 40
0.0
  9
$CHAMFERB
 40
0.0
  9
$CHAMFERC
 40
0.0
  9
$CHAMFERD
 40
0.0
  9
$SKPOLY
 70
     0
  9
$TDCREATE
 40
2450463.669101053
  9
$TDUPDATE
 40
2453447.625169444
  9
$TDINDWG
 40
0.0028011227
  9
$TDUSRTIMER
 40
0.0028009375
  9
$USRTIMER
 70
     1
  9
$ANGBASE
 50
0.0
  9
$ANGDIR
 70
     0
  9
$PDMODE
 70
     0
  9
$PDSIZE
 40
0.0
  9
$PLINEWID
 40
0.0
  9
$COORDS
 70
     1
  9
$SPLFRAME
 70
     0
  9
$SPLINETYPE
 70
     6
  9
$SPLINESEGS
 70
     8
  9
$ATTDIA
 70
     0
  9
$ATTREQ
 70
     1
  9
$HANDLING
 70
-16383
  9
$HANDSEED
  5
B2E
  9
$SURFTAB1
 70
     6
  9
$SURFTAB2
 70
     6
  9
$SURFTYPE
 70
     6
  9
$SURFU
 70
     6
  9
$SURFV
 70
     6
  9
$UCSNAME
  2

  9
$UCSORG
 10
0.0
 20
0.0
 30
0.0
  9
$UCSXDIR
 10
1.0
 20
0.0
 30
0.0
  9
$UCSYDIR
 10
0.0
 20
1.0
 30
0.0
  9
$PUCSNAME
  2

  9
$PUCSORG
 10
0.0
 20
0.0
 30
0.0
  9
$PUCSXDIR
 10
1.0
 20
0.0
 30
0.0
  9
$PUCSYDIR
 10
0.0
 20
1.0
 30
0.0
  9
$USERI1
 70
     0
  9
$USERI2
 70
     0
  9
$USERI3
 70
     0
  9
$USERI4
 70
     0
  9
$USERI5
 70
     0
  9
$USERR1
 40
0.0
  9
$USERR2
 40
0.0
  9
$USERR3
 40
0.0
  9
$USERR4
 40
0.0
  9
$USERR5
 40
0.0
  9
$WORLDVIEW
 70
     1
  9
$SHADEDGE
 70
     3
  9
$SHADEDIF
 70
    70
  9
$TILEMODE
 70
     1
  9
$MAXACTVP
 70
    16
  9
$PINSBASE
 10
0.0
 20
0.0
 30
0.0
  9
$PLIMCHECK
 70
     0
  9
$PEXTMIN
 10
1.000000000000000E+20
 20
1.000000000000000E+20
 30
1.000000000000000E+20
  9
$PEXTMAX
 10
-1.000000000000000E+20
 20
-1.000000000000000E+20
 30
-1.000000000000000E+20
  9
$PLIMMIN
 10
0.0
 20
0.0
  9
$PLIMMAX
 10
12.0
 20
9.0
  9
$UNITMODE
 70
     0
  9
$VISRETAIN
 70
     0
  9
$PLINEGEN
 70
     0
  9
$PSLTSCALE
 70
     1
  9
$TREEDEPTH
 70
  3020
  9
$PICKSTYLE
 70
     1
  9
$CMLSTYLE
  2
STANDARD
  9
$CMLJUST
 70
     0
  9
$CMLSCALE
 40
1.0
  9
$PROXYGRAPHICS
 70
     1
  9
$MEASUREMENT
 70
     0
  0
ENDSEC
  0
SECTION
  2
CLASSES
  0
CLASS
  1
ACDBDICTIONARYWDFLT
  2
AcDbDictionaryWithDefault
  3
AutoCAD 2000
 90
        0
280
     0
281
     0
  0
CLASS
  1
ACDBPLACEHOLDER
  2
AcDbPlaceHolder
  3
AutoCAD 2000
 90
        0
280
     0
281
     0
  0
CLASS
  1
LAYOUT
  2
AcDbLayout
  3
AutoCAD 2000
 90
        0
280
     0
281
     0
  0
CLASS
  1
LONG_TRANSACTION
  2
AcDbLongTransaction
  3
AutoCAD 2000
 90
        0
280
     0
281
     0
  0
CLASS
  1
LWPOLYLINE
  2
AcDbPolyline
  3
AutoCAD 2000
 90
        0
280
     0
281
     1
  0
CLASS
  1
HATCH
  2
AcDbHatch
  3
AutoCAD 2000
 90
        0
280
     0
281
     1
  0
CLASS
  1
XRECORD
  2
AcDbXrecord
  3
AutoCAD 2000
 90
        0
280
     0
281
     0
  0
CLASS
  1
LONG_TRANSACTION
  2
AcDbLongTransaction
  3
AutoCAD 2000
 90
        0
280
     0
281
     0
  0
CLASS
  1
LWPOLYLINE
  2
AcDbPolyline
  3
AutoCAD 2000
 90
        0
280
     0
281
     1
  0
CLASS
  1
HATCH
  2
AcDbHatch
  3
AutoCAD 2000
 90
        0
280
     0
281
     1
  0
CLASS
  1
XRECORD
  2
AcDbXrecord
  3
AutoCAD 2000
 90
        0
280
     0
281
     0
  0
CLASS
  1
LONG_TRANSACTION
  2
AcDbLongTransaction
  3
AutoCAD 2000
 90
        0
280
     0
281
     0
  0
CLASS
  1
LWPOLYLINE
  2
AcDbPolyline
  3
AutoCAD 2000
 90
        0
280
     0
281
     1
  0
CLASS
  1
HATCH
  2
AcDbHatch
  3
AutoCAD 2000
 90
        0
280
     0
281
     1
  0
CLASS
  1
XRECORD
  2
AcDbXrecord
  3
AutoCAD 2000
 90
        0
280
     0
281
     0
  0
CLASS
  1
LONG_TRANSACTION
  2
AcDbLongTransaction
  3
AutoCAD 2000
 90
        0
280
     0
281
     0
  0
CLASS
  1
LWPOLYLINE
  2
AcDbPolyline
  3
AutoCAD 2000
 90
        0
280
     0
281
     1
  0
CLASS
  1
HATCH
  2
AcDbHatch
  3
AutoCAD 2000
 90
        0
280
     0
281
     1
  0
CLASS
  1
XRECORD
  2
AcDbXrecord
  3
AutoCAD 2000
 90
        0
280
     0
281
     0
  0
ENDSEC
  0
SECTION
  2
TABLES
  0
TABLE
  2
VPORT
  5
654
330
0
100
AcDbSymbolTable
 70
     2
  0
VPORT
  5
B0B
330
654
100
AcDbSymbolTableRecord
100
AcDbViewportTableRecord
  2
*ACTIVE
 70
     0
 10
0.0
 20
0.0
 11
1.0
 21
1.0
 12
27.41034070640428
 22
11.7911377579336
 13
0.0
 23
0.0
 14
1.0
 24
1.0
 15
0.0
 25
0.0
 16
0.0
 26
0.0
 36
1.0
 17
0.0
 27
0.0
 37
0.0
 40
31.26289156044101
 41
1.647569444444444
 42
50.0
 43
0.0
 44
0.0
 50
0.0
 51
0.0
 71
     0
 72
   100
 73
     1
 74
     1
 75
     0
 76
     0
 77
     0
 78
     0
  0
ENDTAB
  0
TABLE
  2
LTYPE
  5
651
330
0
100
AcDbSymbolTable
 70
     2
  0
LTYPE
  5
65F
330
651
100
AcDbSymbolTableRecord
100
AcDbLinetypeTableRecord
  2
BYBLOCK
 70
     0
  3

 72
    65
 73
     0
 40
0.0
  0
LTYPE
  5
660
330
651
100
AcDbSymbolTableRecord
100
AcDbLinetypeTableRecord
  2
BYLAYER
 70
     0
  3

 72
    65
 73
     0
 40
0.0
  0
LTYPE
  5
661
330
651
100
AcDbSymbolTableRecord
100
AcDbLinetypeTableRecord
  2
CONTINUOUS
 70
     0
  3
Solid line
 72
    65
 73
     0
 40
0.0
  0
LTYPE
  5
670
330
651
100
AcDbSymbolTableRecord
100
AcDbLinetypeTableRecord
  2
HIDDEN
 70
     0
  3
_ _ _ _ _ _ _ _ _ _ _ _ _ _ _ _ _ _ _ _ _ _ _
 72
    65
 73
     2
 40
0.375
 49
0.25
 74
     0
 49
-0.125
 74
     0
  0
ENDTAB
  0
TABLE
  2
LAYER
  5
64E
330
0
100
AcDbSymbolTable
 70
     8
  0
LAYER
  5
65C
330
64E
100
AcDbSymbolTableRecord
100
AcDbLayerTableRecord
  2
0
 70
     0
 62
     7
  6
CONTINUOUS
  0
LAYER
  5
66E
330
64E
100
AcDbSymbolTableRecord
100
AcDbLayerTableRecord
  2
DAMAN
 70
     0
 62
     5
  6
CONTINUOUS
  0
LAYER
  5
671
330
64E
100
AcDbSymbolTableRecord
100
AcDbLayerTableRecord
  2
ISO
 70
     1
 62
     5
  6
CONTINUOUS
  0
LAYER
  5
672
330
64E
100
AcDbSymbolTableRecord
100
AcDbLayerTableRecord
  2
PIPE
 70
     1
 62
     5
  6
CONTINUOUS
  0
LAYER
  5
673
330
64E
100
AcDbSymbolTableRecord
100
AcDbLayerTableRecord
  2
SAE
 70
     0
 62
     5
  6
CONTINUOUS
  0
LAYER
  5
674
330
64E
100
AcDbSymbolTableRecord
100
AcDbLayerTableRecord
  2
BSPP
 70
     1
 62
     5
  6
CONTINUOUS
  0
LAYER
  5
675
330
64E
100
AcDbSymbolTableRecord
100
AcDbLayerTableRecord
  2
CHIDDEN
 70
     0
 62
     3
  6
HIDDEN
  0
LAYER
  5
B04
330
64E
100
AcDbSymbolTableRecord
100
AcDbLayerTableRecord
  2
ASAE
 70
     0
 62
     5
  6
CONTINUOUS
  0
ENDTAB
  0
TABLE
  2
STYLE
  5
64F
330
0
100
AcDbSymbolTable
 70
     1
  0
STYLE
  5
65D
330
64F
100
AcDbSymbolTableRecord
100
AcDbTextStyleTableRecord
  2
STANDARD
 70
     0
 40
0.0
 41
1.0
 50
0.0
 71
     0
 42
0.2
  3
txt
  4

  0
ENDTAB
  0
TABLE
  2
VIEW
  5
652
330
0
100
AcDbSymbolTable
 70
     0
  0
ENDTAB
  0
TABLE
  2
UCS
  5
653
330
0
100
AcDbSymbolTable
 70
     0
  0
ENDTAB
  0
TABLE
  2
APPID
  5
655
330
0
100
AcDbSymbolTable
 70
     1
  0
APPID
  5
65E
330
655
100
AcDbSymbolTableRecord
100
AcDbRegAppTableRecord
  2
ACAD
 70
     0
  0
ENDTAB
  0
TABLE
  2
DIMSTYLE
  5
656
330
0
100
AcDbSymbolTable
 70
     1
  0
DIMSTYLE
105
676
330
656
100
AcDbSymbolTableRecord
100
AcDbDimStyleTableRecord
  2
DAMAN
 70
     0
  3

  4

  5

  6

  7

 40
1.0
 41
0.08
 42
0.04
 43
0.18
 44
0.06
 45
0.0
 46
0.0
 47
0.0
 48
0.0
140
0.06
141
0.09
142
0.0
143
25.4
144
1.0
145
0.0
146
1.0
147
0.03
 71
     0
 72
     0
 73
     0
 74
     0
 75
     0
 76
     0
 77
     0
 78
     0
170
     1
171
     1
172
     0
173
     0
174
     0
175
     0
176
     5
177
     5
178
     5
270
     2
271
     4
272
     4
273
     2
274
     2
340
65D
275
     0
280
     0
281
     0
282
     0
283
     1
284
     0
285
     0
286
     0
287
     3
288
     0
  0
ENDTAB
  0
TABLE
  2
BLOCK_RECORD
  5
64D
330
0
100
AcDbSymbolTable
 70
    25
  0
BLOCK_RECORD
  5
66A
102
{ACAD_XDICTIONARY
360
8D8
102
}
330
64D
100
AcDbSymbolTableRecord
100
AcDbBlockTableRecord
  2
*MODEL_SPACE
  0
BLOCK_RECORD
  5
666
102
{ACAD_XDICTIONARY
360
8D6
102
}
330
64D
100
AcDbSymbolTableRecord
100
AcDbBlockTableRecord
  2
*PAPER_SPACE
  0
BLOCK_RECORD
  5
678
330
64D
100
AcDbSymbolTableRecord
100
AcDbBlockTableRecord
  2
$MODEL_SPACE
  0
BLOCK_RECORD
  5
67B
330
64D
100
AcDbSymbolTableRecord
100
AcDbBlockTableRecord
  2
$PAPER_SPACE
  0
BLOCK_RECORD
  5
67E
330
64D
100
AcDbSymbolTableRecord
100
AcDbBlockTableRecord
  2
100CROSS
  0
BLOCK_RECORD
  5
680
330
64D
100
AcDbSymbolTableRecord
100
AcDbBlockTableRecord
  2
050CROSS
  0
BLOCK_RECORD
  5
68B
330
64D
100
AcDbSymbolTableRecord
100
AcDbBlockTableRecord
  2
100NPTFT
  0
BLOCK_RECORD
  5
692
330
64D
100
AcDbSymbolTableRecord
100
AcDbBlockTableRecord
  2
025NPTFT
  0
BLOCK_RECORD
  5
694
330
64D
100
AcDbSymbolTableRecord
100
AcDbBlockTableRecord
  2
250NPTFT
  0
BLOCK_RECORD
  5
6A0
330
64D
100
AcDbSymbolTableRecord
100
AcDbBlockTableRecord
  2
16SAET
  0
BLOCK_RECORD
  5
6A8
330
64D
100
AcDbSymbolTableRecord
100
AcDbBlockTableRecord
  2
06SAET
  0
BLOCK_RECORD
  5
6AF
330
64D
100
AcDbSymbolTableRecord
100
AcDbBlockTableRecord
  2
100BSPPT
  0
BLOCK_RECORD
  5
6B7
330
64D
100
AcDbSymbolTableRecord
100
AcDbBlockTableRecord
  2
M33T
  0
BLOCK_RECORD
  5
6C0
330
64D
100
AcDbSymbolTableRecord
100
AcDbBlockTableRecord
  2
M14T
  0
BLOCK_RECORD
  5
6C9
330
64D
100
AcDbSymbolTableRecord
100
AcDbBlockTableRecord
  2
D07
  0
BLOCK_RECORD
  5
6F1
330
64D
100
AcDbSymbolTableRecord
100
AcDbBlockTableRecord
  2
600MKT
  0
BLOCK_RECORD
  5
737
330
64D
100
AcDbSymbolTableRecord
100
AcDbBlockTableRecord
  2
08SAET
  0
BLOCK_RECORD
  5
73F
330
64D
100
AcDbSymbolTableRecord
100
AcDbBlockTableRecord
  2
600MKST
  0
BLOCK_RECORD
  5
76C
330
64D
100
AcDbSymbolTableRecord
100
AcDbBlockTableRecord
  2
125NPTFT
  0
BLOCK_RECORD
  5
773
330
64D
100
AcDbSymbolTableRecord
100
AcDbBlockTableRecord
  2
050NPTFT
  0
BLOCK_RECORD
  5
775
330
64D
100
AcDbSymbolTableRecord
100
AcDbBlockTableRecord
  2
500NPTFT
  0
BLOCK_RECORD
  5
77E
330
64D
100
AcDbSymbolTableRecord
100
AcDbBlockTableRecord
  2
20SAET
  0
BLOCK_RECORD
  5
785
330
64D
100
AcDbSymbolTableRecord
100
AcDbBlockTableRecord
  2
125BSPPT
  0
BLOCK_RECORD
  5
78D
330
64D
100
AcDbSymbolTableRecord
100
AcDbBlockTableRecord
  2
0500BSPPT
  0
BLOCK_RECORD
  5
795
330
64D
100
AcDbSymbolTableRecord
100
AcDbBlockTableRecord
  2
M42T
  0
BLOCK_RECORD
  5
79F
330
64D
100
AcDbSymbolTableRecord
100
AcDbBlockTableRecord
  2
T16AT
  0
BLOCK_RECORD
  5
B05
330
64D
100
AcDbSymbolTableRecord
100
AcDbBlockTableRecord
  2
A$C199977B4
  0
ENDTAB
  0
ENDSEC
  0
SECTION
  2
BLOCKS
  0
BLOCK
  5
66B
330
66A
100
AcDbEntity
  8
0
100
AcDbBlockBegin
  2
*MODEL_SPACE
 70
     0
 10
0.0
 20
0.0
 30
0.0
  3
*MODEL_SPACE
  1

  0
ENDBLK
  5
66C
330
66A
100
AcDbEntity
  8
0
100
AcDbBlockEnd
  0
BLOCK
  5
667
330
666
100
AcDbEntity
 67
     1
  8
0
100
AcDbBlockBegin
  2
*PAPER_SPACE
 70
     0
 10
0.0
 20
0.0
 30
0.0
  3
*PAPER_SPACE
  1

  0
ENDBLK
  5
668
330
666
100
AcDbEntity
 67
     1
  8
0
100
AcDbBlockEnd
  0
BLOCK
  5
679
330
678
100
AcDbEntity
  8
0
100
AcDbBlockBegin
  2
$MODEL_SPACE
 70
     0
 10
0.0
 20
0.0
 30
0.0
  3
$MODEL_SPACE
  1

  0
ENDBLK
  5
67A
330
678
100
AcDbEntity
  8
0
100
AcDbBlockEnd
  0
BLOCK
  5
67C
330
67B
100
AcDbEntity
  8
0
100
AcDbBlockBegin
  2
$PAPER_SPACE
 70
     0
 10
0.0
 20
0.0
 30
0.0
  3
$PAPER_SPACE
  1

  0
ENDBLK
  5
67D
330
67B
100
AcDbEntity
  8
0
100
AcDbBlockEnd
  0
BLOCK
  5
67F
330
67E
100
AcDbEntity
  8
0
100
AcDbBlockBegin
  2
100CROSS
 70
     0
 10
5.62500000000004
 20
4.593750000000039
 30
0.0
  3
100CROSS
  1

  0
INSERT
  5
681
330
67E
100
AcDbEntity
  8
0
100
AcDbBlockReference
  2
050CROSS
 10
5.62500000000004
 20
4.593750000000039
 30
0.0
  0
ENDBLK
  5
682
330
67E
100
AcDbEntity
  8
0
100
AcDbBlockEnd
  0
BLOCK
  5
683
330
680
100
AcDbEntity
  8
0
100
AcDbBlockBegin
  2
050CROSS
 70
     0
 10
5.000000000000039
 20
5.000000000000039
 30
0.0
  3
050CROSS
  1

  0
LINE
  5
684
330
680
100
AcDbEntity
  8
0
100
AcDbLine
 10
5.000000000000039
 20
5.281250000000039
 30
0.0
 11
5.000000000000079
 21
5.78125000000004
 31
0.0
  0
LINE
  5
685
330
680
100
AcDbEntity
  8
0
100
AcDbLine
 10
5.000000000000039
 20
4.875000000000039
 30
0.0
 11
5.000000000000079
 21
5.125000000000039
 31
0.0
  0
LINE
  5
686
330
680
100
AcDbEntity
  8
0
100
AcDbLine
 10
5.000000000000039
 20
4.156250000000039
 30
0.0
 11
5.000000000000079
 21
4.718750000000039
 31
0.0
  0
LINE
  5
687
330
680
100
AcDbEntity
  8
0
100
AcDbLine
 10
5.250000000000039
 20
5.000000000000039
 30
0.0
 11
5.81250000000004
 21
5.000000000000079
 31
0.0
  0
LINE
  5
688
330
680
100
AcDbEntity
  8
0
100
AcDbLine
 10
4.906250000000039
 20
5.000000000000039
 30
0.0
 11
5.093750000000039
 21
5.000000000000079
 31
0.0
  0
LINE
  5
689
330
680
100
AcDbEntity
  8
0
100
AcDbLine
 10
4.187500000000039
 20
5.000000000000039
 30
0.0
 11
4.750000000000039
 21
5.000000000000079
 31
0.0
  0
ENDBLK
  5
68A
330
680
100
AcDbEntity
  8
0
100
AcDbBlockEnd
  0
BLOCK
  5
68C
330
68B
100
AcDbEntity
  8
0
100
AcDbBlockBegin
  2
100NPTFT
 70
     0
 10
0.0
 20
0.0
 30
0.0
  3
100NPTFT
  1

  0
CIRCLE
  5
68D
330
68B
100
AcDbEntity
  8
DAMAN
100
AcDbCircle
 10
0.0
 20
0.0
 30
0.0
 40
0.5625
  0
CIRCLE
  5
68E
330
68B
100
AcDbEntity
  8
DAMAN
100
AcDbCircle
 10
0.0
 20
0.0
 30
0.0
 40
0.6720000000000002
  0
INSERT
  5
68F
330
68B
100
AcDbEntity
  8
DAMAN
100
AcDbBlockReference
  2
100CROSS
 10
0.0
 20
0.0
 30
0.0
 41
1.199999999999999
 42
1.199999999999999
  0
CIRCLE
  5
690
330
68B
100
AcDbEntity
  8
DAMAN
100
AcDbCircle
 10
-0.0000000000000409
 20
-0.00000000000004
 30
0.0
 40
0.625
  0
ENDBLK
  5
691
330
68B
100
AcDbEntity
  8
0
100
AcDbBlockEnd
  0
BLOCK
  5
693
330
692
100
AcDbEntity
  8
0
100
AcDbBlockBegin
  2
025NPTFT
 70
     0
 10
0.0
 20
0.0
 30
0.0
  3
025NPTFT
  1

  0
INSERT
  5
695
330
692
100
AcDbEntity
  8
DAMAN
100
AcDbBlockReference
  2
250NPTFT
 10
0.0
 20
0.0
 30
0.0
  0
ENDBLK
  5
696
330
692
100
AcDbEntity
  8
0
100
AcDbBlockEnd
  0
BLOCK
  5
697
330
694
100
AcDbEntity
  8
0
100
AcDbBlockBegin
  2
250NPTFT
 70
     0
 10
0.0
 20
0.0
 30
0.0
  3
250NPTFT
  1

  0
CIRCLE
  5
698
330
694
100
AcDbEntity
  8
DAMAN
100
AcDbCircle
 10
0.0
 20
0.0
 30
0.0
 40
0.273
  0
CIRCLE
  5
699
330
694
100
AcDbEntity
  8
DAMAN
100
AcDbCircle
 10
0.0
 20
0.0
 30
0.0
 40
0.211
  0
INSERT
  5
69A
330
694
100
AcDbEntity
  8
DAMAN
100
AcDbBlockReference
  2
100CROSS
 10
0.0
 20
0.0
 30
0.0
 41
0.4220000000000001
 42
0.4220000000000001
  0
CIRCLE
  5
69B
330
694
100
AcDbEntity
  8
DAMAN
100
AcDbCircle
 10
0.0000000000000071
 20
0.000000000000008
 30
0.0
 40
0.2422508395811249
  0
POINT
  5
69C
330
694
100
AcDbEntity
  8
CHIDDEN
100
AcDbPoint
 10
-0.0879283445109387
 20
0.1918061683876866
 30
0.0
  0
POINT
  5
69D
330
694
100
AcDbEntity
  8
CHIDDEN
100
AcDbPoint
 10
-0.137716646744698
 20
-0.1598597047707644
 30
0.0
  0
POINT
  5
69E
330
694
100
AcDbEntity
  8
CHIDDEN
100
AcDbPoint
 10
0.2027074607181341
 20
-0.0585720528000025
 30
0.0
  0
ENDBLK
  5
69F
330
694
100
AcDbEntity
  8
0
100
AcDbBlockEnd
  0
BLOCK
  5
6A1
330
6A0
100
AcDbEntity
  8
0
100
AcDbBlockBegin
  2
16SAET
 70
     0
 10
0.0
 20
0.0
 30
0.0
  3
16SAET
  1

  0
CIRCLE
  5
6A2
330
6A0
100
AcDbEntity
  8
DAMAN
100
AcDbCircle
 10
0.0
 20
0.0
 30
0.0
 40
0.6125
  0
CIRCLE
  5
6A3
330
6A0
100
AcDbEntity
  8
DAMAN
100
AcDbCircle
 10
0.0
 20
0.0
 30
0.0
 40
0.5620000000000001
  0
CIRCLE
  5
6A4
330
6A0
100
AcDbEntity
  8
DAMAN
100
AcDbCircle
 10
0.0
 20
0.0
 30
0.0
 40
1.0
  0
INSERT
  5
6A5
330
6A0
100
AcDbEntity
  8
DAMAN
100
AcDbBlockReference
  2
100CROSS
 10
0.0
 20
0.0
 30
0.0
 41
1.6
 42
1.6
  0
CIRCLE
  5
6A6
330
6A0
100
AcDbEntity
  8
DAMAN
100
AcDbCircle
 10
0.0
 20
0.0
 30
0.0
 40
0.65625
  0
ENDBLK
  5
6A7
330
6A0
100
AcDbEntity
  8
0
100
AcDbBlockEnd
  0
BLOCK
  5
6A9
330
6A8
100
AcDbEntity
  8
0
100
AcDbBlockBegin
  2
06SAET
 70
     0
 10
0.0
 20
0.0
 30
0.0
  3
06SAET
  1

  0
INSERT
  5
6AA
330
6A8
100
AcDbEntity
  8
DAMAN
100
AcDbBlockReference
  2
100CROSS
 10
0.0
 20
0.0
 30
0.0
  0
CIRCLE
  5
6AB
330
6A8
100
AcDbEntity
  8
DAMAN
100
AcDbCircle
 10
0.0
 20
0.0
 30
0.0
 40
0.28125
  0
CIRCLE
  5
6AC
330
6A8
100
AcDbEntity
  8
DAMAN
100
AcDbCircle
 10
0.0
 20
0.0
 30
0.0
 40
0.5
  0
CIRCLE
  5
6AD
330
6A8
100
AcDbEntity
  8
DAMAN
100
AcDbCircle
 10
0.0
 20
0.0
 30
0.0
 40
0.25
  0
ENDBLK
  5
6AE
330
6A8
100
AcDbEntity
  8
0
100
AcDbBlockEnd
  0
BLOCK
  5
6B0
330
6AF
100
AcDbEntity
  8
0
100
AcDbBlockBegin
  2
100BSPPT
 70
     0
 10
0.0
 20
0.0
 30
0.0
  3
100BSPPT
  1

  0
CIRCLE
  5
6B1
330
6AF
100
AcDbEntity
  8
DAMAN
  6
HIDDEN
100
AcDbCircle
 10
0.0
 20
0.0
 30
0.0
 40
0.6545
  0
CIRCLE
  5
6B2
330
6AF
100
AcDbEntity
  8
DAMAN
100
AcDbCircle
 10
0.0
 20
0.0
 30
0.0
 40
0.6125
  0
CIRCLE
  5
6B3
330
6AF
100
AcDbEntity
  8
DAMAN
100
AcDbCircle
 10
0.0
 20
0.0
 30
0.0
 40
0.915
  0
INSERT
  5
6B4
330
6AF
100
AcDbEntity
  8
DAMAN
100
AcDbBlockReference
  2
100CROSS
 10
0.0
 20
0.0
 30
0.0
 41
1.33
 42
1.33
  0
CIRCLE
  5
6B5
330
6AF
100
AcDbEntity
  8
DAMAN
100
AcDbCircle
 10
0.0000000000000266
 20
0.0000000000000266
 30
0.0
 40
0.6575
  0
ENDBLK
  5
6B6
330
6AF
100
AcDbEntity
  8
0
100
AcDbBlockEnd
  0
BLOCK
  5
6B8
330
6B7
100
AcDbEntity
  8
0
100
AcDbBlockBegin
  2
M33T
 70
     0
 10
0.0
 20
0.0
 30
0.0
  3
M33T
  1

  0
CIRCLE
  5
6B9
330
6B7
100
AcDbEntity
  8
DAMAN
100
AcDbCircle
 10
0.0
 20
0.0
 30
0.0
 40
0.6970000000000001
  0
CIRCLE
  5
6BA
330
6B7
100
AcDbEntity
  8
DAMAN
  6
HIDDEN
100
AcDbCircle
 10
0.0
 20
0.0
 30
0.0
 40
0.649606
  0
CIRCLE
  5
6BB
330
6B7
100
AcDbEntity
  8
DAMAN
100
AcDbCircle
 10
0.0
 20
0.0
 30
0.0
 40
0.9644999999999999
  0
INSERT
  5
6BC
330
6B7
100
AcDbEntity
  8
DAMAN
100
AcDbBlockReference
  2
100CROSS
 10
0.0
 20
0.0
 30
0.0
 41
1.33
 42
1.33
  0
CIRCLE
  5
6BD
330
6B7
100
AcDbEntity
  8
DAMAN
100
AcDbCircle
 10
0.0000000000000266
 20
0.0000000000000266
 30
0.0
 40
0.8464999999999999
  0
CIRCLE
  5
6BE
330
6B7
100
AcDbEntity
  8
DAMAN
100
AcDbCircle
 10
0.0
 20
0.0
 30
0.0
 40
0.614
  0
ENDBLK
  5
6BF
330
6B7
100
AcDbEntity
  8
0
100
AcDbBlockEnd
  0
BLOCK
  5
6C1
330
6C0
100
AcDbEntity
  8
0
100
AcDbBlockBegin
  2
M14T
 70
     0
 10
0.0
 20
0.0
 30
0.0
  3
M14T
  1

  0
CIRCLE
  5
6C2
330
6C0
100
AcDbEntity
  8
DAMAN
  6
HIDDEN
100
AcDbCircle
 10
0.0
 20
0.0
 30
0.0
 40
0.2755
  0
CIRCLE
  5
6C3
330
6C0
100
AcDbEntity
  8
DAMAN
100
AcDbCircle
 10
0.0
 20
0.0
 30
0.0
 40
0.4920000000000001
  0
CIRCLE
  5
6C4
330
6C0
100
AcDbEntity
  8
DAMAN
100
AcDbCircle
 10
0.0
 20
0.0
 30
0.0
 40
0.413
  0
CIRCLE
  5
6C5
330
6C0
100
AcDbEntity
  8
DAMAN
100
AcDbCircle
 10
0.0
 20
0.0
 30
0.0
 40
0.311
  0
CIRCLE
  5
6C6
330
6C0
100
AcDbEntity
  8
DAMAN
100
AcDbCircle
 10
0.0
 20
0.0
 30
0.0
 40
0.25
  0
INSERT
  5
6C7
330
6C0
100
AcDbEntity
  8
DAMAN
100
AcDbBlockReference
  2
100CROSS
 10
-0.0000000000000169
 20
-0.000000000000016
 30
0.0
 41
0.8259999999999998
 42
0.8259999999999998
  0
ENDBLK
  5
6C8
330
6C0
100
AcDbEntity
  8
0
100
AcDbBlockEnd
  0
BLOCK
  5
6CA
330
6C9
100
AcDbEntity
  8
0
100
AcDbBlockBegin
  2
D07
 70
     0
 10
0.0
 20
0.0
 30
0.0
  3
D07
  1

  0
CIRCLE
  5
6CB
330
6C9
100
AcDbEntity
  8
DAMAN
100
AcDbCircle
 10
0.0
 20
1.249
 30
0.0
 40
0.3439999999999999
  0
CIRCLE
  5
6CC
330
6C9
100
AcDbEntity
  8
DAMAN
100
AcDbCircle
 10
0.0
 20
0.0
 30
0.0
 40
0.3439999999999999
  0
INSERT
  5
6CD
330
6C9
100
AcDbEntity
  8
DAMAN
100
AcDbBlockReference
  2
100CROSS
 10
0.0
 20
1.249
 30
0.0
 41
0.5625
 42
0.5625
  0
INSERT
  5
6CE
330
6C9
100
AcDbEntity
  8
DAMAN
100
AcDbBlockReference
  2
100CROSS
 10
0.0
 20
0.0
 30
0.0
 41
0.5625
 42
0.5625
  0
INSERT
  5
6CF
330
6C9
100
AcDbEntity
  8
DAMAN
100
AcDbBlockReference
  2
100CROSS
 10
-2.2505
 20
-0.0009999999999999
 30
0.0
 41
0.25
 42
0.25
  0
CIRCLE
  5
6D0
330
6C9
100
AcDbEntity
  8
DAMAN
100
AcDbCircle
 10
-2.188
 20
-2.032
 30
0.0
 40
0.1875
  0
CIRCLE
  5
6D1
330
6C9
100
AcDbEntity
  8
DAMAN
100
AcDbCircle
 10
-2.188
 20
-2.032
 30
0.0
 40
0.15625
  0
INSERT
  5
6D2
330
6C9
100
AcDbEntity
  8
DAMAN
100
AcDbBlockReference
  2
100CROSS
 10
-2.188
 20
-2.032
 30
0.0
 41
0.375
 42
0.375
  0
CIRCLE
  5
6D3
330
6C9
100
AcDbEntity
  8
DAMAN
100
AcDbCircle
 10
-2.250999999999999
 20
-0.0007500000000005
 30
0.0
 40
0.125
  0
CIRCLE
  5
6D4
330
6C9
100
AcDbEntity
  8
DAMAN
100
AcDbCircle
 10
-2.2505
 20
-0.0009999999999999
 30
0.0
 40
0.1055
  0
CIRCLE
  5
6D5
330
6C9
100
AcDbEntity
  8
DAMAN
100
AcDbCircle
 10
-1.625999999999999
 20
-0.6259999999999997
 30
0.0
 40
0.3439999999999999
  0
INSERT
  5
6D6
330
6C9
100
AcDbEntity
  8
DAMAN
100
AcDbBlockReference
  2
100CROSS
 10
-1.625999999999999
 20
-0.6259999999999997
 30
0.0
 41
0.5625
 42
0.5625
  0
CIRCLE
  5
6D7
330
6C9
100
AcDbEntity
  8
DAMAN
100
AcDbCircle
 10
-1.687999999999999
 20
-1.499999999999998
 30
0.0
 40
0.125
  0
INSERT
  5
6D8
330
6C9
100
AcDbEntity
  8
DAMAN
100
AcDbBlockReference
  2
100CROSS
 10
-1.687999999999999
 20
-1.499999999999998
 30
0.0
 41
0.375
 42
0.375
  0
TEXT
  5
6D9
330
6C9
100
AcDbEntity
  8
DAMAN
100
AcDbText
 10
-1.562999999999999
 20
-1.313249999999998
 30
0.0
 40
0.12
  1
Y
100
AcDbText
  0
TEXT
  5
6DA
330
6C9
100
AcDbEntity
  8
DAMAN
100
AcDbText
 10
-1.312999999999999
 20
-0.2194999999999998
 30
0.0
 40
0.12
  1
B
100
AcDbText
  0
CIRCLE
  5
6DB
330
6C9
100
AcDbEntity
  8
DAMAN
100
AcDbCircle
 10
-2.188
 20
1.249
 30
0.0
 40
0.0845
  0
CIRCLE
  5
6DC
330
6C9
100
AcDbEntity
  8
DAMAN
100
AcDbCircle
 10
-2.188
 20
1.968
 30
0.0
 40
0.1875
  0
CIRCLE
  5
6DD
330
6C9
100
AcDbEntity
  8
DAMAN
100
AcDbCircle
 10
-2.188
 20
1.968
 30
0.0
 40
0.15625
  0
INSERT
  5
6DE
330
6C9
100
AcDbEntity
  8
DAMAN
100
AcDbBlockReference
  2
100CROSS
 10
-2.188
 20
1.968
 30
0.0
 41
0.375
 42
0.375
  0
INSERT
  5
6DF
330
6C9
100
AcDbEntity
  8
DAMAN
100
AcDbBlockReference
  2
100CROSS
 10
-2.188
 20
1.249
 30
0.0
 41
0.25
 42
0.25
  0
CIRCLE
  5
6E0
330
6C9
100
AcDbEntity
  8
DAMAN
100
AcDbCircle
 10
-1.625999999999999
 20
0.6240000000000001
 30
0.0
 40
0.3439999999999999
  0
INSERT
  5
6E1
330
6C9
100
AcDbEntity
  8
DAMAN
100
AcDbBlockReference
  2
100CROSS
 10
-1.625999999999999
 20
0.6240000000000001
 30
0.0
 41
0.5625
 42
0.5625
  0
TEXT
  5
6E2
330
6C9
100
AcDbEntity
  8
DAMAN
100
AcDbText
 10
-1.344249999999999
 20
1.030499999999997
 30
0.0
 40
0.12
  1
A
100
AcDbText
  0
INSERT
  5
6E3
330
6C9
100
AcDbEntity
  8
DAMAN
100
AcDbBlockReference
  2
100CROSS
 10
0.5620000000000001
 20
-2.032
 30
0.0
 41
0.375
 42
0.375
  0
CIRCLE
  5
6E4
330
6C9
100
AcDbEntity
  8
DAMAN
100
AcDbCircle
 10
0.5620000000000001
 20
-2.032
 30
0.0
 40
0.1875
  0
CIRCLE
  5
6E5
330
6C9
100
AcDbEntity
  8
DAMAN
100
AcDbCircle
 10
0.5620000000000001
 20
-2.032
 30
0.0
 40
0.15625
  0
INSERT
  5
6E6
330
6C9
100
AcDbEntity
  8
DAMAN
100
AcDbBlockReference
  2
100CROSS
 10
0.5620000000000001
 20
-1.046999999999999
 30
0.0
 41
0.25
 42
0.25
  0
CIRCLE
  5
6E7
330
6C9
100
AcDbEntity
  8
DAMAN
100
AcDbCircle
 10
0.5620000000000001
 20
-1.046999999999999
 30
0.0
 40
0.0845
  0
INSERT
  5
6E8
330
6C9
100
AcDbEntity
  8
DAMAN
100
AcDbBlockReference
  2
100CROSS
 10
0.5620000000000001
 20
1.968
 30
0.0
 41
0.375
 42
0.375
  0
INSERT
  5
6E9
330
6C9
100
AcDbEntity
  8
DAMAN
100
AcDbBlockReference
  2
100CROSS
 10
0.6245000000000001
 20
0.6240000000000001
 30
0.0
 41
0.25
 42
0.25
  0
TEXT
  5
6EA
330
6C9
100
AcDbEntity
  8
DAMAN
100
AcDbText
 10
0.2182499999999998
 20
0.4680000000000002
 30
0.0
 40
0.12
  1
P
100
AcDbText
  0
CIRCLE
  5
6EB
330
6C9
100
AcDbEntity
  8
DAMAN
100
AcDbCircle
 10
0.6239999999999993
 20
0.6242499999999998
 30
0.0
 40
0.125
  0
CIRCLE
  5
6EC
330
6C9
100
AcDbEntity
  8
DAMAN
100
AcDbCircle
 10
0.6245000000000001
 20
0.6240000000000001
 30
0.0
 40
0.1055
  0
TEXT
  5
6ED
330
6C9
100
AcDbEntity
  8
DAMAN
100
AcDbText
 10
0.2494999999999998
 20
1.718
 30
0.0
 40
0.12
  1
T
100
AcDbText
  0
CIRCLE
  5
6EE
330
6C9
100
AcDbEntity
  8
DAMAN
100
AcDbCircle
 10
0.5620000000000001
 20
1.968
 30
0.0
 40
0.1875
  0
CIRCLE
  5
6EF
330
6C9
100
AcDbEntity
  8
DAMAN
100
AcDbCircle
 10
0.5620000000000001
 20
1.968
 30
0.0
 40
0.15625
  0
ENDBLK
  5
6F0
330
6C9
100
AcDbEntity
  8
0
100
AcDbBlockEnd
  0
BLOCK
  5
6F2
330
6F1
100
AcDbEntity
  8
0
100
AcDbBlockBegin
  2
600MKT
 70
     0
 10
0.0
 20
0.0
 30
0.0
  3
600MKT
  1

  0
LINE
  5
6F3
330
6F1
100
AcDbEntity
  8
DAMAN
100
AcDbLine
 10
-0.5625
 20
6.0
 30
0.0
 11
1.0625
 21
6.0
 31
0.0
  0
LINE
  5
6F4
330
6F1
100
AcDbEntity
  8
DAMAN
100
AcDbLine
 10
1.0625
 20
6.0
 30
0.0
 11
1.0625
 21
0.0
 31
0.0
  0
LINE
  5
6F5
330
6F1
100
AcDbEntity
  8
DAMAN
100
AcDbLine
 10
1.0625
 20
0.0
 30
0.0
 11
-0.5625
 21
0.0
 31
0.0
  0
LINE
  5
6F6
330
6F1
100
AcDbEntity
  8
DAMAN
100
AcDbLine
 10
-0.5625
 20
0.0
 30
0.0
 11
-0.5625
 21
6.0
 31
0.0
  0
LINE
  5
6F7
330
6F1
100
AcDbEntity
  8
DAMAN
100
AcDbLine
 10
-0.375
 20
0.0
 30
0.0
 11
-0.375
 21
6.0
 31
0.0
  0
LINE
  5
6F8
330
6F1
100
AcDbEntity
  8
DAMAN
100
AcDbLine
 10
-0.375
 20
1.09375
 30
0.0
 11
-0.3125
 21
1.09375
 31
0.0
  0
LINE
  5
6F9
330
6F1
100
AcDbEntity
  8
DAMAN
100
AcDbLine
 10
-0.3125
 20
1.09375
 30
0.0
 11
-0.3125
 21
0.03125
 31
0.0
  0
LINE
  5
6FA
330
6F1
100
AcDbEntity
  8
DAMAN
100
AcDbLine
 10
-0.3125
 20
0.03125
 30
0.0
 11
-0.375
 21
0.03125
 31
0.0
  0
LINE
  5
6FB
330
6F1
100
AcDbEntity
  8
DAMAN
100
AcDbLine
 10
-0.3125
 20
0.9955127018922189
 30
0.0
 11
-0.0428346394726904
 21
0.9955127018922189
 31
0.0
  0
LINE
  5
6FC
330
6F1
100
AcDbEntity
  8
DAMAN
100
AcDbLine
 10
-0.0000000000000004
 20
0.921320930001624
 30
0.0
 11
0.0000000000000004
 21
0.2036790699983779
 31
0.0
  0
LINE
  5
6FD
330
6F1
100
AcDbEntity
  8
DAMAN
100
AcDbLine
 10
-0.0428346394726904
 20
0.1294872981077813
 30
0.0
 11
-0.3125
 21
0.1294872981077813
 31
0.0
  0
LINE
  5
6FE
330
6F1
100
AcDbEntity
  8
DAMAN
100
AcDbLine
 10
-0.3125
 20
0.7790063509461103
 30
0.0
 11
-0.0625000000000462
 21
0.7790063509461103
 31
0.0
  0
LINE
  5
6FF
330
6F1
100
AcDbEntity
  8
DAMAN
100
AcDbLine
 10
-0.3125
 20
0.3459936490538915
 30
0.0
 11
-0.0624999999999894
 21
0.3459936490538915
 31
0.0
  0
ARC
  5
700
330
6F1
100
AcDbEntity
  8
DAMAN
100
AcDbCircle
 10
-0.4062499999999968
 20
0.5625000000000018
 30
0.0
 40
0.4062499999999964
100
AcDbArc
 50
327.7957724960277
 51
32.20422750397212
  0
ARC
  5
701
330
6F1
100
AcDbEntity
  8
DAMAN
100
AcDbCircle
 10
-0.1250000000000004
 20
0.2377404735808355
 30
0.0
 40
0.1250000000000008
100
AcDbArc
 50
300.0000000000003
 51
60.00000000000041
  0
ARC
  5
702
330
6F1
100
AcDbEntity
  8
DAMAN
100
AcDbCircle
 10
-0.1250000000000004
 20
0.8872595264191645
 30
0.0
 40
0.1250000000000008
100
AcDbArc
 50
299.9999999999996
 51
59.99999999999973
  0
LINE
  5
703
330
6F1
100
AcDbEntity
  8
DAMAN
100
AcDbLine
 10
-0.0428346394726904
 20
0.9955127018922189
 30
0.0
 11
-0.0000000000000004
 21
0.921320930001624
 31
0.0
  0
LINE
  5
704
330
6F1
100
AcDbEntity
  8
DAMAN
100
AcDbLine
 10
-0.0428346394726904
 20
0.1294872981077813
 30
0.0
 11
0.0000000000000004
 21
0.2036790699983779
 31
0.0
  0
LINE
  5
705
330
6F1
100
AcDbEntity
  8
DAMAN
100
AcDbLine
 10
-0.5625
 20
0.8125
 30
0.0
 11
-1.28125
 21
0.8125
 31
0.0
  0
LINE
  5
706
330
6F1
100
AcDbEntity
  8
DAMAN
100
AcDbLine
 10
-1.28125
 20
0.8125
 30
0.0
 11
-1.3125
 21
0.78125
 31
0.0
  0
LINE
  5
707
330
6F1
100
AcDbEntity
  8
DAMAN
100
AcDbLine
 10
-1.3125
 20
0.78125
 30
0.0
 11
-1.3125
 21
0.34375
 31
0.0
  0
LINE
  5
708
330
6F1
100
AcDbEntity
  8
DAMAN
100
AcDbLine
 10
-1.3125
 20
0.34375
 30
0.0
 11
-1.28125
 21
0.3125
 31
0.0
  0
LINE
  5
709
330
6F1
100
AcDbEntity
  8
DAMAN
100
AcDbLine
 10
-1.28125
 20
0.3125
 30
0.0
 11
-0.5625
 21
0.3125
 31
0.0
  0
LINE
  5
70A
330
6F1
100
AcDbEntity
  8
DAMAN
100
AcDbLine
 10
-0.5625
 20
0.78125
 30
0.0
 11
-1.3125
 21
0.78125
 31
0.0
  0
LINE
  5
70B
330
6F1
100
AcDbEntity
  8
DAMAN
100
AcDbLine
 10
-0.5625
 20
0.34375
 30
0.0
 11
-1.3125
 21
0.34375
 31
0.0
  0
LINE
  5
70C
330
6F1
100
AcDbEntity
  8
DAMAN
100
AcDbLine
 10
0.125
 20
0.5625
 30
0.0
 11
-1.40625
 21
0.5625
 31
0.0
  0
LINE
  5
70D
330
6F1
100
AcDbEntity
  8
DAMAN
100
AcDbLine
 10
0.125
 20
5.4375
 30
0.0
 11
-1.40625
 21
5.4375
 31
0.0
  0
LINE
  5
70E
330
6F1
100
AcDbEntity
  8
DAMAN
100
AcDbLine
 10
-0.5625
 20
5.21875
 30
0.0
 11
-1.3125
 21
5.21875
 31
0.0
  0
LINE
  5
70F
330
6F1
100
AcDbEntity
  8
DAMAN
100
AcDbLine
 10
-1.28125
 20
5.1875
 30
0.0
 11
-0.5625
 21
5.1875
 31
0.0
  0
LINE
  5
710
330
6F1
100
AcDbEntity
  8
DAMAN
100
AcDbLine
 10
-0.5625
 20
5.65625
 30
0.0
 11
-1.3125
 21
5.65625
 31
0.0
  0
LINE
  5
711
330
6F1
100
AcDbEntity
  8
DAMAN
100
AcDbLine
 10
-0.5625
 20
5.6875
 30
0.0
 11
-1.28125
 21
5.6875
 31
0.0
  0
LINE
  5
712
330
6F1
100
AcDbEntity
  8
DAMAN
100
AcDbLine
 10
-1.3125
 20
5.65625
 30
0.0
 11
-1.3125
 21
5.21875
 31
0.0
  0
LINE
  5
713
330
6F1
100
AcDbEntity
  8
DAMAN
100
AcDbLine
 10
-1.28125
 20
5.6875
 30
0.0
 11
-1.3125
 21
5.65625
 31
0.0
  0
LINE
  5
714
330
6F1
100
AcDbEntity
  8
DAMAN
100
AcDbLine
 10
-1.3125
 20
5.21875
 30
0.0
 11
-1.28125
 21
5.1875
 31
0.0
  0
ARC
  5
715
330
6F1
100
AcDbEntity
  8
DAMAN
100
AcDbCircle
 10
-0.4062499999999968
 20
5.4375
 30
0.0
 40
0.4062499999999964
100
AcDbArc
 50
327.7957724960277
 51
32.20422750397212
  0
LINE
  5
716
330
6F1
100
AcDbEntity
  8
DAMAN
100
AcDbLine
 10
-0.3125
 20
5.96875
 30
0.0
 11
-0.3125
 21
4.90625
 31
0.0
  0
LINE
  5
717
330
6F1
100
AcDbEntity
  8
DAMAN
100
AcDbLine
 10
-0.0000000000000004
 20
5.796320930001622
 30
0.0
 11
0.0000000000000004
 21
5.078679069998377
 31
0.0
  0
ARC
  5
718
330
6F1
100
AcDbEntity
  8
DAMAN
100
AcDbCircle
 10
-0.1250000000000004
 20
5.762259526419161
 30
0.0
 40
0.1250000000000008
100
AcDbArc
 50
299.9999999999996
 51
59.99999999999973
  0
LINE
  5
719
330
6F1
100
AcDbEntity
  8
DAMAN
100
AcDbLine
 10
-0.0428346394726904
 20
5.870512701892216
 30
0.0
 11
-0.0000000000000004
 21
5.796320930001622
 31
0.0
  0
LINE
  5
71A
330
6F1
100
AcDbEntity
  8
DAMAN
100
AcDbLine
 10
-0.3125
 20
5.870512701892216
 30
0.0
 11
-0.0428346394726904
 21
5.870512701892216
 31
0.0
  0
LINE
  5
71B
330
6F1
100
AcDbEntity
  8
DAMAN
100
AcDbLine
 10
-0.375
 20
5.96875
 30
0.0
 11
-0.3125
 21
5.96875
 31
0.0
  0
LINE
  5
71C
330
6F1
100
AcDbEntity
  8
DAMAN
100
AcDbLine
 10
-0.3125
 20
5.65400635094611
 30
0.0
 11
-0.0625000000000462
 21
5.65400635094611
 31
0.0
  0
ARC
  5
71D
330
6F1
100
AcDbEntity
  8
DAMAN
100
AcDbCircle
 10
-0.1250000000000004
 20
5.112740473580834
 30
0.0
 40
0.1250000000000008
100
AcDbArc
 50
300.0000000000003
 51
60.00000000000041
  0
LINE
  5
71E
330
6F1
100
AcDbEntity
  8
DAMAN
100
AcDbLine
 10
-0.3125
 20
5.220993649053887
 30
0.0
 11
-0.0624999999999894
 21
5.220993649053887
 31
0.0
  0
LINE
  5
71F
330
6F1
100
AcDbEntity
  8
DAMAN
100
AcDbLine
 10
-0.0428346394726904
 20
5.00448729810778
 30
0.0
 11
-0.3125
 21
5.00448729810778
 31
0.0
  0
LINE
  5
720
330
6F1
100
AcDbEntity
  8
DAMAN
100
AcDbLine
 10
-0.3125
 20
4.90625
 30
0.0
 11
-0.375
 21
4.90625
 31
0.0
  0
LINE
  5
721
330
6F1
100
AcDbEntity
  8
DAMAN
100
AcDbLine
 10
-0.0428346394726904
 20
5.00448729810778
 30
0.0
 11
0.0000000000000004
 21
5.078679069998377
 31
0.0
  0
CIRCLE
  5
722
330
6F1
100
AcDbEntity
  8
DAMAN
100
AcDbCircle
 10
0.5
 20
5.4375
 30
0.0
 40
0.53125
  0
CIRCLE
  5
723
330
6F1
100
AcDbEntity
  8
DAMAN
100
AcDbCircle
 10
0.5
 20
0.5625
 30
0.0
 40
0.53125
  0
LWPOLYLINE
  5
724
330
6F1
100
AcDbEntity
  8
DAMAN
100
AcDbPolyline
 90
        6
 70
     1
 43
0.0
 10
0.875
 20
5.654006350946106
 10
0.5
 20
5.870512701892216
 10
0.125
 20
5.654006350946106
 10
0.125
 20
5.220993649053886
 10
0.5
 20
5.00448729810778
 10
0.8749999999999998
 20
5.220993649053886
  0
CIRCLE
  5
72C
330
6F1
100
AcDbEntity
  8
DAMAN
100
AcDbCircle
 10
0.5
 20
5.4375
 30
0.0
 40
0.375
  0
CIRCLE
  5
72D
330
6F1
100
AcDbEntity
  8
DAMAN
100
AcDbCircle
 10
0.5
 20
0.5625
 30
0.0
 40
0.375
  0
LWPOLYLINE
  5
72E
330
6F1
100
AcDbEntity
  8
DAMAN
100
AcDbPolyline
 90
        6
 70
     1
 43
0.0
 10
0.875
 20
0.7790063509461094
 10
0.5
 20
0.9955127018922196
 10
0.125
 20
0.7790063509461094
 10
0.125
 20
0.3459936490538906
 10
0.5
 20
0.1294872981077804
 10
0.8749999999999998
 20
0.3459936490538897
  0
ENDBLK
  5
736
330
6F1
100
AcDbEntity
  8
0
100
AcDbBlockEnd
  0
BLOCK
  5
738
330
737
100
AcDbEntity
  8
0
100
AcDbBlockBegin
  2
08SAET
 70
     0
 10
0.0
 20
0.0
 30
0.0
  3
08SAET
  1

  0
CIRCLE
  5
739
330
737
100
AcDbEntity
  8
DAMAN
100
AcDbCircle
 10
0.0
 20
0.0
 30
0.0
 40
0.375
  0
CIRCLE
  5
73A
330
737
100
AcDbEntity
  8
DAMAN
100
AcDbCircle
 10
-0.0000000000000391
 20
-0.00000000000004
 30
0.0
 40
0.3125
  0
CIRCLE
  5
73B
330
737
100
AcDbEntity
  8
DAMAN
  6
HIDDEN
100
AcDbCircle
 10
-0.0000000000000391
 20
-0.00000000000004
 30
0.0
 40
0.3439999999999999
  0
INSERT
  5
73C
330
737
100
AcDbEntity
  8
DAMAN
100
AcDbBlockReference
  2
100CROSS
 10
0.0
 20
0.0
 30
0.0
 41
0.88
 42
0.88
  0
CIRCLE
  5
73D
330
737
100
AcDbEntity
  8
DAMAN
100
AcDbCircle
 10
0.0
 20
0.0
 30
0.0
 40
0.594
  0
ENDBLK
  5
73E
330
737
100
AcDbEntity
  8
0
100
AcDbBlockEnd
  0
BLOCK
  5
740
330
73F
100
AcDbEntity
  8
0
100
AcDbBlockBegin
  2
600MKST
 70
     0
 10
0.0
 20
0.0
 30
0.0
  3
600MKST
  1

  0
LINE
  5
741
330
73F
100
AcDbEntity
  8
DAMAN
100
AcDbLine
 10
-1.625
 20
-0.5625
 30
0.0
 11
-1.625
 21
-0.375
 31
0.0
  0
LINE
  5
742
330
73F
100
AcDbEntity
  8
DAMAN
100
AcDbLine
 10
-1.625
 20
-0.375
 30
0.0
 11
-0.4375
 21
-0.375
 31
0.0
  0
LINE
  5
743
330
73F
100
AcDbEntity
  8
DAMAN
100
AcDbLine
 10
-0.1875
 20
-0.125
 30
0.0
 11
-0.1875
 21
1.0625
 31
0.0
  0
LINE
  5
744
330
73F
100
AcDbEntity
  8
DAMAN
100
AcDbLine
 10
-0.1875
 20
1.0625
 30
0.0
 11
0.0
 21
1.0625
 31
0.0
  0
LINE
  5
745
330
73F
100
AcDbEntity
  8
DAMAN
100
AcDbLine
 10
0.0
 20
1.0625
 30
0.0
 11
0.0
 21
-0.125
 31
0.0
  0
LINE
  5
746
330
73F
100
AcDbEntity
  8
DAMAN
100
AcDbLine
 10
-0.4375
 20
-0.5625
 30
0.0
 11
-1.625
 21
-0.5625
 31
0.0
  0
ARC
  5
747
330
73F
100
AcDbEntity
  8
DAMAN
100
AcDbCircle
 10
-0.4375
 20
-0.125
 30
0.0
 40
0.25
100
AcDbArc
 50
270.0
 51
0.0
  0
ARC
  5
748
330
73F
100
AcDbEntity
  8
DAMAN
100
AcDbCircle
 10
-0.4375
 20
-0.125
 30
0.0
 40
0.4375
100
AcDbArc
 50
270.0
 51
0.0
  0
LINE
  5
749
330
73F
100
AcDbEntity
  8
DAMAN
100
AcDbLine
 10
-1.59375
 20
-0.375
 30
0.0
 11
-1.59375
 21
-0.3125
 31
0.0
  0
LINE
  5
74A
330
73F
100
AcDbEntity
  8
DAMAN
100
AcDbLine
 10
-1.59375
 20
-0.3125
 30
0.0
 11
-0.53125
 21
-0.3125
 31
0.0
  0
LINE
  5
74B
330
73F
100
AcDbEntity
  8
DAMAN
100
AcDbLine
 10
-0.53125
 20
-0.3125
 30
0.0
 11
-0.53125
 21
-0.375
 31
0.0
  0
LINE
  5
74C
330
73F
100
AcDbEntity
  8
DAMAN
100
AcDbLine
 10
-1.495512701892218
 20
-0.3125
 30
0.0
 11
-1.495512701892218
 21
-0.0428346394726904
 31
0.0
  0
LINE
  5
74D
330
73F
100
AcDbEntity
  8
DAMAN
100
AcDbLine
 10
-1.421320930001621
 20
-0.0000000000000004
 30
0.0
 11
-0.703679069998378
 21
0.0000000000000004
 31
0.0
  0
LINE
  5
74E
330
73F
100
AcDbEntity
  8
DAMAN
100
AcDbLine
 10
-0.6294872981077813
 20
-0.0428346394726904
 30
0.0
 11
-0.6294872981077813
 21
-0.3125
 31
0.0
  0
LINE
  5
74F
330
73F
100
AcDbEntity
  8
DAMAN
100
AcDbLine
 10
-1.27900635094611
 20
-0.3125
 30
0.0
 11
-1.27900635094611
 21
-0.0625000000000462
 31
0.0
  0
LINE
  5
750
330
73F
100
AcDbEntity
  8
DAMAN
100
AcDbLine
 10
-0.8459936490538915
 20
-0.3125
 30
0.0
 11
-0.8459936490538915
 21
-0.0624999999999894
 31
0.0
  0
ARC
  5
751
330
73F
100
AcDbEntity
  8
DAMAN
100
AcDbCircle
 10
-1.062500000000001
 20
-0.4062499999999968
 30
0.0
 40
0.4062499999999964
100
AcDbArc
 50
57.79577249602763
 51
122.2042275039719
  0
ARC
  5
752
330
73F
100
AcDbEntity
  8
DAMAN
100
AcDbCircle
 10
-0.7377404735808355
 20
-0.1250000000000004
 30
0.0
 40
0.1250000000000008
100
AcDbArc
 50
30.00000000000031
 51
150.0000000000003
  0
ARC
  5
753
330
73F
100
AcDbEntity
  8
DAMAN
100
AcDbCircle
 10
-1.387259526419162
 20
-0.1250000000000004
 30
0.0
 40
0.1250000000000008
100
AcDbArc
 50
29.9999999999996
 51
149.9999999999997
  0
LINE
  5
754
330
73F
100
AcDbEntity
  8
DAMAN
100
AcDbLine
 10
-1.495512701892218
 20
-0.0428346394726904
 30
0.0
 11
-1.421320930001621
 21
-0.0000000000000004
 31
0.0
  0
LINE
  5
755
330
73F
100
AcDbEntity
  8
DAMAN
100
AcDbLine
 10
-0.6294872981077813
 20
-0.0428346394726904
 30
0.0
 11
-0.703679069998378
 21
0.0000000000000004
 31
0.0
  0
LINE
  5
756
330
73F
100
AcDbEntity
  8
DAMAN
100
AcDbLine
 10
-1.3125
 20
-0.5625
 30
0.0
 11
-1.3125
 21
-1.28125
 31
0.0
  0
LINE
  5
757
330
73F
100
AcDbEntity
  8
DAMAN
100
AcDbLine
 10
-1.3125
 20
-1.28125
 30
0.0
 11
-1.28125
 21
-1.3125
 31
0.0
  0
LINE
  5
758
330
73F
100
AcDbEntity
  8
DAMAN
100
AcDbLine
 10
-1.28125
 20
-1.3125
 30
0.0
 11
-0.84375
 21
-1.3125
 31
0.0
  0
LINE
  5
759
330
73F
100
AcDbEntity
  8
DAMAN
100
AcDbLine
 10
-0.84375
 20
-1.3125
 30
0.0
 11
-0.8125
 21
-1.28125
 31
0.0
  0
LINE
  5
75A
330
73F
100
AcDbEntity
  8
DAMAN
100
AcDbLine
 10
-0.8125
 20
-1.28125
 30
0.0
 11
-0.8125
 21
-0.5625
 31
0.0
  0
LINE
  5
75B
330
73F
100
AcDbEntity
  8
DAMAN
100
AcDbLine
 10
-1.28125
 20
-0.5625
 30
0.0
 11
-1.28125
 21
-1.3125
 31
0.0
  0
LINE
  5
75C
330
73F
100
AcDbEntity
  8
DAMAN
100
AcDbLine
 10
-0.84375
 20
-0.5625
 30
0.0
 11
-0.84375
 21
-1.3125
 31
0.0
  0
LINE
  5
75D
330
73F
100
AcDbEntity
  8
DAMAN
100
AcDbLine
 10
-1.0625
 20
0.125
 30
0.0
 11
-1.0625
 21
-1.40625
 31
0.0
  0
LINE
  5
75E
330
73F
100
AcDbEntity
  8
DAMAN
100
AcDbLine
 10
-0.5196653605273092
 20
0.9330127018922189
 30
0.0
 11
-0.5625
 21
0.8588209300016222
 31
0.0
  0
LINE
  5
75F
330
73F
100
AcDbEntity
  8
DAMAN
100
AcDbLine
 10
-0.5196653605273092
 20
0.0669872981077813
 30
0.0
 11
-0.5624999999999984
 21
0.1411790699983761
 31
0.0
  0
ARC
  5
760
330
73F
100
AcDbEntity
  8
DAMAN
100
AcDbCircle
 10
-0.4374999999999984
 20
0.1752404735808355
 30
0.0
 40
0.1250000000000008
100
AcDbArc
 50
119.9999999999996
 51
239.9999999999995
  0
ARC
  5
761
330
73F
100
AcDbEntity
  8
DAMAN
100
AcDbCircle
 10
-0.4374999999999984
 20
0.8247595264191645
 30
0.0
 40
0.1250000000000008
100
AcDbArc
 50
120.0000000000003
 51
240.0000000000004
  0
ARC
  5
762
330
73F
100
AcDbEntity
  8
DAMAN
100
AcDbCircle
 10
-0.1562500000000035
 20
0.4999999999999984
 30
0.0
 40
0.4062499999999964
100
AcDbArc
 50
147.7957724960276
 51
212.204227503972
  0
LINE
  5
763
330
73F
100
AcDbEntity
  8
DAMAN
100
AcDbLine
 10
-0.25
 20
0.7165063509461085
 30
0.0
 11
-0.5000000000000107
 21
0.7165063509461085
 31
0.0
  0
LINE
  5
764
330
73F
100
AcDbEntity
  8
DAMAN
100
AcDbLine
 10
-0.25
 20
0.2834936490538897
 30
0.0
 11
-0.4999999999999539
 21
0.2834936490538897
 31
0.0
  0
LINE
  5
765
330
73F
100
AcDbEntity
  8
DAMAN
100
AcDbLine
 10
-0.5196653605273092
 20
0.9330127018922189
 30
0.0
 11
-0.25
 21
0.9330127018922189
 31
0.0
  0
LINE
  5
766
330
73F
100
AcDbEntity
  8
DAMAN
100
AcDbLine
 10
-0.5624999999999984
 20
0.1411790699983761
 30
0.0
 11
-0.5625
 21
0.8588209300016222
 31
0.0
  0
LINE
  5
767
330
73F
100
AcDbEntity
  8
DAMAN
100
AcDbLine
 10
-0.25
 20
0.0669872981077813
 30
0.0
 11
-0.5196653605273092
 21
0.0669872981077813
 31
0.0
  0
LINE
  5
768
330
73F
100
AcDbEntity
  8
DAMAN
100
AcDbLine
 10
-0.25
 20
1.03125
 30
0.0
 11
-0.1875
 21
1.03125
 31
0.0
  0
LINE
  5
769
330
73F
100
AcDbEntity
  8
DAMAN
100
AcDbLine
 10
-0.25
 20
-0.03125
 30
0.0
 11
-0.25
 21
1.03125
 31
0.0
  0
LINE
  5
76A
330
73F
100
AcDbEntity
  8
DAMAN
100
AcDbLine
 10
-0.1875
 20
-0.03125
 30
0.0
 11
-0.25
 21
-0.03125
 31
0.0
  0
ENDBLK
  5
76B
330
73F
100
AcDbEntity
  8
0
100
AcDbBlockEnd
  0
BLOCK
  5
76D
330
76C
100
AcDbEntity
  8
0
100
AcDbBlockBegin
  2
125NPTFT
 70
     0
 10
0.0
 20
0.0
 30
0.0
  3
125NPTFT
  1

  0
CIRCLE
  5
76E
330
76C
100
AcDbEntity
  8
DAMAN
100
AcDbCircle
 10
0.00000000000004
 20
0.0000000000003997
 30
0.0
 40
0.8440000000000001
  0
CIRCLE
  5
76F
330
76C
100
AcDbEntity
  8
DAMAN
100
AcDbCircle
 10
0.00000000000004
 20
0.0000000000003997
 30
0.0
 40
0.7265000000000002
  0
INSERT
  5
770
330
76C
100
AcDbEntity
  8
DAMAN
100
AcDbBlockReference
  2
100CROSS
 10
0.00000000000004
 20
0.0000000000003997
 30
0.0
 41
1.399999999999999
 42
1.399999999999999
  0
CIRCLE
  5
771
330
76C
100
AcDbEntity
  8
DAMAN
100
AcDbCircle
 10
0.0
 20
0.0
 30
0.0
 40
0.78125
  0
ENDBLK
  5
772
330
76C
100
AcDbEntity
  8
0
100
AcDbBlockEnd
  0
BLOCK
  5
774
330
773
100
AcDbEntity
  8
0
100
AcDbBlockBegin
  2
050NPTFT
 70
     0
 10
0.0
 20
0.0
 30
0.0
  3
050NPTFT
  1

  0
INSERT
  5
776
330
773
100
AcDbEntity
  8
DAMAN
100
AcDbBlockReference
  2
500NPTFT
 10
0.0
 20
0.0
 30
0.0
  0
ENDBLK
  5
777
330
773
100
AcDbEntity
  8
0
100
AcDbBlockEnd
  0
BLOCK
  5
778
330
775
100
AcDbEntity
  8
0
100
AcDbBlockBegin
  2
500NPTFT
 70
     0
 10
0.0
 20
0.0
 30
0.0
  3
500NPTFT
  1

  0
INSERT
  5
779
330
775
100
AcDbEntity
  8
DAMAN
 62
     5
100
AcDbBlockReference
  2
100CROSS
 10
0.0
 20
0.0
 30
0.0
 41
0.84
 42
0.84
  0
CIRCLE
  5
77A
330
775
100
AcDbEntity
  8
DAMAN
 62
     5
100
AcDbCircle
 10
-0.0000000000003979
 20
-0.0000000000000497
 30
0.0
 40
0.3846266739788397
  0
CIRCLE
  5
77B
330
775
100
AcDbEntity
  8
DAMAN
 62
     5
100
AcDbCircle
 10
0.0
 20
0.0
 30
0.0
 40
0.3439999999999999
  0
CIRCLE
  5
77C
330
775
100
AcDbEntity
  8
DAMAN
 62
     5
100
AcDbCircle
 10
0.0
 20
0.0
 30
0.0
 40
0.4295000000000001
  0
ENDBLK
  5
77D
330
775
100
AcDbEntity
  8
0
100
AcDbBlockEnd
  0
BLOCK
  5
77F
330
77E
100
AcDbEntity
  8
0
100
AcDbBlockBegin
  2
20SAET
 70
     0
 10
0.0
 20
0.0
 30
0.0
  3
20SAET
  1

  0
INSERT
  5
780
330
77E
100
AcDbEntity
  8
DAMAN
100
AcDbBlockReference
  2
100CROSS
 10
0.0
 20
0.0
 30
0.0
 41
1.7
 42
1.7
  0
CIRCLE
  5
781
330
77E
100
AcDbEntity
  8
DAMAN
100
AcDbCircle
 10
0.0
 20
0.0
 30
0.0
 40
0.8125
  0
CIRCLE
  5
782
330
77E
100
AcDbEntity
  8
DAMAN
100
AcDbCircle
 10
0.0
 20
0.0
 30
0.0
 40
1.125
  0
CIRCLE
  5
783
330
77E
100
AcDbEntity
  8
DAMAN
100
AcDbCircle
 10
0.0
 20
0.0
 30
0.0
 40
0.75
  0
ENDBLK
  5
784
330
77E
100
AcDbEntity
  8
0
100
AcDbBlockEnd
  0
BLOCK
  5
786
330
785
100
AcDbEntity
  8
0
100
AcDbBlockBegin
  2
125BSPPT
 70
     0
 10
0.0
 20
0.0
 30
0.0
  3
125BSPPT
  1

  0
CIRCLE
  5
787
330
785
100
AcDbEntity
  8
DAMAN
100
AcDbCircle
 10
0.0
 20
0.0
 30
0.0
 40
0.703
  0
CIRCLE
  5
788
330
785
100
AcDbEntity
  8
DAMAN
100
AcDbCircle
 10
0.0
 20
0.0
 30
0.0
 40
0.7700000000000001
  0
CIRCLE
  5
789
330
785
100
AcDbEntity
  8
DAMAN
  6
HIDDEN
100
AcDbCircle
 10
0.0
 20
0.0
 30
0.0
 40
0.825
  0
CIRCLE
  5
78A
330
785
100
AcDbEntity
  8
DAMAN
100
AcDbCircle
 10
0.0
 20
0.0
 30
0.0
 40
1.125
  0
INSERT
  5
78B
330
785
100
AcDbEntity
  8
DAMAN
100
AcDbBlockReference
  2
100CROSS
 10
0.0000000000000586
 20
0.0000000000005995
 30
0.0
 41
2.099999999999999
 42
2.099999999999999
  0
ENDBLK
  5
78C
330
785
100
AcDbEntity
  8
0
100
AcDbBlockEnd
  0
BLOCK
  5
78E
330
78D
100
AcDbEntity
  8
0
100
AcDbBlockBegin
  2
0500BSPPT
 70
     0
 10
0.0
 20
0.0
 30
0.0
  3
0500BSPPT
  1

  0
CIRCLE
  5
78F
330
78D
100
AcDbEntity
  8
DAMAN
100
AcDbCircle
 10
-0.0000000000000391
 20
-0.0000000000000391
 30
0.0
 40
0.3795
  0
INSERT
  5
790
330
78D
100
AcDbEntity
  8
DAMAN
100
AcDbBlockReference
  2
100CROSS
 10
-0.0000000000000391
 20
-0.0000000000000391
 30
0.0
 41
1.199999999999999
 42
1.199999999999999
  0
CIRCLE
  5
791
330
78D
100
AcDbEntity
  8
DAMAN
100
AcDbCircle
 10
-0.0000000000000391
 20
-0.0000000000000391
 30
0.0
 40
0.605
  0
CIRCLE
  5
792
330
78D
100
AcDbEntity
  8
DAMAN
  6
HIDDEN
100
AcDbCircle
 10
-0.0000000000000391
 20
-0.0000000000000391
 30
0.0
 40
0.4125
  0
CIRCLE
  5
793
330
78D
100
AcDbEntity
  8
DAMAN
100
AcDbCircle
 10
-0.0000000000000142
 20
-0.000000000000016
 30
0.0
 40
0.4175
  0
ENDBLK
  5
794
330
78D
100
AcDbEntity
  8
0
100
AcDbBlockEnd
  0
BLOCK
  5
796
330
795
100
AcDbEntity
  8
0
100
AcDbBlockBegin
  2
M42T
 70
     0
 10
0.0
 20
0.0
 30
0.0
  3
M42T
  1

  0
CIRCLE
  5
797
330
795
100
AcDbEntity
  8
DAMAN
100
AcDbCircle
 10
0.0
 20
0.0
 30
0.0
 40
1.179999999999999
  0
CIRCLE
  5
798
330
795
100
AcDbEntity
  8
DAMAN
100
AcDbCircle
 10
0.0
 20
0.0
 30
0.0
 40
1.023499999999996
  0
CIRCLE
  5
799
330
795
100
AcDbEntity
  8
DAMAN
100
AcDbCircle
 10
0.0
 20
0.0
 30
0.0
 40
0.8740000000000001
  0
CIRCLE
  5
79A
330
795
100
AcDbEntity
  8
DAMAN
  6
HIDDEN
100
AcDbCircle
 10
0.0
 20
0.0
 30
0.0
 40
0.8265
  0
CIRCLE
  5
79B
330
795
100
AcDbEntity
  8
DAMAN
100
AcDbCircle
 10
0.0
 20
0.0
 30
0.0
 40
0.7900000000000002
  0
CIRCLE
  5
79C
330
795
100
AcDbEntity
  8
DAMAN
100
AcDbCircle
 10
0.0
 20
0.0
 30
0.0
 40
0.625
  0
INSERT
  5
79D
330
795
100
AcDbEntity
  8
DAMAN
100
AcDbBlockReference
  2
100CROSS
 10
0.0
 20
0.0
 30
0.0
 41
1.75
 42
1.75
  0
ENDBLK
  5
79E
330
795
100
AcDbEntity
  8
0
100
AcDbBlockEnd
  0
BLOCK
  5
7A0
330
79F
100
AcDbEntity
  8
0
100
AcDbBlockBegin
  2
T16AT
 70
     0
 10
0.0
 20
0.0
 30
0.0
  3
T16AT
  1

  0
CIRCLE
  5
7A1
330
79F
100
AcDbEntity
  8
DAMAN
100
AcDbCircle
 10
0.0
 20
0.0
 30
0.0
 40
0.5
  0
CIRCLE
  5
7A2
330
79F
100
AcDbEntity
  8
DAMAN
100
AcDbCircle
 10
0.0
 20
0.0
 30
0.0
 40
0.625
  0
CIRCLE
  5
7A3
330
79F
100
AcDbEntity
  8
DAMAN
100
AcDbCircle
 10
0.0
 20
0.0
 30
0.0
 40
0.6720000000000002
  0
CIRCLE
  5
7A4
330
79F
100
AcDbEntity
  8
DAMAN
100
AcDbCircle
 10
0.0
 20
0.0
 30
0.0
 40
0.72
  0
CIRCLE
  5
7A5
330
79F
100
AcDbEntity
  8
DAMAN
100
AcDbCircle
 10
0.0
 20
0.0
 30
0.0
 40
0.7809999999999999
  0
CIRCLE
  5
7A6
330
79F
100
AcDbEntity
  8
DAMAN
  6
HIDDEN
100
AcDbCircle
 10
0.0
 20
0.0
 30
0.0
 40
0.6875
  0
INSERT
  5
7A7
330
79F
100
AcDbEntity
  8
DAMAN
100
AcDbBlockReference
  2
100CROSS
 10
-0.0000000000000266
 20
-0.0000000000000302
 30
0.0
 41
1.399999999999999
 42
1.399999999999999
  0
ENDBLK
  5
7A8
330
79F
100
AcDbEntity
  8
0
100
AcDbBlockEnd
  0
BLOCK
  5
B08
330
B05
100
AcDbEntity
  8
0
100
AcDbBlockBegin
  2
A$C199977B4
 70
     0
 10
0.0
 20
0.0
 30
0.0
  3
A$C199977B4
  1

  0
INSERT
  5
B06
330
B05
100
AcDbEntity
  8
ASAE
100
AcDbBlockReference
  2
06SAET
 10
4.624999999999959
 20
-2.999999999999601
 30
0.0
  0
TEXT
  5
B07
330
B05
100
AcDbEntity
  8
DAMAN
100
AcDbText
 10
5.08446431323397
 20
-2.621423709086593
 30
0.0
 40
0.2
  1
GA
100
AcDbText
  0
ENDBLK
  5
B09
330
B05
100
AcDbEntity
  8
0
100
AcDbBlockEnd
  0
ENDSEC
  0
SECTION
  2
ENTITIES
  0
LINE
  5
7AA
330
66A
100
AcDbEntity
  8
DAMAN
  6
HIDDEN
100
AcDbLine
 10
3.222981730665903
 20
8.665713865388262
 30
0.0
 11
3.222981730665903
 21
14.91571386538826
 31
0.0
  0
LINE
  5
7AB
330
66A
100
AcDbEntity
  8
DAMAN
100
AcDbLine
 10
3.222981730665903
 20
14.91571386538826
 30
0.0
 11
7.972981730665906
 21
14.91571386538826
 31
0.0
  0
LINE
  5
7AC
330
66A
100
AcDbEntity
  8
DAMAN
100
AcDbLine
 10
7.972981730665906
 20
8.665713865388262
 30
0.0
 11
7.972981730665905
 21
14.91571386538826
 31
0.0
  0
LINE
  5
7AD
330
66A
100
AcDbEntity
  8
DAMAN
100
AcDbLine
 10
3.222981730665903
 20
8.665713865388262
 30
0.0
 11
7.972981730665906
 21
8.665713865388262
 31
0.0
  0
LINE
  5
7AE
330
66A
100
AcDbEntity
  8
DAMAN
100
AcDbLine
 10
10.59798173066589
 20
8.665713865388262
 30
0.0
 11
10.59798173066589
 21
14.91571386538826
 31
0.0
  0
LINE
  5
7AF
330
66A
100
AcDbEntity
  8
DAMAN
100
AcDbLine
 10
44.22298173066589
 20
8.665713865388262
 30
0.0
 11
44.22298173066589
 21
14.91571386538826
 31
0.0
  0
LINE
  5
7B0
330
66A
100
AcDbEntity
  8
DAMAN
100
AcDbLine
 10
10.59798173066589
 20
14.91571386538826
 30
0.0
 11
44.22298173066589
 21
14.91571386538826
 31
0.0
  0
LINE
  5
7B1
330
66A
100
AcDbEntity
  8
DAMAN
100
AcDbLine
 10
10.59798173066589
 20
8.665713865388262
 30
0.0
 11
44.22298173066589
 21
8.665713865388259
 31
0.0
  0
INSERT
  5
7B2
330
66A
100
AcDbEntity
  8
DAMAN
100
AcDbBlockReference
  2
600MKT
 10
3.225481730665903
 20
8.790713865388262
 30
0.0
  0
INSERT
  5
7B3
330
66A
100
AcDbEntity
  8
DAMAN
100
AcDbBlockReference
  2
600MKST
 10
10.59798173066589
 20
2.915713865388261
 30
0.0
  0
LINE
  5
7B4
330
66A
100
AcDbEntity
  8
DAMAN
100
AcDbLine
 10
10.59798173066589
 20
8.790713865388262
 30
0.0
 11
8.972981730665907
 21
8.790713865388262
 31
0.0
  0
LINE
  5
7B5
330
66A
100
AcDbEntity
  8
DAMAN
100
AcDbLine
 10
8.972981730665907
 20
8.790713865388262
 30
0.0
 11
8.972981730665907
 21
14.79071386538826
 31
0.0
  0
LINE
  5
7B6
330
66A
100
AcDbEntity
  8
DAMAN
100
AcDbLine
 10
8.972981730665907
 20
14.79071386538826
 30
0.0
 11
10.59798173066589
 21
14.79071386538826
 31
0.0
  0
LINE
  5
7B7
330
66A
100
AcDbEntity
  8
DAMAN
100
AcDbLine
 10
10.59798173066589
 20
14.79071386538826
 30
0.0
 11
10.59798173066589
 21
8.790713865388262
 31
0.0
  0
LINE
  5
7B8
330
66A
100
AcDbEntity
  8
DAMAN
100
AcDbLine
 10
10.4104817306659
 20
14.79071386538826
 30
0.0
 11
10.4104817306659
 21
8.790713865388262
 31
0.0
  0
LINE
  5
7B9
330
66A
100
AcDbEntity
  8
DAMAN
100
AcDbLine
 10
10.4104817306659
 20
13.69696386538826
 30
0.0
 11
10.3479817306659
 21
13.69696386538826
 31
0.0
  0
LINE
  5
7BA
330
66A
100
AcDbEntity
  8
DAMAN
100
AcDbLine
 10
10.3479817306659
 20
13.69696386538826
 30
0.0
 11
10.3479817306659
 21
14.75946386538826
 31
0.0
  0
LINE
  5
7BB
330
66A
100
AcDbEntity
  8
DAMAN
100
AcDbLine
 10
10.3479817306659
 20
14.75946386538826
 30
0.0
 11
10.4104817306659
 21
14.75946386538826
 31
0.0
  0
LINE
  5
7BC
330
66A
100
AcDbEntity
  8
DAMAN
100
AcDbLine
 10
10.3479817306659
 20
13.79520116349604
 30
0.0
 11
10.07831637013858
 21
13.79520116349604
 31
0.0
  0
LINE
  5
7BD
330
66A
100
AcDbEntity
  8
DAMAN
100
AcDbLine
 10
10.0354817306659
 20
13.86939293538663
 30
0.0
 11
10.0354817306659
 21
14.58703479538988
 31
0.0
  0
LINE
  5
7BE
330
66A
100
AcDbEntity
  8
DAMAN
100
AcDbLine
 10
10.07831637013858
 20
14.66122656728048
 30
0.0
 11
10.3479817306659
 21
14.66122656728048
 31
0.0
  0
LINE
  5
7BF
330
66A
100
AcDbEntity
  8
DAMAN
100
AcDbLine
 10
10.3479817306659
 20
14.01170751444215
 30
0.0
 11
10.09798173066595
 21
14.01170751444215
 31
0.0
  0
LINE
  5
7C0
330
66A
100
AcDbEntity
  8
DAMAN
100
AcDbLine
 10
10.3479817306659
 20
14.44472021633436
 30
0.0
 11
10.09798173066588
 21
14.44472021633436
 31
0.0
  0
ARC
  5
7C1
330
66A
100
AcDbEntity
  8
DAMAN
100
AcDbCircle
 10
10.44173173066589
 20
14.22821386538825
 30
0.0
 40
0.4062499999999964
100
AcDbArc
 50
147.7957724960276
 51
212.204227503972
  0
ARC
  5
7C2
330
66A
100
AcDbEntity
  8
DAMAN
100
AcDbCircle
 10
10.1604817306659
 20
14.55297339180742
 30
0.0
 40
0.1250000000000008
100
AcDbArc
 50
120.0000000000003
 51
240.0000000000004
  0
ARC
  5
7C3
330
66A
100
AcDbEntity
  8
DAMAN
100
AcDbCircle
 10
10.1604817306659
 20
13.90345433896908
 30
0.0
 40
0.1250000000000008
100
AcDbArc
 50
119.9999999999996
 51
239.9999999999995
  0
LINE
  5
7C4
330
66A
100
AcDbEntity
  8
DAMAN
100
AcDbLine
 10
10.07831637013858
 20
13.79520116349604
 30
0.0
 11
10.0354817306659
 21
13.86939293538663
 31
0.0
  0
LINE
  5
7C5
330
66A
100
AcDbEntity
  8
DAMAN
100
AcDbLine
 10
10.07831637013858
 20
14.66122656728048
 30
0.0
 11
10.0354817306659
 21
14.58703479538988
 31
0.0
  0
ARC
  5
7C6
330
66A
100
AcDbEntity
  8
DAMAN
100
AcDbCircle
 10
10.44173173066589
 20
9.353213865388262
 30
0.0
 40
0.4062499999999964
100
AcDbArc
 50
147.7957724960276
 51
212.204227503972
  0
LINE
  5
7C7
330
66A
100
AcDbEntity
  8
DAMAN
100
AcDbLine
 10
10.3479817306659
 20
8.821963865388262
 30
0.0
 11
10.3479817306659
 21
9.884463865388262
 31
0.0
  0
LINE
  5
7C8
330
66A
100
AcDbEntity
  8
DAMAN
100
AcDbLine
 10
10.0354817306659
 20
8.99439293538664
 30
0.0
 11
10.0354817306659
 21
9.712034795389881
 31
0.0
  0
ARC
  5
7C9
330
66A
100
AcDbEntity
  8
DAMAN
100
AcDbCircle
 10
10.1604817306659
 20
9.028454338969096
 30
0.0
 40
0.1250000000000008
100
AcDbArc
 50
119.9999999999996
 51
239.9999999999995
  0
LINE
  5
7CA
330
66A
100
AcDbEntity
  8
DAMAN
100
AcDbLine
 10
10.07831637013858
 20
8.920201163496045
 30
0.0
 11
10.0354817306659
 21
8.99439293538664
 31
0.0
  0
LINE
  5
7CB
330
66A
100
AcDbEntity
  8
DAMAN
100
AcDbLine
 10
10.3479817306659
 20
8.920201163496045
 30
0.0
 11
10.07831637013858
 21
8.920201163496045
 31
0.0
  0
LINE
  5
7CC
330
66A
100
AcDbEntity
  8
DAMAN
100
AcDbLine
 10
10.4104817306659
 20
8.821963865388262
 30
0.0
 11
10.3479817306659
 21
8.821963865388262
 31
0.0
  0
LINE
  5
7CD
330
66A
100
AcDbEntity
  8
DAMAN
100
AcDbLine
 10
10.3479817306659
 20
9.13670751444215
 30
0.0
 11
10.09798173066595
 21
9.13670751444215
 31
0.0
  0
ARC
  5
7CE
330
66A
100
AcDbEntity
  8
DAMAN
100
AcDbCircle
 10
10.1604817306659
 20
9.677973391807427
 30
0.0
 40
0.1250000000000008
100
AcDbArc
 50
120.0000000000003
 51
240.0000000000004
  0
LINE
  5
7CF
330
66A
100
AcDbEntity
  8
DAMAN
100
AcDbLine
 10
10.3479817306659
 20
9.569720216334372
 30
0.0
 11
10.09798173066588
 21
9.569720216334372
 31
0.0
  0
LINE
  5
7D0
330
66A
100
AcDbEntity
  8
DAMAN
100
AcDbLine
 10
10.07831637013858
 20
9.786226567280481
 30
0.0
 11
10.3479817306659
 21
9.786226567280481
 31
0.0
  0
LINE
  5
7D1
330
66A
100
AcDbEntity
  8
DAMAN
100
AcDbLine
 10
10.3479817306659
 20
9.884463865388262
 30
0.0
 11
10.4104817306659
 21
9.884463865388262
 31
0.0
  0
LINE
  5
7D2
330
66A
100
AcDbEntity
  8
DAMAN
100
AcDbLine
 10
10.07831637013858
 20
9.786226567280481
 30
0.0
 11
10.0354817306659
 21
9.712034795389881
 31
0.0
  0
CIRCLE
  5
7D3
330
66A
100
AcDbEntity
  8
DAMAN
100
AcDbCircle
 10
9.535481730665907
 20
9.353213865388262
 30
0.0
 40
0.53125
  0
CIRCLE
  5
7D4
330
66A
100
AcDbEntity
  8
DAMAN
100
AcDbCircle
 10
9.535481730665907
 20
14.22821386538825
 30
0.0
 40
0.53125
  0
LWPOLYLINE
  5
7D5
330
66A
100
AcDbEntity
  8
DAMAN
100
AcDbPolyline
 90
        6
 70
     1
 43
0.0
 10
9.160481730665907
 20
9.136707514442154
 10
9.535481730665907
 20
8.920201163496042
 10
9.910481730665907
 20
9.136707514442154
 10
9.910481730665907
 20
9.569720216334372
 10
9.535481730665907
 20
9.786226567280484
 10
9.160481730665907
 20
9.569720216334372
  0
CIRCLE
  5
7DD
330
66A
100
AcDbEntity
  8
DAMAN
100
AcDbCircle
 10
9.535481730665907
 20
9.353213865388262
 30
0.0
 40
0.375
  0
CIRCLE
  5
7DE
330
66A
100
AcDbEntity
  8
DAMAN
100
AcDbCircle
 10
9.535481730665907
 20
14.22821386538825
 30
0.0
 40
0.375
  0
LWPOLYLINE
  5
7DF
330
66A
100
AcDbEntity
  8
DAMAN
100
AcDbPolyline
 90
        6
 70
     1
 43
0.0
 10
9.160481730665907
 20
14.01170751444215
 10
9.535481730665907
 20
13.79520116349604
 10
9.910481730665907
 20
14.01170751444215
 10
9.910481730665907
 20
14.44472021633436
 10
9.535481730665907
 20
14.66122656728048
 10
9.160481730665907
 20
14.44472021633436
  0
LINE
  5
7E7
330
66A
100
AcDbEntity
  8
DAMAN
100
AcDbLine
 10
7.972981730665906
 20
8.790713865388262
 30
0.0
 11
7.972981730665906
 21
14.79071386538826
 31
0.0
  0
LINE
  5
7E8
330
66A
100
AcDbEntity
  8
DAMAN
100
AcDbLine
 10
10.59798173066589
 20
7.665713865388259
 30
0.0
 11
44.22298173066589
 21
7.665713865388259
 31
0.0
  0
LINE
  5
7E9
330
66A
100
AcDbEntity
  8
DAMAN
100
AcDbLine
 10
10.59798173066589
 20
2.915713865388261
 30
0.0
 11
44.22298173066589
 21
2.915713865388261
 31
0.0
  0
LINE
  5
7EA
330
66A
100
AcDbEntity
  8
DAMAN
100
AcDbLine
 10
10.59798173066589
 20
7.665713865388259
 30
0.0
 11
10.59798173066589
 21
2.915713865388261
 31
0.0
  0
LINE
  5
7EB
330
66A
100
AcDbEntity
  8
DAMAN
100
AcDbLine
 10
44.22298173066589
 20
7.665713865388259
 30
0.0
 11
44.22298173066589
 21
2.915713865388261
 31
0.0
  0
INSERT
  5
7EC
330
66A
100
AcDbEntity
  8
PIPE
100
AcDbBlockReference
  2
100NPTFT
 10
5.597981730665905
 20
16.8370476097642
 30
0.0
  0
INSERT
  5
7ED
330
66A
100
AcDbEntity
  8
PIPE
100
AcDbBlockReference
  2
050NPTFT
 10
11.4729817306663
 20
11.27204760976423
 30
0.0
  0
INSERT
  5
7EE
330
66A
100
AcDbEntity
  8
SAE
100
AcDbBlockReference
  2
16SAET
 10
5.597981730665905
 20
10.85571386538826
 30
0.0
  0
INSERT
  5
7EF
330
66A
100
AcDbEntity
  8
SAE
100
AcDbBlockReference
  2
08SAET
 10
11.4729817306663
 20
5.290713865388311
 30
0.0
  0
INSERT
  5
7F0
330
66A
100
AcDbEntity
  8
BSPP
100
AcDbBlockReference
  2
100BSPPT
 10
5.597981730665877
 20
16.83704760976418
 30
0.0
  0
INSERT
  5
7F1
330
66A
100
AcDbEntity
  8
BSPP
100
AcDbBlockReference
  2
0500BSPPT
 10
11.47298173066628
 20
11.27204760976423
 30
0.0
  0
INSERT
  5
7F2
330
66A
100
AcDbEntity
  8
ISO
100
AcDbBlockReference
  2
M33T
 10
5.597981730665846
 20
16.83704760976413
 30
0.0
  0
INSERT
  5
7F3
330
66A
100
AcDbEntity
  8
ISO
100
AcDbBlockReference
  2
M14T
 10
11.47298173066624
 20
11.27204760976419
 30
0.0
 41
1.094
 42
1.094
 43
1.094
  0
TEXT
  5
7F4
330
66A
100
AcDbEntity
  8
DAMAN
100
AcDbText
 10
6.234970235300702
 20
9.955670988512764
 30
0.0
 40
0.2
  1
P
 50
270.0
100
AcDbText
  0
TEXT
  5
7F5
330
66A
100
AcDbEntity
  8
DAMAN
100
AcDbText
 10
6.587413777428213
 20
14.4495210885818
 30
0.0
 40
0.2
  1
T
 50
270.0
100
AcDbText
  0
INSERT
  5
7F7
330
66A
100
AcDbEntity
  8
PIPE
100
AcDbBlockReference
  2
125NPTFT
 10
5.597981730665905
 20
19.59704760976419
 30
0.0
  0
INSERT
  5
7F8
330
66A
100
AcDbEntity
  8
SAE
100
AcDbBlockReference
  2
20SAET
 10
5.597981730665905
 20
13.61571386538826
 30
0.0
  0
INSERT
  5
7F9
330
66A
100
AcDbEntity
  8
ISO
100
AcDbBlockReference
  2
M42T
 10
5.597981730665905
 20
19.59704760976419
 30
0.0
  0
INSERT
  5
7FA
330
66A
100
AcDbEntity
  8
BSPP
100
AcDbBlockReference
  2
125BSPPT
 10
5.597981730665905
 20
19.59704760976419
 30
0.0
  0
INSERT
  5
7FB
330
66A
100
AcDbEntity
  8
SAE
100
AcDbBlockReference
  2
16SAET
 10
49.2229817306659
 20
10.85571386538826
 30
0.0
 41
-1.0
  0
INSERT
  5
7FC
330
66A
100
AcDbEntity
  8
BSPP
100
AcDbBlockReference
  2
125BSPPT
 10
25.22298173066589
 20
19.59704760976419
 30
0.0
 41
-1.0
  0
LINE
  5
7FD
330
66A
100
AcDbEntity
  8
DAMAN
  6
HIDDEN
100
AcDbLine
 10
51.59798173066589
 20
8.665713865388262
 30
0.0
 11
51.59798173066589
 21
14.91571386538826
 31
0.0
  0
INSERT
  5
7FE
330
66A
100
AcDbEntity
  8
DAMAN
100
AcDbBlockReference
  2
600MKT
 10
51.59548173066589
 20
8.790713865388262
 30
0.0
 41
-1.0
  0
LINE
  5
7FF
330
66A
100
AcDbEntity
  8
DAMAN
100
AcDbLine
 10
46.84798173066589
 20
8.665713865388262
 30
0.0
 11
46.84798173066589
 21
14.91571386538826
 31
0.0
  0
LINE
  5
800
330
66A
100
AcDbEntity
  8
DAMAN
100
AcDbLine
 10
46.84798173066589
 20
8.790713865388262
 30
0.0
 11
46.84798173066589
 21
14.79071386538826
 31
0.0
  0
LINE
  5
801
330
66A
100
AcDbEntity
  8
DAMAN
100
AcDbLine
 10
51.59798173066589
 20
8.665713865388262
 30
0.0
 11
46.84798173066589
 21
8.665713865388262
 31
0.0
  0
INSERT
  5
802
330
66A
100
AcDbEntity
  8
PIPE
100
AcDbBlockReference
  2
100NPTFT
 10
25.22298173066589
 20
16.8370476097642
 30
0.0
 41
-1.0
  0
INSERT
  5
803
330
66A
100
AcDbEntity
  8
ISO
100
AcDbBlockReference
  2
M33T
 10
25.22298173066596
 20
16.83704760976413
 30
0.0
 41
-1.0
  0
INSERT
  5
804
330
66A
100
AcDbEntity
  8
BSPP
100
AcDbBlockReference
  2
100BSPPT
 10
25.22298173066593
 20
16.83704760976418
 30
0.0
 41
-1.0
  0
LINE
  5
805
330
66A
100
AcDbEntity
  8
DAMAN
100
AcDbLine
 10
51.59798173066589
 20
14.91571386538826
 30
0.0
 11
46.84798173066589
 21
14.91571386538826
 31
0.0
  0
INSERT
  5
806
330
66A
100
AcDbEntity
  8
ISO
100
AcDbBlockReference
  2
M42T
 10
25.22298173066589
 20
19.59704760976419
 30
0.0
 41
-1.0
  0
INSERT
  5
807
330
66A
100
AcDbEntity
  8
SAE
100
AcDbBlockReference
  2
20SAET
 10
49.2229817306659
 20
13.61571386538826
 30
0.0
 41
-1.0
  0
INSERT
  5
808
330
66A
100
AcDbEntity
  8
PIPE
100
AcDbBlockReference
  2
125NPTFT
 10
25.22298173066589
 20
19.59704760976419
 30
0.0
 41
-1.0
  0
INSERT
  5
809
330
66A
100
AcDbEntity
  8
DAMAN
100
AcDbBlockReference
  2
600MKST
 10
44.22298173066589
 20
2.915713865388261
 30
0.0
 41
-1.0
  0
LINE
  5
80A
330
66A
100
AcDbEntity
  8
DAMAN
100
AcDbLine
 10
44.41048173066589
 20
14.79071386538826
 30
0.0
 11
44.41048173066589
 21
8.790713865388262
 31
0.0
  0
LINE
  5
80B
330
66A
100
AcDbEntity
  8
DAMAN
100
AcDbLine
 10
44.22298173066589
 20
8.665713865388262
 30
0.0
 11
44.22298173066589
 21
14.91571386538826
 31
0.0
  0
LINE
  5
80C
330
66A
100
AcDbEntity
  8
DAMAN
100
AcDbLine
 10
45.84798173066589
 20
8.790713865388262
 30
0.0
 11
45.84798173066589
 21
14.79071386538826
 31
0.0
  0
LINE
  5
80D
330
66A
100
AcDbEntity
  8
DAMAN
100
AcDbLine
 10
44.22298173066589
 20
8.790713865388262
 30
0.0
 11
45.84798173066589
 21
8.790713865388262
 31
0.0
  0
CIRCLE
  5
80E
330
66A
100
AcDbEntity
  8
DAMAN
100
AcDbCircle
 10
45.28548173066589
 20
9.353213865388262
 30
0.0
 40
0.375
  0
LWPOLYLINE
  5
80F
330
66A
100
AcDbEntity
  8
DAMAN
100
AcDbPolyline
 90
        6
 70
     1
 43
0.0
 10
45.66048173066589
 20
9.136707514442154
 10
45.28548173066589
 20
8.920201163496042
 10
44.91048173066589
 20
9.136707514442154
 10
44.91048173066589
 20
9.569720216334372
 10
45.28548173066589
 20
9.786226567280484
 10
45.66048173066589
 20
9.569720216334372
  0
CIRCLE
  5
817
330
66A
100
AcDbEntity
  8
DAMAN
100
AcDbCircle
 10
45.28548173066589
 20
9.353213865388262
 30
0.0
 40
0.53125
  0
ARC
  5
818
330
66A
100
AcDbEntity
  8
DAMAN
100
AcDbCircle
 10
44.37923173066589
 20
9.353213865388262
 30
0.0
 40
0.4062499999999964
100
AcDbArc
 50
327.7957724960277
 51
32.20422750397233
  0
LINE
  5
819
330
66A
100
AcDbEntity
  8
DAMAN
100
AcDbLine
 10
44.47298173066589
 20
8.821963865388262
 30
0.0
 11
44.47298173066589
 21
9.884463865388262
 31
0.0
  0
LINE
  5
81A
330
66A
100
AcDbEntity
  8
DAMAN
100
AcDbLine
 10
44.78548173066589
 20
8.99439293538664
 30
0.0
 11
44.78548173066589
 21
9.712034795389881
 31
0.0
  0
LINE
  5
81B
330
66A
100
AcDbEntity
  8
DAMAN
100
AcDbLine
 10
44.7426470911932
 20
8.920201163496045
 30
0.0
 11
44.78548173066589
 21
8.99439293538664
 31
0.0
  0
ARC
  5
81C
330
66A
100
AcDbEntity
  8
DAMAN
100
AcDbCircle
 10
44.66048173066589
 20
9.028454338969096
 30
0.0
 40
0.1250000000000008
100
AcDbArc
 50
300.0000000000003
 51
60.00000000000034
  0
LINE
  5
81D
330
66A
100
AcDbEntity
  8
DAMAN
100
AcDbLine
 10
44.47298173066589
 20
9.13670751444215
 30
0.0
 11
44.72298173066586
 21
9.13670751444215
 31
0.0
  0
LINE
  5
81E
330
66A
100
AcDbEntity
  8
DAMAN
100
AcDbLine
 10
44.47298173066589
 20
8.920201163496045
 30
0.0
 11
44.7426470911932
 21
8.920201163496045
 31
0.0
  0
LINE
  5
81F
330
66A
100
AcDbEntity
  8
DAMAN
100
AcDbLine
 10
44.41048173066589
 20
8.821963865388262
 30
0.0
 11
44.47298173066589
 21
8.821963865388262
 31
0.0
  0
LINE
  5
820
330
66A
100
AcDbEntity
  8
DAMAN
100
AcDbLine
 10
44.7426470911932
 20
9.786226567280481
 30
0.0
 11
44.78548173066589
 21
9.712034795389881
 31
0.0
  0
ARC
  5
821
330
66A
100
AcDbEntity
  8
DAMAN
100
AcDbCircle
 10
44.66048173066589
 20
9.677973391807427
 30
0.0
 40
0.1250000000000008
100
AcDbArc
 50
299.9999999999995
 51
59.9999999999997
  0
LINE
  5
822
330
66A
100
AcDbEntity
  8
DAMAN
100
AcDbLine
 10
44.7426470911932
 20
9.786226567280481
 30
0.0
 11
44.47298173066589
 21
9.786226567280481
 31
0.0
  0
LINE
  5
823
330
66A
100
AcDbEntity
  8
DAMAN
100
AcDbLine
 10
44.47298173066589
 20
9.569720216334372
 30
0.0
 11
44.72298173066589
 21
9.569720216334372
 31
0.0
  0
LINE
  5
824
330
66A
100
AcDbEntity
  8
DAMAN
100
AcDbLine
 10
44.47298173066589
 20
9.884463865388262
 30
0.0
 11
44.41048173066589
 21
9.884463865388262
 31
0.0
  0
LINE
  5
825
330
66A
100
AcDbEntity
  8
DAMAN
100
AcDbLine
 10
45.84798173066589
 20
14.79071386538826
 30
0.0
 11
44.22298173066589
 21
14.79071386538826
 31
0.0
  0
LWPOLYLINE
  5
826
330
66A
100
AcDbEntity
  8
DAMAN
100
AcDbPolyline
 90
        6
 70
     1
 43
0.0
 10
45.66048173066589
 20
14.01170751444215
 10
45.28548173066589
 20
13.79520116349604
 10
44.91048173066589
 20
14.01170751444215
 10
44.91048173066589
 20
14.44472021633436
 10
45.28548173066589
 20
14.66122656728048
 10
45.66048173066589
 20
14.44472021633436
  0
CIRCLE
  5
82E
330
66A
100
AcDbEntity
  8
DAMAN
100
AcDbCircle
 10
45.28548173066589
 20
14.22821386538825
 30
0.0
 40
0.375
  0
CIRCLE
  5
82F
330
66A
100
AcDbEntity
  8
DAMAN
100
AcDbCircle
 10
45.28548173066589
 20
14.22821386538825
 30
0.0
 40
0.53125
  0
ARC
  5
830
330
66A
100
AcDbEntity
  8
DAMAN
100
AcDbCircle
 10
44.66048173066589
 20
14.55297339180742
 30
0.0
 40
0.1250000000000008
100
AcDbArc
 50
299.9999999999995
 51
59.9999999999997
  0
LINE
  5
831
330
66A
100
AcDbEntity
  8
DAMAN
100
AcDbLine
 10
44.47298173066589
 20
13.69696386538826
 30
0.0
 11
44.47298173066589
 21
14.75946386538826
 31
0.0
  0
LINE
  5
832
330
66A
100
AcDbEntity
  8
DAMAN
100
AcDbLine
 10
44.78548173066589
 20
13.86939293538663
 30
0.0
 11
44.78548173066589
 21
14.58703479538988
 31
0.0
  0
LINE
  5
833
330
66A
100
AcDbEntity
  8
DAMAN
100
AcDbLine
 10
44.7426470911932
 20
13.79520116349604
 30
0.0
 11
44.78548173066589
 21
13.86939293538663
 31
0.0
  0
ARC
  5
834
330
66A
100
AcDbEntity
  8
DAMAN
100
AcDbCircle
 10
44.66048173066589
 20
13.90345433896908
 30
0.0
 40
0.1250000000000008
100
AcDbArc
 50
300.0000000000003
 51
60.00000000000034
  0
ARC
  5
835
330
66A
100
AcDbEntity
  8
DAMAN
100
AcDbCircle
 10
44.37923173066589
 20
14.22821386538825
 30
0.0
 40
0.4062499999999964
100
AcDbArc
 50
327.7957724960277
 51
32.20422750397233
  0
LINE
  5
836
330
66A
100
AcDbEntity
  8
DAMAN
100
AcDbLine
 10
44.47298173066589
 20
14.44472021633436
 30
0.0
 11
44.72298173066589
 21
14.44472021633436
 31
0.0
  0
LINE
  5
837
330
66A
100
AcDbEntity
  8
DAMAN
100
AcDbLine
 10
44.47298173066589
 20
14.01170751444215
 30
0.0
 11
44.72298173066586
 21
14.01170751444215
 31
0.0
  0
LINE
  5
838
330
66A
100
AcDbEntity
  8
DAMAN
100
AcDbLine
 10
44.47298173066589
 20
13.79520116349604
 30
0.0
 11
44.7426470911932
 21
13.79520116349604
 31
0.0
  0
LINE
  5
839
330
66A
100
AcDbEntity
  8
DAMAN
100
AcDbLine
 10
44.41048173066589
 20
13.69696386538826
 30
0.0
 11
44.47298173066589
 21
13.69696386538826
 31
0.0
  0
LINE
  5
83A
330
66A
100
AcDbEntity
  8
DAMAN
100
AcDbLine
 10
44.7426470911932
 20
14.66122656728048
 30
0.0
 11
44.78548173066589
 21
14.58703479538988
 31
0.0
  0
LINE
  5
83B
330
66A
100
AcDbEntity
  8
DAMAN
100
AcDbLine
 10
44.7426470911932
 20
14.66122656728048
 30
0.0
 11
44.47298173066589
 21
14.66122656728048
 31
0.0
  0
LINE
  5
83C
330
66A
100
AcDbEntity
  8
DAMAN
100
AcDbLine
 10
44.47298173066589
 20
14.75946386538826
 30
0.0
 11
44.41048173066589
 21
14.75946386538826
 31
0.0
  0
INSERT
  5
83D
330
66A
100
AcDbEntity
  8
BSPP
100
AcDbBlockReference
  2
0500BSPPT
 10
13.28548173066628
 20
9.957047609764236
 30
0.0
  0
INSERT
  5
83E
330
66A
100
AcDbEntity
  8
ISO
100
AcDbBlockReference
  2
M14T
 10
13.28548173066623
 20
9.957047609764195
 30
0.0
 41
1.094
 42
1.094
 43
1.094
  0
INSERT
  5
83F
330
66A
100
AcDbEntity
  8
PIPE
100
AcDbBlockReference
  2
050NPTFT
 10
13.2854817306663
 20
9.957047609764254
 30
0.0
  0
INSERT
  5
840
330
66A
100
AcDbEntity
  8
BSPP
100
AcDbBlockReference
  2
0500BSPPT
 10
13.28548173066594
 20
12.58454760976424
 30
0.0
  0
INSERT
  5
841
330
66A
100
AcDbEntity
  8
PIPE
100
AcDbBlockReference
  2
050NPTFT
 10
13.28548173066596
 20
12.58454760976426
 30
0.0
  0
INSERT
  5
842
330
66A
100
AcDbEntity
  8
ISO
100
AcDbBlockReference
  2
M14T
 10
13.2854817306659
 20
12.5845476097642
 30
0.0
 41
1.094
 42
1.094
 43
1.094
  0
TEXT
  5
843
330
66A
100
AcDbEntity
  8
DAMAN
100
AcDbText
 10
14.13282171531478
 20
4.650409588229527
 30
0.0
 40
0.2
  1
A
100
AcDbText
  0
TEXT
  5
844
330
66A
100
AcDbEntity
  8
DAMAN
100
AcDbText
 10
14.13282180287311
 20
7.28104028500924
 30
0.0
 40
0.2
  1
B
100
AcDbText
  0
TEXT
  5
845
330
66A
100
AcDbEntity
  8
DAMAN
100
AcDbText
 10
48.38510214265657
 20
10.05918332375766
 30
0.0
 40
0.2
  1
P
 50
90.0
100
AcDbText
  0
TEXT
  5
846
330
66A
100
AcDbEntity
  8
DAMAN
100
AcDbText
 10
48.38173771444783
 20
14.58278325925464
 30
0.0
 40
0.2
  1
T
 50
90.0
100
AcDbText
  0
TEXT
  5
847
330
66A
100
AcDbEntity
  8
DAMAN
100
AcDbText
 10
12.82979252223542
 20
5.189837424580176
 30
0.0
 40
0.2
  1
DAMAN ****
100
AcDbText
  0
INSERT
  5
848
330
66A
100
AcDbEntity
  8
PIPE
100
AcDbBlockReference
  2
050NPTFT
 10
17.2854817306663
 20
9.957047609764254
 30
0.0
  0
INSERT
  5
849
330
66A
100
AcDbEntity
  8
ISO
100
AcDbBlockReference
  2
M14T
 10
17.28548173066623
 20
9.957047609764195
 30
0.0
 41
1.094
 42
1.094
 43
1.094
  0
INSERT
  5
84A
330
66A
100
AcDbEntity
  8
BSPP
100
AcDbBlockReference
  2
0500BSPPT
 10
17.28548173066628
 20
9.957047609764236
 30
0.0
  0
TEXT
  5
84B
330
66A
100
AcDbEntity
  8
DAMAN
100
AcDbText
 10
18.13282171531478
 20
4.650409588229527
 30
0.0
 40
0.2
  1
A
100
AcDbText
  0
INSERT
  5
84C
330
66A
100
AcDbEntity
  8
BSPP
100
AcDbBlockReference
  2
0500BSPPT
 10
17.28548173066593
 20
12.58454760976424
 30
0.0
  0
INSERT
  5
84D
330
66A
100
AcDbEntity
  8
PIPE
100
AcDbBlockReference
  2
050NPTFT
 10
17.28548173066597
 20
12.58454760976426
 30
0.0
  0
INSERT
  5
84E
330
66A
100
AcDbEntity
  8
ISO
100
AcDbBlockReference
  2
M14T
 10
17.2854817306659
 20
12.5845476097642
 30
0.0
 41
1.094
 42
1.094
 43
1.094
  0
INSERT
  5
850
330
66A
100
AcDbEntity
  8
PIPE
100
AcDbBlockReference
  2
025NPTFT
 10
15.2229817306659
 20
10.64704760976419
 30
0.0
  0
TEXT
  5
852
330
66A
100
AcDbEntity
  8
DAMAN
100
AcDbText
 10
11.85339440687772
 20
5.853879837502012
 30
0.0
 40
0.2
  1
Y
100
AcDbText
  0
INSERT
  5
853
330
66A
100
AcDbEntity
  8
SAE
100
AcDbBlockReference
  2
08SAET
 10
43.34798173066589
 20
5.290713865388261
 30
0.0
  0
INSERT
  5
854
330
66A
100
AcDbEntity
  8
PIPE
100
AcDbBlockReference
  2
050NPTFT
 10
19.34798173066589
 20
11.27204760976419
 30
0.0
  0
INSERT
  5
855
330
66A
100
AcDbEntity
  8
ISO
100
AcDbBlockReference
  2
M14T
 10
19.34798173066583
 20
11.27204760976413
 30
0.0
 41
1.094
 42
1.094
 43
1.094
  0
TEXT
  5
856
330
66A
100
AcDbEntity
  8
DAMAN
100
AcDbText
 10
43.72839440687733
 20
5.853879837501962
 30
0.0
 40
0.2
  1
Y
100
AcDbText
  0
INSERT
  5
857
330
66A
100
AcDbEntity
  8
BSPP
100
AcDbBlockReference
  2
0500BSPPT
 10
19.34798173066587
 20
11.27204760976417
 30
0.0
  0
LINE
  5
858
330
66A
100
AcDbEntity
  8
DAMAN
100
AcDbLine
 10
10.59798173066589
 20
15.91571386538825
 30
0.0
 11
44.22298173066589
 21
15.91571386538825
 31
0.0
  0
LINE
  5
859
330
66A
100
AcDbEntity
  8
DAMAN
100
AcDbLine
 10
10.59798173066589
 20
15.91571386538825
 30
0.0
 11
10.59798173066589
 21
20.66571386538825
 31
0.0
  0
INSERT
  5
85A
330
66A
100
AcDbEntity
  8
DAMAN
100
AcDbBlockReference
  2
600MKST
 10
10.59798173066589
 20
20.66571386538825
 30
0.0
 41
-1.0
 50
180.0
  0
LINE
  5
85B
330
66A
100
AcDbEntity
  8
DAMAN
100
AcDbLine
 10
10.59798173066589
 20
20.66571386538825
 30
0.0
 11
44.22298173066589
 21
20.66571386538825
 31
0.0
  0
INSERT
  5
85C
330
66A
100
AcDbEntity
  8
DAMAN
100
AcDbBlockReference
  2
600MKST
 10
44.22298173066589
 20
20.66571386538825
 30
0.0
 50
180.0
  0
LINE
  5
85D
330
66A
100
AcDbEntity
  8
DAMAN
100
AcDbLine
 10
44.22298173066589
 20
15.91571386538825
 30
0.0
 11
44.22298173066589
 21
20.66571386538825
 31
0.0
  0
INSERT
  5
85E
330
66A
100
AcDbEntity
  8
SAE
100
AcDbBlockReference
  2
16SAET
 10
13.28548173066592
 20
6.603213865388282
 30
0.0
  0
INSERT
  5
85F
330
66A
100
AcDbEntity
  8
SAE
100
AcDbBlockReference
  2
16SAET
 10
13.2854817306663
 20
3.975713865388311
 30
0.0
  0
INSERT
  5
860
330
66A
100
AcDbEntity
  8
SAE
100
AcDbBlockReference
  2
16SAET
 10
17.2854817306663
 20
3.975713865388311
 30
0.0
  0
INSERT
  5
861
330
66A
100
AcDbEntity
  8
SAE
100
AcDbBlockReference
  2
16SAET
 10
17.28548173066597
 20
6.603213865388322
 30
0.0
  0
TEXT
  5
862
330
66A
100
AcDbEntity
  8
DAMAN
100
AcDbText
 10
18.13282180287314
 20
7.28104028500928
 30
0.0
 40
0.2
  1
B
100
AcDbText
  0
INSERT
  5
863
330
66A
100
AcDbEntity
  8
DAMAN
100
AcDbBlockReference
  2
T16AT
 10
15.40997771802264
 20
19.47878274017767
 30
0.0
  0
CIRCLE
  5
865
330
66A
100
AcDbEntity
  8
DAMAN
100
AcDbCircle
 10
14.22298173066588
 20
12.78971386538826
 30
0.0
 40
0.3439999999999999
  0
CIRCLE
  5
866
330
66A
100
AcDbEntity
  8
DAMAN
100
AcDbCircle
 10
14.22298173066588
 20
11.54071386538825
 30
0.0
 40
0.3439999999999999
  0
INSERT
  5
867
330
66A
100
AcDbEntity
  8
DAMAN
100
AcDbBlockReference
  2
100CROSS
 10
14.22298173066588
 20
12.78971386538826
 30
0.0
 41
0.5625
 42
0.5625
  0
INSERT
  5
868
330
66A
100
AcDbEntity
  8
DAMAN
100
AcDbBlockReference
  2
100CROSS
 10
14.22298173066588
 20
11.54071386538825
 30
0.0
 41
0.5625
 42
0.5625
  0
INSERT
  5
869
330
66A
100
AcDbEntity
  8
DAMAN
100
AcDbBlockReference
  2
100CROSS
 10
11.97248173066588
 20
11.53971386538825
 30
0.0
 41
0.25
 42
0.25
  0
CIRCLE
  5
86A
330
66A
100
AcDbEntity
  8
DAMAN
100
AcDbCircle
 10
12.03498173066588
 20
9.508713865388259
 30
0.0
 40
0.1875
  0
CIRCLE
  5
86B
330
66A
100
AcDbEntity
  8
DAMAN
100
AcDbCircle
 10
12.03498173066588
 20
9.508713865388259
 30
0.0
 40
0.15625
  0
INSERT
  5
86C
330
66A
100
AcDbEntity
  8
DAMAN
100
AcDbBlockReference
  2
100CROSS
 10
12.03498173066588
 20
9.508713865388259
 30
0.0
 41
0.375
 42
0.375
  0
CIRCLE
  5
86D
330
66A
100
AcDbEntity
  8
DAMAN
100
AcDbCircle
 10
11.97198173066588
 20
11.53996386538824
 30
0.0
 40
0.125
  0
CIRCLE
  5
86E
330
66A
100
AcDbEntity
  8
DAMAN
100
AcDbCircle
 10
11.97248173066588
 20
11.53971386538825
 30
0.0
 40
0.1055
  0
CIRCLE
  5
86F
330
66A
100
AcDbEntity
  8
DAMAN
100
AcDbCircle
 10
12.59698173066588
 20
10.91471386538825
 30
0.0
 40
0.3439999999999999
  0
INSERT
  5
870
330
66A
100
AcDbEntity
  8
DAMAN
100
AcDbBlockReference
  2
100CROSS
 10
12.59698173066588
 20
10.91471386538825
 30
0.0
 41
0.5625
 42
0.5625
  0
CIRCLE
  5
871
330
66A
100
AcDbEntity
  8
DAMAN
100
AcDbCircle
 10
12.53498173066588
 20
10.04071386538825
 30
0.0
 40
0.125
  0
INSERT
  5
872
330
66A
100
AcDbEntity
  8
DAMAN
100
AcDbBlockReference
  2
100CROSS
 10
12.53498173066588
 20
10.04071386538825
 30
0.0
 41
0.375
 42
0.375
  0
TEXT
  5
873
330
66A
100
AcDbEntity
  8
DAMAN
100
AcDbText
 10
12.65998173066588
 20
10.22746386538825
 30
0.0
 40
0.12
  1
Y
100
AcDbText
  0
TEXT
  5
874
330
66A
100
AcDbEntity
  8
DAMAN
100
AcDbText
 10
12.90998173066588
 20
11.32121386538825
 30
0.0
 40
0.12
  1
B
100
AcDbText
  0
CIRCLE
  5
875
330
66A
100
AcDbEntity
  8
DAMAN
100
AcDbCircle
 10
12.03498173066588
 20
12.78971386538826
 30
0.0
 40
0.0845
  0
CIRCLE
  5
876
330
66A
100
AcDbEntity
  8
DAMAN
100
AcDbCircle
 10
12.03498173066588
 20
13.50871386538825
 30
0.0
 40
0.1875
  0
CIRCLE
  5
877
330
66A
100
AcDbEntity
  8
DAMAN
100
AcDbCircle
 10
12.03498173066588
 20
13.50871386538825
 30
0.0
 40
0.15625
  0
INSERT
  5
878
330
66A
100
AcDbEntity
  8
DAMAN
100
AcDbBlockReference
  2
100CROSS
 10
12.03498173066588
 20
13.50871386538825
 30
0.0
 41
0.375
 42
0.375
  0
INSERT
  5
879
330
66A
100
AcDbEntity
  8
DAMAN
100
AcDbBlockReference
  2
100CROSS
 10
12.03498173066588
 20
12.78971386538826
 30
0.0
 41
0.25
 42
0.25
  0
CIRCLE
  5
87A
330
66A
100
AcDbEntity
  8
DAMAN
100
AcDbCircle
 10
12.59698173066588
 20
12.16471386538826
 30
0.0
 40
0.3439999999999999
  0
INSERT
  5
87B
330
66A
100
AcDbEntity
  8
DAMAN
100
AcDbBlockReference
  2
100CROSS
 10
12.59698173066588
 20
12.16471386538826
 30
0.0
 41
0.5625
 42
0.5625
  0
TEXT
  5
87C
330
66A
100
AcDbEntity
  8
DAMAN
100
AcDbText
 10
12.87873173066588
 20
12.57121386538825
 30
0.0
 40
0.12
  1
A
100
AcDbText
  0
INSERT
  5
87D
330
66A
100
AcDbEntity
  8
DAMAN
100
AcDbBlockReference
  2
100CROSS
 10
14.78498173066588
 20
9.508713865388259
 30
0.0
 41
0.375
 42
0.375
  0
CIRCLE
  5
87E
330
66A
100
AcDbEntity
  8
DAMAN
100
AcDbCircle
 10
14.78498173066588
 20
9.508713865388259
 30
0.0
 40
0.1875
  0
CIRCLE
  5
87F
330
66A
100
AcDbEntity
  8
DAMAN
100
AcDbCircle
 10
14.78498173066588
 20
9.508713865388259
 30
0.0
 40
0.15625
  0
INSERT
  5
880
330
66A
100
AcDbEntity
  8
DAMAN
100
AcDbBlockReference
  2
100CROSS
 10
14.78498173066588
 20
10.49371386538826
 30
0.0
 41
0.25
 42
0.25
  0
CIRCLE
  5
881
330
66A
100
AcDbEntity
  8
DAMAN
100
AcDbCircle
 10
14.78498173066588
 20
10.49371386538826
 30
0.0
 40
0.0845
  0
INSERT
  5
882
330
66A
100
AcDbEntity
  8
DAMAN
100
AcDbBlockReference
  2
100CROSS
 10
14.78498173066588
 20
13.50871386538825
 30
0.0
 41
0.375
 42
0.375
  0
INSERT
  5
883
330
66A
100
AcDbEntity
  8
DAMAN
100
AcDbBlockReference
  2
100CROSS
 10
14.84748173066588
 20
12.16471386538826
 30
0.0
 41
0.25
 42
0.25
  0
TEXT
  5
884
330
66A
100
AcDbEntity
  8
DAMAN
100
AcDbText
 10
14.44123173066588
 20
12.00871386538826
 30
0.0
 40
0.12
  1
P
100
AcDbText
  0
CIRCLE
  5
885
330
66A
100
AcDbEntity
  8
DAMAN
100
AcDbCircle
 10
14.84698173066588
 20
12.16496386538826
 30
0.0
 40
0.125
  0
CIRCLE
  5
886
330
66A
100
AcDbEntity
  8
DAMAN
100
AcDbCircle
 10
14.84748173066588
 20
12.16471386538826
 30
0.0
 40
0.1055
  0
TEXT
  5
887
330
66A
100
AcDbEntity
  8
DAMAN
100
AcDbText
 10
14.47248173066588
 20
13.25871386538826
 30
0.0
 40
0.12
  1
T
100
AcDbText
  0
CIRCLE
  5
888
330
66A
100
AcDbEntity
  8
DAMAN
100
AcDbCircle
 10
14.78498173066588
 20
13.50871386538825
 30
0.0
 40
0.1875
  0
CIRCLE
  5
889
330
66A
100
AcDbEntity
  8
DAMAN
100
AcDbCircle
 10
14.78498173066588
 20
13.50871386538825
 30
0.0
 40
0.15625
  0
CIRCLE
  5
88A
330
66A
100
AcDbEntity
  8
DAMAN
100
AcDbCircle
 10
18.22298173066587
 20
12.78971386538826
 30
0.0
 40
0.3439999999999999
  0
CIRCLE
  5
88B
330
66A
100
AcDbEntity
  8
DAMAN
100
AcDbCircle
 10
18.22298173066587
 20
11.54071386538825
 30
0.0
 40
0.3439999999999999
  0
INSERT
  5
88C
330
66A
100
AcDbEntity
  8
DAMAN
100
AcDbBlockReference
  2
100CROSS
 10
18.22298173066587
 20
12.78971386538826
 30
0.0
 41
0.5625
 42
0.5625
  0
INSERT
  5
88D
330
66A
100
AcDbEntity
  8
DAMAN
100
AcDbBlockReference
  2
100CROSS
 10
18.22298173066587
 20
11.54071386538825
 30
0.0
 41
0.5625
 42
0.5625
  0
INSERT
  5
88E
330
66A
100
AcDbEntity
  8
DAMAN
100
AcDbBlockReference
  2
100CROSS
 10
15.97248173066588
 20
11.53971386538825
 30
0.0
 41
0.25
 42
0.25
  0
CIRCLE
  5
88F
330
66A
100
AcDbEntity
  8
DAMAN
100
AcDbCircle
 10
16.03498173066586
 20
9.508713865388259
 30
0.0
 40
0.1875
  0
CIRCLE
  5
890
330
66A
100
AcDbEntity
  8
DAMAN
100
AcDbCircle
 10
16.03498173066586
 20
9.508713865388259
 30
0.0
 40
0.15625
  0
INSERT
  5
891
330
66A
100
AcDbEntity
  8
DAMAN
100
AcDbBlockReference
  2
100CROSS
 10
16.03498173066586
 20
9.508713865388259
 30
0.0
 41
0.375
 42
0.375
  0
CIRCLE
  5
892
330
66A
100
AcDbEntity
  8
DAMAN
100
AcDbCircle
 10
15.97198173066588
 20
11.53996386538824
 30
0.0
 40
0.125
  0
CIRCLE
  5
893
330
66A
100
AcDbEntity
  8
DAMAN
100
AcDbCircle
 10
15.97248173066588
 20
11.53971386538825
 30
0.0
 40
0.1055
  0
CIRCLE
  5
894
330
66A
100
AcDbEntity
  8
DAMAN
100
AcDbCircle
 10
16.59698173066588
 20
10.91471386538825
 30
0.0
 40
0.3439999999999999
  0
INSERT
  5
895
330
66A
100
AcDbEntity
  8
DAMAN
100
AcDbBlockReference
  2
100CROSS
 10
16.59698173066588
 20
10.91471386538825
 30
0.0
 41
0.5625
 42
0.5625
  0
CIRCLE
  5
896
330
66A
100
AcDbEntity
  8
DAMAN
100
AcDbCircle
 10
16.53498173066588
 20
10.04071386538825
 30
0.0
 40
0.125
  0
INSERT
  5
897
330
66A
100
AcDbEntity
  8
DAMAN
100
AcDbBlockReference
  2
100CROSS
 10
16.53498173066588
 20
10.04071386538825
 30
0.0
 41
0.375
 42
0.375
  0
TEXT
  5
898
330
66A
100
AcDbEntity
  8
DAMAN
100
AcDbText
 10
16.65998173066586
 20
10.22746386538825
 30
0.0
 40
0.12
  1
Y
100
AcDbText
  0
TEXT
  5
899
330
66A
100
AcDbEntity
  8
DAMAN
100
AcDbText
 10
16.90998173066588
 20
11.32121386538825
 30
0.0
 40
0.12
  1
B
100
AcDbText
  0
CIRCLE
  5
89A
330
66A
100
AcDbEntity
  8
DAMAN
100
AcDbCircle
 10
16.03498173066586
 20
12.78971386538826
 30
0.0
 40
0.0845
  0
CIRCLE
  5
89B
330
66A
100
AcDbEntity
  8
DAMAN
100
AcDbCircle
 10
16.03498173066586
 20
13.50871386538825
 30
0.0
 40
0.1875
  0
CIRCLE
  5
89C
330
66A
100
AcDbEntity
  8
DAMAN
100
AcDbCircle
 10
16.03498173066586
 20
13.50871386538825
 30
0.0
 40
0.15625
  0
INSERT
  5
89D
330
66A
100
AcDbEntity
  8
DAMAN
100
AcDbBlockReference
  2
100CROSS
 10
16.03498173066586
 20
13.50871386538825
 30
0.0
 41
0.375
 42
0.375
  0
INSERT
  5
89E
330
66A
100
AcDbEntity
  8
DAMAN
100
AcDbBlockReference
  2
100CROSS
 10
16.03498173066586
 20
12.78971386538826
 30
0.0
 41
0.25
 42
0.25
  0
CIRCLE
  5
89F
330
66A
100
AcDbEntity
  8
DAMAN
100
AcDbCircle
 10
16.59698173066588
 20
12.16471386538826
 30
0.0
 40
0.3439999999999999
  0
INSERT
  5
8A0
330
66A
100
AcDbEntity
  8
DAMAN
100
AcDbBlockReference
  2
100CROSS
 10
16.59698173066588
 20
12.16471386538826
 30
0.0
 41
0.5625
 42
0.5625
  0
TEXT
  5
8A1
330
66A
100
AcDbEntity
  8
DAMAN
100
AcDbText
 10
16.87873173066588
 20
12.57121386538825
 30
0.0
 40
0.12
  1
A
100
AcDbText
  0
INSERT
  5
8A2
330
66A
100
AcDbEntity
  8
DAMAN
100
AcDbBlockReference
  2
100CROSS
 10
18.78498173066588
 20
9.508713865388259
 30
0.0
 41
0.375
 42
0.375
  0
CIRCLE
  5
8A3
330
66A
100
AcDbEntity
  8
DAMAN
100
AcDbCircle
 10
18.78498173066588
 20
9.508713865388259
 30
0.0
 40
0.1875
  0
CIRCLE
  5
8A4
330
66A
100
AcDbEntity
  8
DAMAN
100
AcDbCircle
 10
18.78498173066588
 20
9.508713865388259
 30
0.0
 40
0.15625
  0
INSERT
  5
8A5
330
66A
100
AcDbEntity
  8
DAMAN
100
AcDbBlockReference
  2
100CROSS
 10
18.78498173066588
 20
10.49371386538826
 30
0.0
 41
0.25
 42
0.25
  0
CIRCLE
  5
8A6
330
66A
100
AcDbEntity
  8
DAMAN
100
AcDbCircle
 10
18.78498173066588
 20
10.49371386538826
 30
0.0
 40
0.0845
  0
INSERT
  5
8A7
330
66A
100
AcDbEntity
  8
DAMAN
100
AcDbBlockReference
  2
100CROSS
 10
18.78498173066588
 20
13.50871386538825
 30
0.0
 41
0.375
 42
0.375
  0
INSERT
  5
8A8
330
66A
100
AcDbEntity
  8
DAMAN
100
AcDbBlockReference
  2
100CROSS
 10
18.84748173066587
 20
12.16471386538826
 30
0.0
 41
0.25
 42
0.25
  0
TEXT
  5
8A9
330
66A
100
AcDbEntity
  8
DAMAN
100
AcDbText
 10
18.44123173066588
 20
12.00871386538826
 30
0.0
 40
0.12
  1
P
100
AcDbText
  0
CIRCLE
  5
8AA
330
66A
100
AcDbEntity
  8
DAMAN
100
AcDbCircle
 10
18.84698173066587
 20
12.16496386538826
 30
0.0
 40
0.125
  0
CIRCLE
  5
8AB
330
66A
100
AcDbEntity
  8
DAMAN
100
AcDbCircle
 10
18.84748173066587
 20
12.16471386538826
 30
0.0
 40
0.1055
  0
TEXT
  5
8AC
330
66A
100
AcDbEntity
  8
DAMAN
100
AcDbText
 10
18.47248173066588
 20
13.25871386538826
 30
0.0
 40
0.12
  1
T
100
AcDbText
  0
CIRCLE
  5
8AD
330
66A
100
AcDbEntity
  8
DAMAN
100
AcDbCircle
 10
18.78498173066588
 20
13.50871386538825
 30
0.0
 40
0.1875
  0
CIRCLE
  5
8AE
330
66A
100
AcDbEntity
  8
DAMAN
100
AcDbCircle
 10
18.78498173066588
 20
13.50871386538825
 30
0.0
 40
0.15625
  0
INSERT
  5
8AF
330
66A
100
AcDbEntity
  8
DAMAN
100
AcDbBlockReference
  2
100CROSS
 10
7.472981730665885
 20
11.79071386538826
 30
0.0
 41
0.4999875
 42
0.4999875
 43
1.333299999999999
  0
CIRCLE
  5
8B0
330
66A
100
AcDbEntity
  8
DAMAN
100
AcDbCircle
 10
7.472981730665885
 20
11.79071386538826
 30
0.0
 40
0.208328125
  0
CIRCLE
  5
8B1
330
66A
100
AcDbEntity
  8
DAMAN
100
AcDbCircle
 10
7.472981730665885
 20
11.79071386538826
 30
0.0
 40
0.24999375
  0
CIRCLE
  5
8B2
330
66A
100
AcDbEntity
  8
DAMAN
100
AcDbCircle
 10
47.34798173066589
 20
11.79071386538826
 30
0.0
 40
0.24999375
  0
INSERT
  5
8B3
330
66A
100
AcDbEntity
  8
DAMAN
100
AcDbBlockReference
  2
100CROSS
 10
47.34798173066589
 20
11.79071386538826
 30
0.0
 41
0.4999875
 42
0.4999875
 43
1.333299999999999
  0
CIRCLE
  5
8B4
330
66A
100
AcDbEntity
  8
DAMAN
100
AcDbCircle
 10
47.34798173066589
 20
11.79071386538826
 30
0.0
 40
0.208328125
  0
INSERT
  5
903
330
66A
100
AcDbEntity
  8
SAE
100
AcDbBlockReference
  2
16SAET
 10
41.28548173066628
 20
3.975713865388311
 30
0.0
  0
TEXT
  5
904
330
66A
100
AcDbEntity
  8
DAMAN
100
AcDbText
 10
42.13282171531477
 20
4.650409588229527
 30
0.0
 40
0.2
  1
A
100
AcDbText
  0
INSERT
  5
905
330
66A
100
AcDbEntity
  8
DAMAN
100
AcDbBlockReference
  2
100CROSS
 10
42.84748173066588
 20
12.16471386538826
 30
0.0
 41
0.25
 42
0.25
  0
INSERT
  5
906
330
66A
100
AcDbEntity
  8
DAMAN
100
AcDbBlockReference
  2
100CROSS
 10
42.78498173066586
 20
13.50871386538825
 30
0.0
 41
0.375
 42
0.375
  0
INSERT
  5
907
330
66A
100
AcDbEntity
  8
DAMAN
100
AcDbBlockReference
  2
100CROSS
 10
42.78498173066586
 20
9.508713865388259
 30
0.0
 41
0.375
 42
0.375
  0
CIRCLE
  5
908
330
66A
100
AcDbEntity
  8
DAMAN
100
AcDbCircle
 10
42.78498173066586
 20
9.508713865388259
 30
0.0
 40
0.15625
  0
CIRCLE
  5
909
330
66A
100
AcDbEntity
  8
DAMAN
100
AcDbCircle
 10
42.78498173066586
 20
9.508713865388259
 30
0.0
 40
0.1875
  0
INSERT
  5
90A
330
66A
100
AcDbEntity
  8
DAMAN
100
AcDbBlockReference
  2
100CROSS
 10
40.03498173066588
 20
9.508713865388259
 30
0.0
 41
0.375
 42
0.375
  0
CIRCLE
  5
90B
330
66A
100
AcDbEntity
  8
DAMAN
100
AcDbCircle
 10
40.03498173066588
 20
9.508713865388259
 30
0.0
 40
0.15625
  0
CIRCLE
  5
90C
330
66A
100
AcDbEntity
  8
DAMAN
100
AcDbCircle
 10
40.03498173066588
 20
9.508713865388259
 30
0.0
 40
0.1875
  0
INSERT
  5
90D
330
66A
100
AcDbEntity
  8
SAE
100
AcDbBlockReference
  2
16SAET
 10
41.28548173066596
 20
6.603213865388322
 30
0.0
  0
TEXT
  5
90E
330
66A
100
AcDbEntity
  8
DAMAN
100
AcDbText
 10
42.13282180287314
 20
7.28104028500928
 30
0.0
 40
0.2
  1
B
100
AcDbText
  0
INSERT
  5
90F
330
66A
100
AcDbEntity
  8
DAMAN
100
AcDbBlockReference
  2
100CROSS
 10
40.59698173066588
 20
12.16471386538826
 30
0.0
 41
0.5625
 42
0.5625
  0
CIRCLE
  5
910
330
66A
100
AcDbEntity
  8
DAMAN
100
AcDbCircle
 10
40.59698173066588
 20
12.16471386538826
 30
0.0
 40
0.3439999999999999
  0
INSERT
  5
911
330
66A
100
AcDbEntity
  8
DAMAN
100
AcDbBlockReference
  2
100CROSS
 10
40.53498173066586
 20
10.04071386538825
 30
0.0
 41
0.375
 42
0.375
  0
INSERT
  5
912
330
66A
100
AcDbEntity
  8
DAMAN
100
AcDbBlockReference
  2
100CROSS
 10
40.59698173066588
 20
10.91471386538825
 30
0.0
 41
0.5625
 42
0.5625
  0
CIRCLE
  5
913
330
66A
100
AcDbEntity
  8
DAMAN
100
AcDbCircle
 10
40.59698173066588
 20
10.91471386538825
 30
0.0
 40
0.3439999999999999
  0
CIRCLE
  5
914
330
66A
100
AcDbEntity
  8
DAMAN
100
AcDbCircle
 10
40.53498173066586
 20
10.04071386538825
 30
0.0
 40
0.125
  0
TEXT
  5
915
330
66A
100
AcDbEntity
  8
DAMAN
100
AcDbText
 10
40.65998173066588
 20
10.22746386538825
 30
0.0
 40
0.12
  1
Y
100
AcDbText
  0
CIRCLE
  5
916
330
66A
100
AcDbEntity
  8
DAMAN
100
AcDbCircle
 10
39.97248173066588
 20
11.53971386538825
 30
0.0
 40
0.1055
  0
CIRCLE
  5
917
330
66A
100
AcDbEntity
  8
DAMAN
100
AcDbCircle
 10
39.97198173066588
 20
11.53996386538824
 30
0.0
 40
0.125
  0
INSERT
  5
918
330
66A
100
AcDbEntity
  8
DAMAN
100
AcDbBlockReference
  2
100CROSS
 10
39.97248173066588
 20
11.53971386538825
 30
0.0
 41
0.25
 42
0.25
  0
INSERT
  5
919
330
66A
100
AcDbEntity
  8
DAMAN
100
AcDbBlockReference
  2
100CROSS
 10
40.03498173066588
 20
12.78971386538826
 30
0.0
 41
0.25
 42
0.25
  0
CIRCLE
  5
91A
330
66A
100
AcDbEntity
  8
DAMAN
100
AcDbCircle
 10
40.03498173066588
 20
12.78971386538826
 30
0.0
 40
0.0845
  0
INSERT
  5
91B
330
66A
100
AcDbEntity
  8
DAMAN
100
AcDbBlockReference
  2
100CROSS
 10
40.03498173066588
 20
13.50871386538825
 30
0.0
 41
0.375
 42
0.375
  0
CIRCLE
  5
91C
330
66A
100
AcDbEntity
  8
DAMAN
100
AcDbCircle
 10
40.03498173066588
 20
13.50871386538825
 30
0.0
 40
0.1875
  0
CIRCLE
  5
91D
330
66A
100
AcDbEntity
  8
DAMAN
100
AcDbCircle
 10
40.03498173066588
 20
13.50871386538825
 30
0.0
 40
0.15625
  0
INSERT
  5
91E
330
66A
100
AcDbEntity
  8
DAMAN
100
AcDbBlockReference
  2
100CROSS
 10
42.22298173066588
 20
11.54071386538825
 30
0.0
 41
0.5625
 42
0.5625
  0
CIRCLE
  5
91F
330
66A
100
AcDbEntity
  8
DAMAN
100
AcDbCircle
 10
42.22298173066588
 20
11.54071386538825
 30
0.0
 40
0.3439999999999999
  0
TEXT
  5
920
330
66A
100
AcDbEntity
  8
DAMAN
100
AcDbText
 10
40.90998173066586
 20
11.32121386538825
 30
0.0
 40
0.12
  1
B
100
AcDbText
  0
CIRCLE
  5
921
330
66A
100
AcDbEntity
  8
DAMAN
100
AcDbCircle
 10
42.78498173066586
 20
10.49371386538826
 30
0.0
 40
0.0845
  0
INSERT
  5
922
330
66A
100
AcDbEntity
  8
DAMAN
100
AcDbBlockReference
  2
100CROSS
 10
42.78498173066586
 20
10.49371386538826
 30
0.0
 41
0.25
 42
0.25
  0
INSERT
  5
923
330
66A
100
AcDbEntity
  8
DAMAN
100
AcDbBlockReference
  2
100CROSS
 10
42.22298173066588
 20
12.78971386538826
 30
0.0
 41
0.5625
 42
0.5625
  0
CIRCLE
  5
924
330
66A
100
AcDbEntity
  8
DAMAN
100
AcDbCircle
 10
42.22298173066588
 20
12.78971386538826
 30
0.0
 40
0.3439999999999999
  0
TEXT
  5
925
330
66A
100
AcDbEntity
  8
DAMAN
100
AcDbText
 10
40.87873173066586
 20
12.57121386538825
 30
0.0
 40
0.12
  1
A
100
AcDbText
  0
TEXT
  5
926
330
66A
100
AcDbEntity
  8
DAMAN
100
AcDbText
 10
42.44123173066586
 20
12.00871386538826
 30
0.0
 40
0.12
  1
P
100
AcDbText
  0
CIRCLE
  5
927
330
66A
100
AcDbEntity
  8
DAMAN
100
AcDbCircle
 10
42.84748173066588
 20
12.16471386538826
 30
0.0
 40
0.1055
  0
CIRCLE
  5
928
330
66A
100
AcDbEntity
  8
DAMAN
100
AcDbCircle
 10
42.84698173066586
 20
12.16496386538826
 30
0.0
 40
0.125
  0
CIRCLE
  5
929
330
66A
100
AcDbEntity
  8
DAMAN
100
AcDbCircle
 10
42.78498173066586
 20
13.50871386538825
 30
0.0
 40
0.15625
  0
CIRCLE
  5
92A
330
66A
100
AcDbEntity
  8
DAMAN
100
AcDbCircle
 10
42.78498173066586
 20
13.50871386538825
 30
0.0
 40
0.1875
  0
TEXT
  5
92B
330
66A
100
AcDbEntity
  8
DAMAN
100
AcDbText
 10
42.47248173066586
 20
13.25871386538826
 30
0.0
 40
0.12
  1
T
100
AcDbText
  0
INSERT
  5
94F
330
66A
100
AcDbEntity
  8
SAE
100
AcDbBlockReference
  2
16SAET
 10
21.2854817306663
 20
3.975713865388311
 30
0.0
  0
TEXT
  5
950
330
66A
100
AcDbEntity
  8
DAMAN
100
AcDbText
 10
22.13282171531476
 20
4.650409588229527
 30
0.0
 40
0.2
  1
A
100
AcDbText
  0
INSERT
  5
951
330
66A
100
AcDbEntity
  8
DAMAN
100
AcDbBlockReference
  2
100CROSS
 10
22.84748173066588
 20
12.16471386538826
 30
0.0
 41
0.25
 42
0.25
  0
INSERT
  5
952
330
66A
100
AcDbEntity
  8
DAMAN
100
AcDbBlockReference
  2
100CROSS
 10
22.78498173066588
 20
13.50871386538825
 30
0.0
 41
0.375
 42
0.375
  0
INSERT
  5
953
330
66A
100
AcDbEntity
  8
DAMAN
100
AcDbBlockReference
  2
100CROSS
 10
22.78498173066588
 20
9.508713865388259
 30
0.0
 41
0.375
 42
0.375
  0
CIRCLE
  5
954
330
66A
100
AcDbEntity
  8
DAMAN
100
AcDbCircle
 10
22.78498173066588
 20
9.508713865388259
 30
0.0
 40
0.15625
  0
CIRCLE
  5
955
330
66A
100
AcDbEntity
  8
DAMAN
100
AcDbCircle
 10
22.78498173066588
 20
9.508713865388259
 30
0.0
 40
0.1875
  0
INSERT
  5
956
330
66A
100
AcDbEntity
  8
DAMAN
100
AcDbBlockReference
  2
100CROSS
 10
20.03498173066588
 20
9.508713865388259
 30
0.0
 41
0.375
 42
0.375
  0
CIRCLE
  5
957
330
66A
100
AcDbEntity
  8
DAMAN
100
AcDbCircle
 10
20.03498173066588
 20
9.508713865388259
 30
0.0
 40
0.15625
  0
CIRCLE
  5
958
330
66A
100
AcDbEntity
  8
DAMAN
100
AcDbCircle
 10
20.03498173066588
 20
9.508713865388259
 30
0.0
 40
0.1875
  0
INSERT
  5
959
330
66A
100
AcDbEntity
  8
SAE
100
AcDbBlockReference
  2
16SAET
 10
21.28548173066597
 20
6.603213865388322
 30
0.0
  0
TEXT
  5
95A
330
66A
100
AcDbEntity
  8
DAMAN
100
AcDbText
 10
22.13282180287313
 20
7.28104028500928
 30
0.0
 40
0.2
  1
B
100
AcDbText
  0
INSERT
  5
95B
330
66A
100
AcDbEntity
  8
DAMAN
100
AcDbBlockReference
  2
100CROSS
 10
20.59698173066587
 20
12.16471386538826
 30
0.0
 41
0.5625
 42
0.5625
  0
CIRCLE
  5
95C
330
66A
100
AcDbEntity
  8
DAMAN
100
AcDbCircle
 10
20.59698173066587
 20
12.16471386538826
 30
0.0
 40
0.3439999999999999
  0
INSERT
  5
95D
330
66A
100
AcDbEntity
  8
DAMAN
100
AcDbBlockReference
  2
100CROSS
 10
20.53498173066587
 20
10.04071386538825
 30
0.0
 41
0.375
 42
0.375
  0
INSERT
  5
95E
330
66A
100
AcDbEntity
  8
DAMAN
100
AcDbBlockReference
  2
100CROSS
 10
20.59698173066587
 20
10.91471386538825
 30
0.0
 41
0.5625
 42
0.5625
  0
CIRCLE
  5
95F
330
66A
100
AcDbEntity
  8
DAMAN
100
AcDbCircle
 10
20.59698173066587
 20
10.91471386538825
 30
0.0
 40
0.3439999999999999
  0
CIRCLE
  5
960
330
66A
100
AcDbEntity
  8
DAMAN
100
AcDbCircle
 10
20.53498173066587
 20
10.04071386538825
 30
0.0
 40
0.125
  0
TEXT
  5
961
330
66A
100
AcDbEntity
  8
DAMAN
100
AcDbText
 10
20.65998173066588
 20
10.22746386538825
 30
0.0
 40
0.12
  1
Y
100
AcDbText
  0
CIRCLE
  5
962
330
66A
100
AcDbEntity
  8
DAMAN
100
AcDbCircle
 10
19.97248173066587
 20
11.53971386538825
 30
0.0
 40
0.1055
  0
CIRCLE
  5
963
330
66A
100
AcDbEntity
  8
DAMAN
100
AcDbCircle
 10
19.97198173066587
 20
11.53996386538824
 30
0.0
 40
0.125
  0
INSERT
  5
964
330
66A
100
AcDbEntity
  8
DAMAN
100
AcDbBlockReference
  2
100CROSS
 10
19.97248173066587
 20
11.53971386538825
 30
0.0
 41
0.25
 42
0.25
  0
INSERT
  5
965
330
66A
100
AcDbEntity
  8
DAMAN
100
AcDbBlockReference
  2
100CROSS
 10
20.03498173066588
 20
12.78971386538826
 30
0.0
 41
0.25
 42
0.25
  0
CIRCLE
  5
966
330
66A
100
AcDbEntity
  8
DAMAN
100
AcDbCircle
 10
20.03498173066588
 20
12.78971386538826
 30
0.0
 40
0.0845
  0
INSERT
  5
967
330
66A
100
AcDbEntity
  8
DAMAN
100
AcDbBlockReference
  2
100CROSS
 10
20.03498173066588
 20
13.50871386538825
 30
0.0
 41
0.375
 42
0.375
  0
CIRCLE
  5
968
330
66A
100
AcDbEntity
  8
DAMAN
100
AcDbCircle
 10
20.03498173066588
 20
13.50871386538825
 30
0.0
 40
0.1875
  0
CIRCLE
  5
969
330
66A
100
AcDbEntity
  8
DAMAN
100
AcDbCircle
 10
20.03498173066588
 20
13.50871386538825
 30
0.0
 40
0.15625
  0
INSERT
  5
96A
330
66A
100
AcDbEntity
  8
DAMAN
100
AcDbBlockReference
  2
100CROSS
 10
22.22298173066588
 20
11.54071386538825
 30
0.0
 41
0.5625
 42
0.5625
  0
CIRCLE
  5
96B
330
66A
100
AcDbEntity
  8
DAMAN
100
AcDbCircle
 10
22.22298173066588
 20
11.54071386538825
 30
0.0
 40
0.3439999999999999
  0
TEXT
  5
96C
330
66A
100
AcDbEntity
  8
DAMAN
100
AcDbText
 10
20.90998173066588
 20
11.32121386538825
 30
0.0
 40
0.12
  1
B
100
AcDbText
  0
CIRCLE
  5
96D
330
66A
100
AcDbEntity
  8
DAMAN
100
AcDbCircle
 10
22.78498173066588
 20
10.49371386538826
 30
0.0
 40
0.0845
  0
INSERT
  5
96E
330
66A
100
AcDbEntity
  8
DAMAN
100
AcDbBlockReference
  2
100CROSS
 10
22.78498173066588
 20
10.49371386538826
 30
0.0
 41
0.25
 42
0.25
  0
INSERT
  5
96F
330
66A
100
AcDbEntity
  8
DAMAN
100
AcDbBlockReference
  2
100CROSS
 10
22.22298173066588
 20
12.78971386538826
 30
0.0
 41
0.5625
 42
0.5625
  0
CIRCLE
  5
970
330
66A
100
AcDbEntity
  8
DAMAN
100
AcDbCircle
 10
22.22298173066588
 20
12.78971386538826
 30
0.0
 40
0.3439999999999999
  0
TEXT
  5
971
330
66A
100
AcDbEntity
  8
DAMAN
100
AcDbText
 10
20.87873173066588
 20
12.57121386538825
 30
0.0
 40
0.12
  1
A
100
AcDbText
  0
TEXT
  5
972
330
66A
100
AcDbEntity
  8
DAMAN
100
AcDbText
 10
22.44123173066588
 20
12.00871386538826
 30
0.0
 40
0.12
  1
P
100
AcDbText
  0
CIRCLE
  5
973
330
66A
100
AcDbEntity
  8
DAMAN
100
AcDbCircle
 10
22.84748173066588
 20
12.16471386538826
 30
0.0
 40
0.1055
  0
CIRCLE
  5
974
330
66A
100
AcDbEntity
  8
DAMAN
100
AcDbCircle
 10
22.84698173066586
 20
12.16496386538826
 30
0.0
 40
0.125
  0
CIRCLE
  5
975
330
66A
100
AcDbEntity
  8
DAMAN
100
AcDbCircle
 10
22.78498173066588
 20
13.50871386538825
 30
0.0
 40
0.15625
  0
CIRCLE
  5
976
330
66A
100
AcDbEntity
  8
DAMAN
100
AcDbCircle
 10
22.78498173066588
 20
13.50871386538825
 30
0.0
 40
0.1875
  0
TEXT
  5
977
330
66A
100
AcDbEntity
  8
DAMAN
100
AcDbText
 10
22.47248173066588
 20
13.25871386538826
 30
0.0
 40
0.12
  1
T
100
AcDbText
  0
INSERT
  5
99B
330
66A
100
AcDbEntity
  8
SAE
100
AcDbBlockReference
  2
16SAET
 10
25.2854817306663
 20
3.975713865388311
 30
0.0
  0
TEXT
  5
99C
330
66A
100
AcDbEntity
  8
DAMAN
100
AcDbText
 10
26.13282171531478
 20
4.650409588229527
 30
0.0
 40
0.2
  1
A
100
AcDbText
  0
CIRCLE
  5
99D
330
66A
100
AcDbEntity
  8
DAMAN
100
AcDbCircle
 10
24.03498173066588
 20
9.508713865388259
 30
0.0
 40
0.1875
  0
CIRCLE
  5
99E
330
66A
100
AcDbEntity
  8
DAMAN
100
AcDbCircle
 10
24.03498173066588
 20
9.508713865388259
 30
0.0
 40
0.15625
  0
INSERT
  5
99F
330
66A
100
AcDbEntity
  8
DAMAN
100
AcDbBlockReference
  2
100CROSS
 10
24.03498173066588
 20
9.508713865388259
 30
0.0
 41
0.375
 42
0.375
  0
CIRCLE
  5
9A0
330
66A
100
AcDbEntity
  8
DAMAN
100
AcDbCircle
 10
26.78498173066587
 20
9.508713865388259
 30
0.0
 40
0.1875
  0
CIRCLE
  5
9A1
330
66A
100
AcDbEntity
  8
DAMAN
100
AcDbCircle
 10
26.78498173066587
 20
9.508713865388259
 30
0.0
 40
0.15625
  0
INSERT
  5
9A2
330
66A
100
AcDbEntity
  8
DAMAN
100
AcDbBlockReference
  2
100CROSS
 10
26.78498173066587
 20
9.508713865388259
 30
0.0
 41
0.375
 42
0.375
  0
INSERT
  5
9A3
330
66A
100
AcDbEntity
  8
SAE
100
AcDbBlockReference
  2
16SAET
 10
25.28548173066597
 20
6.603213865388322
 30
0.0
  0
TEXT
  5
9A4
330
66A
100
AcDbEntity
  8
DAMAN
100
AcDbText
 10
26.13282180287313
 20
7.28104028500928
 30
0.0
 40
0.2
  1
B
100
AcDbText
  0
INSERT
  5
9A5
330
66A
100
AcDbEntity
  8
DAMAN
100
AcDbBlockReference
  2
100CROSS
 10
24.59698173066588
 20
12.16471386538826
 30
0.0
 41
0.5625
 42
0.5625
  0
INSERT
  5
9A6
330
66A
100
AcDbEntity
  8
DAMAN
100
AcDbBlockReference
  2
100CROSS
 10
23.97248173066587
 20
11.53971386538825
 30
0.0
 41
0.25
 42
0.25
  0
INSERT
  5
9A7
330
66A
100
AcDbEntity
  8
DAMAN
100
AcDbBlockReference
  2
100CROSS
 10
24.59698173066588
 20
10.91471386538825
 30
0.0
 41
0.5625
 42
0.5625
  0
CIRCLE
  5
9A8
330
66A
100
AcDbEntity
  8
DAMAN
100
AcDbCircle
 10
23.97198173066587
 20
11.53996386538824
 30
0.0
 40
0.125
  0
CIRCLE
  5
9A9
330
66A
100
AcDbEntity
  8
DAMAN
100
AcDbCircle
 10
23.97248173066587
 20
11.53971386538825
 30
0.0
 40
0.1055
  0
CIRCLE
  5
9AA
330
66A
100
AcDbEntity
  8
DAMAN
100
AcDbCircle
 10
24.59698173066588
 20
10.91471386538825
 30
0.0
 40
0.3439999999999999
  0
TEXT
  5
9AB
330
66A
100
AcDbEntity
  8
DAMAN
100
AcDbText
 10
24.65998173066588
 20
10.22746386538825
 30
0.0
 40
0.12
  1
Y
100
AcDbText
  0
INSERT
  5
9AC
330
66A
100
AcDbEntity
  8
DAMAN
100
AcDbBlockReference
  2
100CROSS
 10
24.53498173066588
 20
10.04071386538825
 30
0.0
 41
0.375
 42
0.375
  0
CIRCLE
  5
9AD
330
66A
100
AcDbEntity
  8
DAMAN
100
AcDbCircle
 10
24.53498173066588
 20
10.04071386538825
 30
0.0
 40
0.125
  0
TEXT
  5
9AE
330
66A
100
AcDbEntity
  8
DAMAN
100
AcDbText
 10
24.90998173066587
 20
11.32121386538825
 30
0.0
 40
0.12
  1
B
100
AcDbText
  0
CIRCLE
  5
9AF
330
66A
100
AcDbEntity
  8
DAMAN
100
AcDbCircle
 10
24.03498173066588
 20
13.50871386538825
 30
0.0
 40
0.15625
  0
CIRCLE
  5
9B0
330
66A
100
AcDbEntity
  8
DAMAN
100
AcDbCircle
 10
24.03498173066588
 20
13.50871386538825
 30
0.0
 40
0.1875
  0
INSERT
  5
9B1
330
66A
100
AcDbEntity
  8
DAMAN
100
AcDbBlockReference
  2
100CROSS
 10
24.03498173066588
 20
13.50871386538825
 30
0.0
 41
0.375
 42
0.375
  0
INSERT
  5
9B2
330
66A
100
AcDbEntity
  8
DAMAN
100
AcDbBlockReference
  2
100CROSS
 10
24.03498173066588
 20
12.78971386538826
 30
0.0
 41
0.25
 42
0.25
  0
CIRCLE
  5
9B3
330
66A
100
AcDbEntity
  8
DAMAN
100
AcDbCircle
 10
24.03498173066588
 20
12.78971386538826
 30
0.0
 40
0.0845
  0
CIRCLE
  5
9B4
330
66A
100
AcDbEntity
  8
DAMAN
100
AcDbCircle
 10
24.59698173066588
 20
12.16471386538826
 30
0.0
 40
0.3439999999999999
  0
TEXT
  5
9B5
330
66A
100
AcDbEntity
  8
DAMAN
100
AcDbText
 10
24.87873173066588
 20
12.57121386538825
 30
0.0
 40
0.12
  1
A
100
AcDbText
  0
CIRCLE
  5
9B6
330
66A
100
AcDbEntity
  8
DAMAN
100
AcDbCircle
 10
26.22298173066587
 20
11.54071386538825
 30
0.0
 40
0.3439999999999999
  0
INSERT
  5
9B7
330
66A
100
AcDbEntity
  8
DAMAN
100
AcDbBlockReference
  2
100CROSS
 10
26.22298173066587
 20
11.54071386538825
 30
0.0
 41
0.5625
 42
0.5625
  0
INSERT
  5
9B8
330
66A
100
AcDbEntity
  8
DAMAN
100
AcDbBlockReference
  2
100CROSS
 10
26.78498173066587
 20
10.49371386538826
 30
0.0
 41
0.25
 42
0.25
  0
CIRCLE
  5
9B9
330
66A
100
AcDbEntity
  8
DAMAN
100
AcDbCircle
 10
26.78498173066587
 20
10.49371386538826
 30
0.0
 40
0.0845
  0
CIRCLE
  5
9BA
330
66A
100
AcDbEntity
  8
DAMAN
100
AcDbCircle
 10
26.22298173066587
 20
12.78971386538826
 30
0.0
 40
0.3439999999999999
  0
INSERT
  5
9BB
330
66A
100
AcDbEntity
  8
DAMAN
100
AcDbBlockReference
  2
100CROSS
 10
26.22298173066587
 20
12.78971386538826
 30
0.0
 41
0.5625
 42
0.5625
  0
INSERT
  5
9BC
330
66A
100
AcDbEntity
  8
DAMAN
100
AcDbBlockReference
  2
100CROSS
 10
26.84748173066588
 20
12.16471386538826
 30
0.0
 41
0.25
 42
0.25
  0
TEXT
  5
9BD
330
66A
100
AcDbEntity
  8
DAMAN
100
AcDbText
 10
26.44123173066588
 20
12.00871386538826
 30
0.0
 40
0.12
  1
P
100
AcDbText
  0
CIRCLE
  5
9BE
330
66A
100
AcDbEntity
  8
DAMAN
100
AcDbCircle
 10
26.84698173066587
 20
12.16496386538826
 30
0.0
 40
0.125
  0
CIRCLE
  5
9BF
330
66A
100
AcDbEntity
  8
DAMAN
100
AcDbCircle
 10
26.84748173066588
 20
12.16471386538826
 30
0.0
 40
0.1055
  0
INSERT
  5
9C0
330
66A
100
AcDbEntity
  8
DAMAN
100
AcDbBlockReference
  2
100CROSS
 10
26.78498173066587
 20
13.50871386538825
 30
0.0
 41
0.375
 42
0.375
  0
CIRCLE
  5
9C1
330
66A
100
AcDbEntity
  8
DAMAN
100
AcDbCircle
 10
26.78498173066587
 20
13.50871386538825
 30
0.0
 40
0.1875
  0
CIRCLE
  5
9C2
330
66A
100
AcDbEntity
  8
DAMAN
100
AcDbCircle
 10
26.78498173066587
 20
13.50871386538825
 30
0.0
 40
0.15625
  0
TEXT
  5
9C3
330
66A
100
AcDbEntity
  8
DAMAN
100
AcDbText
 10
26.47248173066587
 20
13.25871386538826
 30
0.0
 40
0.12
  1
T
100
AcDbText
  0
INSERT
  5
9E7
330
66A
100
AcDbEntity
  8
SAE
100
AcDbBlockReference
  2
16SAET
 10
29.2854817306663
 20
3.975713865388311
 30
0.0
  0
TEXT
  5
9E8
330
66A
100
AcDbEntity
  8
DAMAN
100
AcDbText
 10
30.13282171531478
 20
4.650409588229527
 30
0.0
 40
0.2
  1
A
100
AcDbText
  0
INSERT
  5
9E9
330
66A
100
AcDbEntity
  8
DAMAN
100
AcDbBlockReference
  2
100CROSS
 10
30.78498173066588
 20
9.508713865388259
 30
0.0
 41
0.375
 42
0.375
  0
CIRCLE
  5
9EA
330
66A
100
AcDbEntity
  8
DAMAN
100
AcDbCircle
 10
30.78498173066588
 20
9.508713865388259
 30
0.0
 40
0.15625
  0
CIRCLE
  5
9EB
330
66A
100
AcDbEntity
  8
DAMAN
100
AcDbCircle
 10
30.78498173066588
 20
9.508713865388259
 30
0.0
 40
0.1875
  0
INSERT
  5
9EC
330
66A
100
AcDbEntity
  8
DAMAN
100
AcDbBlockReference
  2
100CROSS
 10
28.03498173066587
 20
9.508713865388259
 30
0.0
 41
0.375
 42
0.375
  0
CIRCLE
  5
9ED
330
66A
100
AcDbEntity
  8
DAMAN
100
AcDbCircle
 10
28.03498173066587
 20
9.508713865388259
 30
0.0
 40
0.15625
  0
CIRCLE
  5
9EE
330
66A
100
AcDbEntity
  8
DAMAN
100
AcDbCircle
 10
28.03498173066587
 20
9.508713865388259
 30
0.0
 40
0.1875
  0
INSERT
  5
9EF
330
66A
100
AcDbEntity
  8
SAE
100
AcDbBlockReference
  2
16SAET
 10
29.28548173066597
 20
6.603213865388322
 30
0.0
  0
TEXT
  5
9F0
330
66A
100
AcDbEntity
  8
DAMAN
100
AcDbText
 10
30.13282180287314
 20
7.28104028500928
 30
0.0
 40
0.2
  1
B
100
AcDbText
  0
INSERT
  5
9F1
330
66A
100
AcDbEntity
  8
DAMAN
100
AcDbBlockReference
  2
100CROSS
 10
30.22298173066586
 20
12.78971386538826
 30
0.0
 41
0.5625
 42
0.5625
  0
INSERT
  5
9F2
330
66A
100
AcDbEntity
  8
DAMAN
100
AcDbBlockReference
  2
100CROSS
 10
30.22298173066586
 20
11.54071386538825
 30
0.0
 41
0.5625
 42
0.5625
  0
INSERT
  5
9F3
330
66A
100
AcDbEntity
  8
DAMAN
100
AcDbBlockReference
  2
100CROSS
 10
28.59698173066588
 20
12.16471386538826
 30
0.0
 41
0.5625
 42
0.5625
  0
INSERT
  5
9F4
330
66A
100
AcDbEntity
  8
DAMAN
100
AcDbBlockReference
  2
100CROSS
 10
28.53498173066588
 20
10.04071386538825
 30
0.0
 41
0.375
 42
0.375
  0
TEXT
  5
9F5
330
66A
100
AcDbEntity
  8
DAMAN
100
AcDbText
 10
28.65998173066587
 20
10.22746386538825
 30
0.0
 40
0.12
  1
Y
100
AcDbText
  0
CIRCLE
  5
9F6
330
66A
100
AcDbEntity
  8
DAMAN
100
AcDbCircle
 10
28.59698173066588
 20
10.91471386538825
 30
0.0
 40
0.3439999999999999
  0
INSERT
  5
9F7
330
66A
100
AcDbEntity
  8
DAMAN
100
AcDbBlockReference
  2
100CROSS
 10
28.59698173066588
 20
10.91471386538825
 30
0.0
 41
0.5625
 42
0.5625
  0
CIRCLE
  5
9F8
330
66A
100
AcDbEntity
  8
DAMAN
100
AcDbCircle
 10
28.53498173066588
 20
10.04071386538825
 30
0.0
 40
0.125
  0
INSERT
  5
9F9
330
66A
100
AcDbEntity
  8
DAMAN
100
AcDbBlockReference
  2
100CROSS
 10
27.97248173066588
 20
11.53971386538825
 30
0.0
 41
0.25
 42
0.25
  0
CIRCLE
  5
9FA
330
66A
100
AcDbEntity
  8
DAMAN
100
AcDbCircle
 10
27.97198173066588
 20
11.53996386538824
 30
0.0
 40
0.125
  0
CIRCLE
  5
9FB
330
66A
100
AcDbEntity
  8
DAMAN
100
AcDbCircle
 10
27.97248173066588
 20
11.53971386538825
 30
0.0
 40
0.1055
  0
TEXT
  5
9FC
330
66A
100
AcDbEntity
  8
DAMAN
100
AcDbText
 10
28.90998173066588
 20
11.32121386538825
 30
0.0
 40
0.12
  1
B
100
AcDbText
  0
CIRCLE
  5
9FD
330
66A
100
AcDbEntity
  8
DAMAN
100
AcDbCircle
 10
28.59698173066588
 20
12.16471386538826
 30
0.0
 40
0.3439999999999999
  0
INSERT
  5
9FE
330
66A
100
AcDbEntity
  8
DAMAN
100
AcDbBlockReference
  2
100CROSS
 10
28.03498173066587
 20
12.78971386538826
 30
0.0
 41
0.25
 42
0.25
  0
CIRCLE
  5
9FF
330
66A
100
AcDbEntity
  8
DAMAN
100
AcDbCircle
 10
28.03498173066587
 20
12.78971386538826
 30
0.0
 40
0.0845
  0
INSERT
  5
A00
330
66A
100
AcDbEntity
  8
DAMAN
100
AcDbBlockReference
  2
100CROSS
 10
28.03498173066587
 20
13.50871386538825
 30
0.0
 41
0.375
 42
0.375
  0
CIRCLE
  5
A01
330
66A
100
AcDbEntity
  8
DAMAN
100
AcDbCircle
 10
28.03498173066587
 20
13.50871386538825
 30
0.0
 40
0.1875
  0
CIRCLE
  5
A02
330
66A
100
AcDbEntity
  8
DAMAN
100
AcDbCircle
 10
28.03498173066587
 20
13.50871386538825
 30
0.0
 40
0.15625
  0
TEXT
  5
A03
330
66A
100
AcDbEntity
  8
DAMAN
100
AcDbText
 10
28.87873173066587
 20
12.57121386538825
 30
0.0
 40
0.12
  1
A
100
AcDbText
  0
CIRCLE
  5
A04
330
66A
100
AcDbEntity
  8
DAMAN
100
AcDbCircle
 10
30.22298173066586
 20
11.54071386538825
 30
0.0
 40
0.3439999999999999
  0
INSERT
  5
A05
330
66A
100
AcDbEntity
  8
DAMAN
100
AcDbBlockReference
  2
100CROSS
 10
30.78498173066588
 20
10.49371386538826
 30
0.0
 41
0.25
 42
0.25
  0
CIRCLE
  5
A06
330
66A
100
AcDbEntity
  8
DAMAN
100
AcDbCircle
 10
30.78498173066588
 20
10.49371386538826
 30
0.0
 40
0.0845
  0
CIRCLE
  5
A07
330
66A
100
AcDbEntity
  8
DAMAN
100
AcDbCircle
 10
30.78498173066588
 20
13.50871386538825
 30
0.0
 40
0.1875
  0
INSERT
  5
A08
330
66A
100
AcDbEntity
  8
DAMAN
100
AcDbBlockReference
  2
100CROSS
 10
30.78498173066588
 20
13.50871386538825
 30
0.0
 41
0.375
 42
0.375
  0
CIRCLE
  5
A09
330
66A
100
AcDbEntity
  8
DAMAN
100
AcDbCircle
 10
30.84698173066588
 20
12.16496386538826
 30
0.0
 40
0.125
  0
INSERT
  5
A0A
330
66A
100
AcDbEntity
  8
DAMAN
100
AcDbBlockReference
  2
100CROSS
 10
30.84748173066587
 20
12.16471386538826
 30
0.0
 41
0.25
 42
0.25
  0
CIRCLE
  5
A0B
330
66A
100
AcDbEntity
  8
DAMAN
100
AcDbCircle
 10
30.22298173066586
 20
12.78971386538826
 30
0.0
 40
0.3439999999999999
  0
TEXT
  5
A0C
330
66A
100
AcDbEntity
  8
DAMAN
100
AcDbText
 10
30.44123173066588
 20
12.00871386538826
 30
0.0
 40
0.12
  1
P
100
AcDbText
  0
CIRCLE
  5
A0D
330
66A
100
AcDbEntity
  8
DAMAN
100
AcDbCircle
 10
30.84748173066587
 20
12.16471386538826
 30
0.0
 40
0.1055
  0
CIRCLE
  5
A0E
330
66A
100
AcDbEntity
  8
DAMAN
100
AcDbCircle
 10
30.78498173066588
 20
13.50871386538825
 30
0.0
 40
0.15625
  0
TEXT
  5
A0F
330
66A
100
AcDbEntity
  8
DAMAN
100
AcDbText
 10
30.47248173066588
 20
13.25871386538826
 30
0.0
 40
0.12
  1
T
100
AcDbText
  0
INSERT
  5
A33
330
66A
100
AcDbEntity
  8
SAE
100
AcDbBlockReference
  2
16SAET
 10
33.28548173066629
 20
3.975713865388311
 30
0.0
  0
TEXT
  5
A34
330
66A
100
AcDbEntity
  8
DAMAN
100
AcDbText
 10
34.13282171531477
 20
4.650409588229527
 30
0.0
 40
0.2
  1
A
100
AcDbText
  0
CIRCLE
  5
A35
330
66A
100
AcDbEntity
  8
DAMAN
100
AcDbCircle
 10
32.03498173066587
 20
13.50871386538825
 30
0.0
 40
0.15625
  0
CIRCLE
  5
A36
330
66A
100
AcDbEntity
  8
DAMAN
100
AcDbCircle
 10
32.03498173066587
 20
13.50871386538825
 30
0.0
 40
0.1875
  0
INSERT
  5
A37
330
66A
100
AcDbEntity
  8
DAMAN
100
AcDbBlockReference
  2
100CROSS
 10
32.03498173066587
 20
13.50871386538825
 30
0.0
 41
0.375
 42
0.375
  0
CIRCLE
  5
A38
330
66A
100
AcDbEntity
  8
DAMAN
100
AcDbCircle
 10
32.03498173066587
 20
12.78971386538826
 30
0.0
 40
0.0845
  0
INSERT
  5
A39
330
66A
100
AcDbEntity
  8
DAMAN
100
AcDbBlockReference
  2
100CROSS
 10
32.03498173066587
 20
12.78971386538826
 30
0.0
 41
0.25
 42
0.25
  0
CIRCLE
  5
A3A
330
66A
100
AcDbEntity
  8
DAMAN
100
AcDbCircle
 10
31.97198173066587
 20
11.53996386538824
 30
0.0
 40
0.125
  0
INSERT
  5
A3B
330
66A
100
AcDbEntity
  8
DAMAN
100
AcDbBlockReference
  2
100CROSS
 10
31.97248173066588
 20
11.53971386538825
 30
0.0
 41
0.25
 42
0.25
  0
INSERT
  5
A3C
330
66A
100
AcDbEntity
  8
SAE
100
AcDbBlockReference
  2
16SAET
 10
33.28548173066597
 20
6.603213865388322
 30
0.0
  0
CIRCLE
  5
A3D
330
66A
100
AcDbEntity
  8
DAMAN
100
AcDbCircle
 10
32.03498173066587
 20
9.508713865388259
 30
0.0
 40
0.1875
  0
CIRCLE
  5
A3E
330
66A
100
AcDbEntity
  8
DAMAN
100
AcDbCircle
 10
32.03498173066587
 20
9.508713865388259
 30
0.0
 40
0.15625
  0
INSERT
  5
A3F
330
66A
100
AcDbEntity
  8
DAMAN
100
AcDbBlockReference
  2
100CROSS
 10
32.03498173066587
 20
9.508713865388259
 30
0.0
 41
0.375
 42
0.375
  0
CIRCLE
  5
A40
330
66A
100
AcDbEntity
  8
DAMAN
100
AcDbCircle
 10
31.97248173066588
 20
11.53971386538825
 30
0.0
 40
0.1055
  0
CIRCLE
  5
A41
330
66A
100
AcDbEntity
  8
DAMAN
100
AcDbCircle
 10
34.78498173066586
 20
9.508713865388259
 30
0.0
 40
0.1875
  0
CIRCLE
  5
A42
330
66A
100
AcDbEntity
  8
DAMAN
100
AcDbCircle
 10
34.78498173066586
 20
9.508713865388259
 30
0.0
 40
0.15625
  0
INSERT
  5
A43
330
66A
100
AcDbEntity
  8
DAMAN
100
AcDbBlockReference
  2
100CROSS
 10
34.78498173066586
 20
9.508713865388259
 30
0.0
 41
0.375
 42
0.375
  0
TEXT
  5
A44
330
66A
100
AcDbEntity
  8
DAMAN
100
AcDbText
 10
34.13282180287314
 20
7.28104028500928
 30
0.0
 40
0.2
  1
B
100
AcDbText
  0
CIRCLE
  5
A45
330
66A
100
AcDbEntity
  8
DAMAN
100
AcDbCircle
 10
34.22298173066588
 20
12.78971386538826
 30
0.0
 40
0.3439999999999999
  0
CIRCLE
  5
A46
330
66A
100
AcDbEntity
  8
DAMAN
100
AcDbCircle
 10
34.22298173066588
 20
11.54071386538825
 30
0.0
 40
0.3439999999999999
  0
INSERT
  5
A47
330
66A
100
AcDbEntity
  8
DAMAN
100
AcDbBlockReference
  2
100CROSS
 10
34.22298173066588
 20
11.54071386538825
 30
0.0
 41
0.5625
 42
0.5625
  0
INSERT
  5
A48
330
66A
100
AcDbEntity
  8
DAMAN
100
AcDbBlockReference
  2
100CROSS
 10
34.22298173066588
 20
12.78971386538826
 30
0.0
 41
0.5625
 42
0.5625
  0
INSERT
  5
A49
330
66A
100
AcDbEntity
  8
DAMAN
100
AcDbBlockReference
  2
100CROSS
 10
32.59698173066588
 20
12.16471386538826
 30
0.0
 41
0.5625
 42
0.5625
  0
INSERT
  5
A4A
330
66A
100
AcDbEntity
  8
DAMAN
100
AcDbBlockReference
  2
100CROSS
 10
32.59698173066588
 20
10.91471386538825
 30
0.0
 41
0.5625
 42
0.5625
  0
CIRCLE
  5
A4B
330
66A
100
AcDbEntity
  8
DAMAN
100
AcDbCircle
 10
32.59698173066588
 20
10.91471386538825
 30
0.0
 40
0.3439999999999999
  0
TEXT
  5
A4C
330
66A
100
AcDbEntity
  8
DAMAN
100
AcDbText
 10
32.65998173066587
 20
10.22746386538825
 30
0.0
 40
0.12
  1
Y
100
AcDbText
  0
INSERT
  5
A4D
330
66A
100
AcDbEntity
  8
DAMAN
100
AcDbBlockReference
  2
100CROSS
 10
32.53498173066587
 20
10.04071386538825
 30
0.0
 41
0.375
 42
0.375
  0
CIRCLE
  5
A4E
330
66A
100
AcDbEntity
  8
DAMAN
100
AcDbCircle
 10
32.53498173066587
 20
10.04071386538825
 30
0.0
 40
0.125
  0
TEXT
  5
A4F
330
66A
100
AcDbEntity
  8
DAMAN
100
AcDbText
 10
32.90998173066586
 20
11.32121386538825
 30
0.0
 40
0.12
  1
B
100
AcDbText
  0
CIRCLE
  5
A50
330
66A
100
AcDbEntity
  8
DAMAN
100
AcDbCircle
 10
32.59698173066588
 20
12.16471386538826
 30
0.0
 40
0.3439999999999999
  0
TEXT
  5
A51
330
66A
100
AcDbEntity
  8
DAMAN
100
AcDbText
 10
32.87873173066587
 20
12.57121386538825
 30
0.0
 40
0.12
  1
A
100
AcDbText
  0
INSERT
  5
A52
330
66A
100
AcDbEntity
  8
DAMAN
100
AcDbBlockReference
  2
100CROSS
 10
34.78498173066586
 20
10.49371386538826
 30
0.0
 41
0.25
 42
0.25
  0
CIRCLE
  5
A53
330
66A
100
AcDbEntity
  8
DAMAN
100
AcDbCircle
 10
34.78498173066586
 20
10.49371386538826
 30
0.0
 40
0.0845
  0
CIRCLE
  5
A54
330
66A
100
AcDbEntity
  8
DAMAN
100
AcDbCircle
 10
34.84748173066587
 20
12.16471386538826
 30
0.0
 40
0.1055
  0
INSERT
  5
A55
330
66A
100
AcDbEntity
  8
DAMAN
100
AcDbBlockReference
  2
100CROSS
 10
34.84748173066587
 20
12.16471386538826
 30
0.0
 41
0.25
 42
0.25
  0
CIRCLE
  5
A56
330
66A
100
AcDbEntity
  8
DAMAN
100
AcDbCircle
 10
34.84698173066586
 20
12.16496386538826
 30
0.0
 40
0.125
  0
TEXT
  5
A57
330
66A
100
AcDbEntity
  8
DAMAN
100
AcDbText
 10
34.44123173066587
 20
12.00871386538826
 30
0.0
 40
0.12
  1
P
100
AcDbText
  0
CIRCLE
  5
A58
330
66A
100
AcDbEntity
  8
DAMAN
100
AcDbCircle
 10
34.78498173066586
 20
13.50871386538825
 30
0.0
 40
0.15625
  0
INSERT
  5
A59
330
66A
100
AcDbEntity
  8
DAMAN
100
AcDbBlockReference
  2
100CROSS
 10
34.78498173066586
 20
13.50871386538825
 30
0.0
 41
0.375
 42
0.375
  0
CIRCLE
  5
A5A
330
66A
100
AcDbEntity
  8
DAMAN
100
AcDbCircle
 10
34.78498173066586
 20
13.50871386538825
 30
0.0
 40
0.1875
  0
TEXT
  5
A5B
330
66A
100
AcDbEntity
  8
DAMAN
100
AcDbText
 10
34.47248173066586
 20
13.25871386538826
 30
0.0
 40
0.12
  1
T
100
AcDbText
  0
CIRCLE
  5
A7F
330
66A
100
AcDbEntity
  8
DAMAN
100
AcDbCircle
 10
36.59698173066588
 20
12.16471386538826
 30
0.0
 40
0.3439999999999999
  0
CIRCLE
  5
A80
330
66A
100
AcDbEntity
  8
DAMAN
100
AcDbCircle
 10
36.53498173066586
 20
10.04071386538825
 30
0.0
 40
0.125
  0
INSERT
  5
A81
330
66A
100
AcDbEntity
  8
DAMAN
100
AcDbBlockReference
  2
100CROSS
 10
36.53498173066586
 20
10.04071386538825
 30
0.0
 41
0.375
 42
0.375
  0
CIRCLE
  5
A82
330
66A
100
AcDbEntity
  8
DAMAN
100
AcDbCircle
 10
36.59698173066588
 20
10.91471386538825
 30
0.0
 40
0.3439999999999999
  0
INSERT
  5
A83
330
66A
100
AcDbEntity
  8
DAMAN
100
AcDbBlockReference
  2
100CROSS
 10
36.59698173066588
 20
10.91471386538825
 30
0.0
 41
0.5625
 42
0.5625
  0
INSERT
  5
A84
330
66A
100
AcDbEntity
  8
DAMAN
100
AcDbBlockReference
  2
100CROSS
 10
36.59698173066588
 20
12.16471386538826
 30
0.0
 41
0.5625
 42
0.5625
  0
INSERT
  5
A85
330
66A
100
AcDbEntity
  8
SAE
100
AcDbBlockReference
  2
16SAET
 10
37.28548173066597
 20
6.603213865388322
 30
0.0
  0
INSERT
  5
A86
330
66A
100
AcDbEntity
  8
SAE
100
AcDbBlockReference
  2
16SAET
 10
37.28548173066629
 20
3.975713865388311
 30
0.0
  0
INSERT
  5
A87
330
66A
100
AcDbEntity
  8
DAMAN
100
AcDbBlockReference
  2
100CROSS
 10
36.03498173066586
 20
9.508713865388259
 30
0.0
 41
0.375
 42
0.375
  0
CIRCLE
  5
A88
330
66A
100
AcDbEntity
  8
DAMAN
100
AcDbCircle
 10
36.03498173066586
 20
9.508713865388259
 30
0.0
 40
0.15625
  0
CIRCLE
  5
A89
330
66A
100
AcDbEntity
  8
DAMAN
100
AcDbCircle
 10
36.03498173066586
 20
9.508713865388259
 30
0.0
 40
0.1875
  0
CIRCLE
  5
A8A
330
66A
100
AcDbEntity
  8
DAMAN
100
AcDbCircle
 10
35.97248173066588
 20
11.53971386538825
 30
0.0
 40
0.1055
  0
INSERT
  5
A8B
330
66A
100
AcDbEntity
  8
DAMAN
100
AcDbBlockReference
  2
100CROSS
 10
35.97248173066588
 20
11.53971386538825
 30
0.0
 41
0.25
 42
0.25
  0
CIRCLE
  5
A8C
330
66A
100
AcDbEntity
  8
DAMAN
100
AcDbCircle
 10
35.97198173066588
 20
11.53996386538824
 30
0.0
 40
0.125
  0
INSERT
  5
A8D
330
66A
100
AcDbEntity
  8
DAMAN
100
AcDbBlockReference
  2
100CROSS
 10
36.03498173066586
 20
12.78971386538826
 30
0.0
 41
0.25
 42
0.25
  0
CIRCLE
  5
A8E
330
66A
100
AcDbEntity
  8
DAMAN
100
AcDbCircle
 10
36.03498173066586
 20
12.78971386538826
 30
0.0
 40
0.0845
  0
INSERT
  5
A8F
330
66A
100
AcDbEntity
  8
DAMAN
100
AcDbBlockReference
  2
100CROSS
 10
36.03498173066586
 20
13.50871386538825
 30
0.0
 41
0.375
 42
0.375
  0
CIRCLE
  5
A90
330
66A
100
AcDbEntity
  8
DAMAN
100
AcDbCircle
 10
36.03498173066586
 20
13.50871386538825
 30
0.0
 40
0.1875
  0
CIRCLE
  5
A91
330
66A
100
AcDbEntity
  8
DAMAN
100
AcDbCircle
 10
36.03498173066586
 20
13.50871386538825
 30
0.0
 40
0.15625
  0
TEXT
  5
A92
330
66A
100
AcDbEntity
  8
DAMAN
100
AcDbText
 10
38.13282171531477
 20
4.650409588229527
 30
0.0
 40
0.2
  1
A
100
AcDbText
  0
INSERT
  5
A93
330
66A
100
AcDbEntity
  8
DAMAN
100
AcDbBlockReference
  2
100CROSS
 10
38.78498173066586
 20
9.508713865388259
 30
0.0
 41
0.375
 42
0.375
  0
CIRCLE
  5
A94
330
66A
100
AcDbEntity
  8
DAMAN
100
AcDbCircle
 10
38.78498173066586
 20
9.508713865388259
 30
0.0
 40
0.15625
  0
CIRCLE
  5
A95
330
66A
100
AcDbEntity
  8
DAMAN
100
AcDbCircle
 10
38.78498173066586
 20
9.508713865388259
 30
0.0
 40
0.1875
  0
TEXT
  5
A96
330
66A
100
AcDbEntity
  8
DAMAN
100
AcDbText
 10
38.13282180287314
 20
7.28104028500928
 30
0.0
 40
0.2
  1
B
100
AcDbText
  0
CIRCLE
  5
A97
330
66A
100
AcDbEntity
  8
DAMAN
100
AcDbCircle
 10
38.78498173066586
 20
13.50871386538825
 30
0.0
 40
0.1875
  0
INSERT
  5
A98
330
66A
100
AcDbEntity
  8
DAMAN
100
AcDbBlockReference
  2
100CROSS
 10
38.78498173066586
 20
13.50871386538825
 30
0.0
 41
0.375
 42
0.375
  0
CIRCLE
  5
A99
330
66A
100
AcDbEntity
  8
DAMAN
100
AcDbCircle
 10
38.78498173066586
 20
13.50871386538825
 30
0.0
 40
0.15625
  0
CIRCLE
  5
A9A
330
66A
100
AcDbEntity
  8
DAMAN
100
AcDbCircle
 10
38.84698173066587
 20
12.16496386538826
 30
0.0
 40
0.125
  0
INSERT
  5
A9B
330
66A
100
AcDbEntity
  8
DAMAN
100
AcDbBlockReference
  2
100CROSS
 10
38.84748173066586
 20
12.16471386538826
 30
0.0
 41
0.25
 42
0.25
  0
CIRCLE
  5
A9C
330
66A
100
AcDbEntity
  8
DAMAN
100
AcDbCircle
 10
38.84748173066586
 20
12.16471386538826
 30
0.0
 40
0.1055
  0
INSERT
  5
A9D
330
66A
100
AcDbEntity
  8
DAMAN
100
AcDbBlockReference
  2
100CROSS
 10
38.78498173066586
 20
10.49371386538826
 30
0.0
 41
0.25
 42
0.25
  0
INSERT
  5
A9E
330
66A
100
AcDbEntity
  8
DAMAN
100
AcDbBlockReference
  2
100CROSS
 10
38.22298173066588
 20
11.54071386538825
 30
0.0
 41
0.5625
 42
0.5625
  0
CIRCLE
  5
A9F
330
66A
100
AcDbEntity
  8
DAMAN
100
AcDbCircle
 10
38.22298173066588
 20
11.54071386538825
 30
0.0
 40
0.3439999999999999
  0
TEXT
  5
AA0
330
66A
100
AcDbEntity
  8
DAMAN
100
AcDbText
 10
36.65998173066586
 20
10.22746386538825
 30
0.0
 40
0.12
  1
Y
100
AcDbText
  0
TEXT
  5
AA1
330
66A
100
AcDbEntity
  8
DAMAN
100
AcDbText
 10
36.90998173066586
 20
11.32121386538825
 30
0.0
 40
0.12
  1
B
100
AcDbText
  0
CIRCLE
  5
AA2
330
66A
100
AcDbEntity
  8
DAMAN
100
AcDbCircle
 10
38.78498173066586
 20
10.49371386538826
 30
0.0
 40
0.0845
  0
TEXT
  5
AA3
330
66A
100
AcDbEntity
  8
DAMAN
100
AcDbText
 10
36.87873173066586
 20
12.57121386538825
 30
0.0
 40
0.12
  1
A
100
AcDbText
  0
INSERT
  5
AA4
330
66A
100
AcDbEntity
  8
DAMAN
100
AcDbBlockReference
  2
100CROSS
 10
38.22298173066588
 20
12.78971386538826
 30
0.0
 41
0.5625
 42
0.5625
  0
CIRCLE
  5
AA5
330
66A
100
AcDbEntity
  8
DAMAN
100
AcDbCircle
 10
38.22298173066588
 20
12.78971386538826
 30
0.0
 40
0.3439999999999999
  0
TEXT
  5
AA6
330
66A
100
AcDbEntity
  8
DAMAN
100
AcDbText
 10
38.44123173066586
 20
12.00871386538826
 30
0.0
 40
0.12
  1
P
100
AcDbText
  0
TEXT
  5
AA7
330
66A
100
AcDbEntity
  8
DAMAN
100
AcDbText
 10
38.47248173066586
 20
13.25871386538826
 30
0.0
 40
0.12
  1
T
100
AcDbText
  0
INSERT
  5
AD1
330
66A
100
AcDbEntity
  8
DAMAN
100
AcDbBlockReference
  2
T16AT
 10
39.40997771802264
 20
19.47878274017767
 30
0.0
  0
INSERT
  5
B0A
330
66A
100
AcDbEntity
  8
DAMAN
100
AcDbBlockReference
  2
A$C199977B4
 10
10.59798173066589
 20
7.665713865388259
 30
0.0
  0
ENDSEC
  0
SECTION
  2
OBJECTS
  0
DICTIONARY
  5
658
330
0
100
AcDbDictionary
  3
ACAD_GROUP
350
659
  3
ACAD_LAYOUT
350
665
  3
ACAD_MLINESTYLE
350
662
  3
ACAD_PLOTSETTINGS
350
664
  3
ACAD_PLOTSTYLENAME
350
65A
  3
ACDBHEADERROUNDTRIPXREC
350
B0C
  0
DICTIONARY
  5
8D8
330
66A
100
AcDbDictionary
280
     1
  3
ACAD_LAYOUTSELFREF
360
B2D
  0
DICTIONARY
  5
8D6
330
666
100
AcDbDictionary
280
     1
  3
ACAD_LAYOUTSELFREF
360
B2C
  0
DICTIONARY
  5
659
102
{ACAD_REACTORS
330
658
102
}
330
658
100
AcDbDictionary
  0
DICTIONARY
  5
665
102
{ACAD_REACTORS
330
658
102
}
330
658
100
AcDbDictionary
  0
DICTIONARY
  5
662
102
{ACAD_REACTORS
330
658
102
}
330
658
100
AcDbDictionary
  3
STANDARD
350
663
  0
DICTIONARY
  5
664
102
{ACAD_REACTORS
330
658
102
}
330
658
100
AcDbDictionary
  0
ACDBDICTIONARYWDFLT
  5
65A
102
{ACAD_REACTORS
330
658
102
}
330
658
100
AcDbDictionary
281
     1
  3
Normal
350
65B
100
AcDbDictionaryWithDefault
340
65B
  0
DICTIONARY
  5
B0C
102
{ACAD_REACTORS
330
658
102
}
330
658
100
AcDbDictionary
  3
CEPSNTYPE
350
B16
  3
FINGERPRINTGUID
350
B17
  3
HYPERLINKBASE
350
B0F
  3
INSUNITS
350
B15
  3
LAYOUTDICT
350
B11
  3
LWETCUNION
350
B14
  3
PLOTSETDICT
350
B12
  3
PLOTSTYLNAMDICT
350
B13
  3
PSVPSCALE
350
B19
  3
PUCSBASE
350
B1C
  3
PUCSORGBACK
350
B22
  3
PUCSORGBOTTOM
350
B1E
  3
PUCSORGFRONT
350
B21
  3
PUCSORGLEFT
350
B1F
  3
PUCSORGRIGHT
350
B20
  3
PUCSORGTOP
350
B1D
  3
PUCSORTHOREF
350
B1A
  3
PUCSORTHOVIEW
350
B1B
  3
STYLESHEET
350
B10
  3
TSTACKALIGN
350
B0D
  3
TSTACKSIZE
350
B0E
  3
UCSBASE
350
B25
  3
UCSORGBACK
350
B2B
  3
UCSORGBOTTOM
350
B27
  3
UCSORGFRONT
350
B2A
  3
UCSORGLEFT
350
B28
  3
UCSORGRIGHT
350
B29
  3
UCSORGTOP
350
B26
  3
UCSORTHOREF
350
B23
  3
UCSORTHOVIEW
350
B24
  3
VERSIONGUID
350
B18
  0
XRECORD
  5
B2D
102
{ACAD_REACTORS
330
8D8
102
}
330
8D8
100
AcDbXrecord
340
66A
  0
XRECORD
  5
B2C
102
{ACAD_REACTORS
330
8D6
102
}
330
8D6
100
AcDbXrecord
340
666
  0
MLINESTYLE
  5
663
102
{ACAD_REACTORS
330
662
102
}
330
662
100
AcDbMlineStyle
  2
STANDARD
 70
     0
  3

 62
   256
 51
90.0
 52
90.0
 71
     2
 49
0.5
 62
   256
  6
BYLAYER
 49
-0.5
 62
   256
  6
BYLAYER
  0
ACDBPLACEHOLDER
  5
65B
102
{ACAD_REACTORS
330
65A
102
}
330
65A
100
AcDbPlaceHolder
280
     0
  0
XRECORD
  5
B16
102
{ACAD_REACTORS
330
B0C
102
}
330
B0C
100
AcDbXrecord
 90
        0
  0
XRECORD
  5
B17
102
{ACAD_REACTORS
330
B0C
102
}
330
B0C
100
AcDbXrecord
  1
{29689B8D-9F76-4E37-BA7A-DADD0EB2843F}
  0
XRECORD
  5
B0F
102
{ACAD_REACTORS
330
B0C
102
}
330
B0C
100
AcDbXrecord
  1

  0
XRECORD
  5
B15
102
{ACAD_REACTORS
330
B0C
102
}
330
B0C
100
AcDbXrecord
 90
        0
  0
XRECORD
  5
B11
102
{ACAD_REACTORS
330
B0C
102
}
330
B0C
100
AcDbXrecord
340
665
  0
XRECORD
  5
B14
102
{ACAD_REACTORS
330
B0C
102
}
330
B0C
100
AcDbXrecord
 90
    10781
  0
XRECORD
  5
B12
102
{ACAD_REACTORS
330
B0C
102
}
330
B0C
100
AcDbXrecord
340
664
  0
XRECORD
  5
B13
102
{ACAD_REACTORS
330
B0C
102
}
330
B0C
100
AcDbXrecord
340
65A
  0
XRECORD
  5
B19
102
{ACAD_REACTORS
330
B0C
102
}
330
B0C
100
AcDbXrecord
 40
0.0
  0
XRECORD
  5
B1C
102
{ACAD_REACTORS
330
B0C
102
}
330
B0C
100
AcDbXrecord
340
0
  0
XRECORD
  5
B22
102
{ACAD_REACTORS
330
B0C
102
}
330
B0C
100
AcDbXrecord
 10
0.0
 20
0.0
 30
0.0
  0
XRECORD
  5
B1E
102
{ACAD_REACTORS
330
B0C
102
}
330
B0C
100
AcDbXrecord
 10
0.0
 20
0.0
 30
0.0
  0
XRECORD
  5
B21
102
{ACAD_REACTORS
330
B0C
102
}
330
B0C
100
AcDbXrecord
 10
0.0
 20
0.0
 30
0.0
  0
XRECORD
  5
B1F
102
{ACAD_REACTORS
330
B0C
102
}
330
B0C
100
AcDbXrecord
 10
0.0
 20
0.0
 30
0.0
  0
XRECORD
  5
B20
102
{ACAD_REACTORS
330
B0C
102
}
330
B0C
100
AcDbXrecord
 10
0.0
 20
0.0
 30
0.0
  0
XRECORD
  5
B1D
102
{ACAD_REACTORS
330
B0C
102
}
330
B0C
100
AcDbXrecord
 10
0.0
 20
0.0
 30
0.0
  0
XRECORD
  5
B1A
102
{ACAD_REACTORS
330
B0C
102
}
330
B0C
100
AcDbXrecord
340
0
  0
XRECORD
  5
B1B
102
{ACAD_REACTORS
330
B0C
102
}
330
B0C
100
AcDbXrecord
 70
     0
  0
XRECORD
  5
B10
102
{ACAD_REACTORS
330
B0C
102
}
330
B0C
100
AcDbXrecord
  1

  0
XRECORD
  5
B0D
102
{ACAD_REACTORS
330
B0C
102
}
330
B0C
100
AcDbXrecord
 90
        1
  0
XRECORD
  5
B0E
102
{ACAD_REACTORS
330
B0C
102
}
330
B0C
100
AcDbXrecord
 90
       70
  0
XRECORD
  5
B25
102
{ACAD_REACTORS
330
B0C
102
}
330
B0C
100
AcDbXrecord
340
0
  0
XRECORD
  5
B2B
102
{ACAD_REACTORS
330
B0C
102
}
330
B0C
100
AcDbXrecord
 10
0.0
 20
0.0
 30
0.0
  0
XRECORD
  5
B27
102
{ACAD_REACTORS
330
B0C
102
}
330
B0C
100
AcDbXrecord
 10
0.0
 20
0.0
 30
0.0
  0
XRECORD
  5
B2A
102
{ACAD_REACTORS
330
B0C
102
}
330
B0C
100
AcDbXrecord
 10
0.0
 20
0.0
 30
0.0
  0
XRECORD
  5
B28
102
{ACAD_REACTORS
330
B0C
102
}
330
B0C
100
AcDbXrecord
 10
0.0
 20
0.0
 30
0.0
  0
XRECORD
  5
B29
102
{ACAD_REACTORS
330
B0C
102
}
330
B0C
100
AcDbXrecord
 10
0.0
 20
0.0
 30
0.0
  0
XRECORD
  5
B26
102
{ACAD_REACTORS
330
B0C
102
}
330
B0C
100
AcDbXrecord
 10
0.0
 20
0.0
 30
0.0
  0
XRECORD
  5
B23
102
{ACAD_REACTORS
330
B0C
102
}
330
B0C
100
AcDbXrecord
340
0
  0
XRECORD
  5
B24
102
{ACAD_REACTORS
330
B0C
102
}
330
B0C
100
AcDbXrecord
 70
     0
  0
XRECORD
  5
B18
102
{ACAD_REACTORS
330
B0C
102
}
330
B0C
100
AcDbXrecord
  1
{5974E276-A6FF-42BA-A9FD-0371FD81E589}
  0
ENDSEC
  0
EOF
