  0
SECTION
  2
HEADER
  9
$ACADVER
  1
AC1014
  9
$ACADMAINTVER
 70
     9
  9
$DWGCODEPAGE
  3
ANSI_1252
  9
$INSBASE
 10
0.0
 20
0.0
 30
0.0
  9
$EXTMIN
 10
1.817974161199011
 20
7.488769605160655
 30
-0.0000000349181948
  9
$EXTMAX
 10
45.00370974841533
 20
20.92565923664446
 30
0.0000000814935747
  9
$LIMMIN
 10
0.0
 20
0.0
  9
$LIMMAX
 10
28.0
 20
28.0
  9
$ORTHOMODE
 70
     0
  9
$REGENMODE
 70
     1
  9
$FILLMODE
 70
     1
  9
$QTEXTMODE
 70
     0
  9
$MIRRTEXT
 70
     1
  9
$DRAGMODE
 70
     2
  9
$LTSCALE
 40
1.0
  9
$OSMODE
 70
    37
  9
$ATTMODE
 70
     1
  9
$TEXTSIZE
 40
0.2
  9
$TRACEWID
 40
0.05
  9
$TEXTSTYLE
  7
STANDARD
  9
$CLAYER
  8
DAMAN
  9
$CELTYPE
  6
BYLAYER
  9
$CECOLOR
 62
   256
  9
$CELTSCALE
 40
1.0
  9
$DELOBJ
 70
     1
  9
$DISPSILH
 70
     0
  9
$DIMSCALE
 40
1.0
  9
$DIMASZ
 40
0.18
  9
$DIMEXO
 40
0.0625
  9
$DIMDLI
 40
0.38
  9
$DIMRND
 40
0.0
  9
$DIMDLE
 40
0.0
  9
$DIMEXE
 40
0.18
  9
$DIMTP
 40
0.0
  9
$DIMTM
 40
0.0
  9
$DIMTXT
 40
0.18
  9
$DIMCEN
 40
0.09
  9
$DIMTSZ
 40
0.0
  9
$DIMTOL
 70
     0
  9
$DIMLIM
 70
     0
  9
$DIMTIH
 70
     1
  9
$DIMTOH
 70
     1
  9
$DIMSE1
 70
     0
  9
$DIMSE2
 70
     0
  9
$DIMTAD
 70
     0
  9
$DIMZIN
 70
     0
  9
$DIMBLK
  1

  9
$DIMASO
 70
     1
  9
$DIMSHO
 70
     1
  9
$DIMPOST
  1

  9
$DIMAPOST
  1

  9
$DIMALT
 70
     0
  9
$DIMALTD
 70
     2
  9
$DIMALTF
 40
25.4
  9
$DIMLFAC
 40
1.0
  9
$DIMTOFL
 70
     0
  9
$DIMTVP
 40
0.0
  9
$DIMTIX
 70
     0
  9
$DIMSOXD
 70
     0
  9
$DIMSAH
 70
     0
  9
$DIMBLK1
  1

  9
$DIMBLK2
  1

  9
$DIMSTYLE
  2
STANDARD
  9
$DIMCLRD
 70
     0
  9
$DIMCLRE
 70
     0
  9
$DIMCLRT
 70
     0
  9
$DIMTFAC
 40
1.0
  9
$DIMGAP
 40
0.09
  9
$DIMJUST
 70
     0
  9
$DIMSD1
 70
     0
  9
$DIMSD2
 70
     0
  9
$DIMTOLJ
 70
     1
  9
$DIMTZIN
 70
     0
  9
$DIMALTZ
 70
     0
  9
$DIMALTTZ
 70
     0
  9
$DIMFIT
 70
     3
  9
$DIMUPT
 70
     0
  9
$DIMUNIT
 70
     2
  9
$DIMDEC
 70
     4
  9
$DIMTDEC
 70
     4
  9
$DIMALTU
 70
     2
  9
$DIMALTTD
 70
     2
  9
$DIMTXSTY
  7
STANDARD
  9
$DIMAUNIT
 70
     0
  9
$LUNITS
 70
     2
  9
$LUPREC
 70
     4
  9
$SKETCHINC
 40
0.1
  9
$FILLETRAD
 40
0.0
  9
$AUNITS
 70
     0
  9
$AUPREC
 70
     0
  9
$MENU
  1
tom
  9
$ELEVATION
 40
0.0
  9
$PELEVATION
 40
0.0
  9
$THICKNESS
 40
0.0
  9
$LIMCHECK
 70
     0
  9
$BLIPMODE
 70
     0
  9
$CHAMFERA
 40
0.0
  9
$CHAMFERB
 40
0.0
  9
$CHAMFERC
 40
0.0
  9
$CHAMFERD
 40
0.0
  9
$SKPOLY
 70
     0
  9
$TDCREATE
 40
2450463.430668391
  9
$TDUPDATE
 40
2453419.664608159
  9
$TDINDWG
 40
0.0047630903
  9
$TDUSRTIMER
 40
0.0047629167
  9
$USRTIMER
 70
     1
  9
$ANGBASE
 50
0.0
  9
$ANGDIR
 70
     0
  9
$PDMODE
 70
     0
  9
$PDSIZE
 40
0.0
  9
$PLINEWID
 40
0.0
  9
$COORDS
 70
     1
  9
$SPLFRAME
 70
     0
  9
$SPLINETYPE
 70
     6
  9
$SPLINESEGS
 70
     8
  9
$ATTDIA
 70
     0
  9
$ATTREQ
 70
     1
  9
$HANDLING
 70
-16383
  9
$HANDSEED
  5
953
  9
$SURFTAB1
 70
     6
  9
$SURFTAB2
 70
     6
  9
$SURFTYPE
 70
     6
  9
$SURFU
 70
     6
  9
$SURFV
 70
     6
  9
$UCSNAME
  2

  9
$UCSORG
 10
0.0
 20
0.0
 30
0.0
  9
$UCSXDIR
 10
1.0
 20
0.0
 30
0.0
  9
$UCSYDIR
 10
0.0
 20
1.0
 30
0.0
  9
$PUCSNAME
  2

  9
$PUCSORG
 10
0.0
 20
0.0
 30
0.0
  9
$PUCSXDIR
 10
1.0
 20
0.0
 30
0.0
  9
$PUCSYDIR
 10
0.0
 20
1.0
 30
0.0
  9
$USERI1
 70
     0
  9
$USERI2
 70
     0
  9
$USERI3
 70
     0
  9
$USERI4
 70
     0
  9
$USERI5
 70
     0
  9
$USERR1
 40
0.0
  9
$USERR2
 40
0.0
  9
$USERR3
 40
0.0
  9
$USERR4
 40
0.0
  9
$USERR5
 40
0.0
  9
$WORLDVIEW
 70
     1
  9
$SHADEDGE
 70
     3
  9
$SHADEDIF
 70
    70
  9
$TILEMODE
 70
     1
  9
$MAXACTVP
 70
    16
  9
$PINSBASE
 10
0.0
 20
0.0
 30
0.0
  9
$PLIMCHECK
 70
     0
  9
$PEXTMIN
 10
1.000000000000000E+20
 20
1.000000000000000E+20
 30
1.000000000000000E+20
  9
$PEXTMAX
 10
-1.000000000000000E+20
 20
-1.000000000000000E+20
 30
-1.000000000000000E+20
  9
$PLIMMIN
 10
0.0
 20
0.0
  9
$PLIMMAX
 10
12.0
 20
9.0
  9
$UNITMODE
 70
     0
  9
$VISRETAIN
 70
     0
  9
$PLINEGEN
 70
     0
  9
$PSLTSCALE
 70
     1
  9
$TREEDEPTH
 70
  3020
  9
$PICKSTYLE
 70
     1
  9
$CMLSTYLE
  2
STANDARD
  9
$CMLJUST
 70
     0
  9
$CMLSCALE
 40
1.0
  9
$PROXYGRAPHICS
 70
     1
  9
$MEASUREMENT
 70
     0
  0
ENDSEC
  0
SECTION
  2
CLASSES
  0
CLASS
  1
ACDBDICTIONARYWDFLT
  2
AcDbDictionaryWithDefault
  3
AutoCAD 2000
 90
        0
280
     0
281
     0
  0
CLASS
  1
ACDBPLACEHOLDER
  2
AcDbPlaceHolder
  3
AutoCAD 2000
 90
        0
280
     0
281
     0
  0
CLASS
  1
LAYOUT
  2
AcDbLayout
  3
AutoCAD 2000
 90
        0
280
     0
281
     0
  0
CLASS
  1
LONG_TRANSACTION
  2
AcDbLongTransaction
  3
AutoCAD 2000
 90
        0
280
     0
281
     0
  0
CLASS
  1
LWPOLYLINE
  2
AcDbPolyline
  3
AutoCAD 2000
 90
        0
280
     0
281
     1
  0
CLASS
  1
HATCH
  2
AcDbHatch
  3
AutoCAD 2000
 90
        0
280
     0
281
     1
  0
CLASS
  1
XRECORD
  2
AcDbXrecord
  3
AutoCAD 2000
 90
        0
280
     0
281
     0
  0
CLASS
  1
LONG_TRANSACTION
  2
AcDbLongTransaction
  3
AutoCAD 2000
 90
        0
280
     0
281
     0
  0
CLASS
  1
LWPOLYLINE
  2
AcDbPolyline
  3
AutoCAD 2000
 90
        0
280
     0
281
     1
  0
CLASS
  1
HATCH
  2
AcDbHatch
  3
AutoCAD 2000
 90
        0
280
     0
281
     1
  0
CLASS
  1
XRECORD
  2
AcDbXrecord
  3
AutoCAD 2000
 90
        0
280
     0
281
     0
  0
ENDSEC
  0
SECTION
  2
TABLES
  0
TABLE
  2
VPORT
  5
585
330
0
100
AcDbSymbolTable
 70
     6
  0
VPORT
  5
930
330
585
100
AcDbSymbolTableRecord
100
AcDbViewportTableRecord
  2
*ACTIVE
 70
     0
 10
0.0
 20
0.0
 11
1.0
 21
1.0
 12
23.41084195480716
 22
14.20721442090256
 13
0.0
 23
0.0
 14
1.0
 24
1.0
 15
0.0
 25
0.0
 16
0.0
 26
0.0
 36
1.0
 17
0.0
 27
0.0
 37
0.0
 40
26.37722006357332
 41
1.647569444444444
 42
50.0
 43
0.0
 44
0.0
 50
0.0
 51
0.0
 71
     0
 72
   100
 73
     1
 74
     1
 75
     0
 76
     0
 77
     0
 78
     0
  0
ENDTAB
  0
TABLE
  2
LTYPE
  5
582
330
0
100
AcDbSymbolTable
 70
     2
  0
LTYPE
  5
590
330
582
100
AcDbSymbolTableRecord
100
AcDbLinetypeTableRecord
  2
BYBLOCK
 70
     0
  3

 72
    65
 73
     0
 40
0.0
  0
LTYPE
  5
591
330
582
100
AcDbSymbolTableRecord
100
AcDbLinetypeTableRecord
  2
BYLAYER
 70
     0
  3

 72
    65
 73
     0
 40
0.0
  0
LTYPE
  5
592
330
582
100
AcDbSymbolTableRecord
100
AcDbLinetypeTableRecord
  2
CONTINUOUS
 70
     0
  3
Solid line
 72
    65
 73
     0
 40
0.0
  0
LTYPE
  5
5A1
330
582
100
AcDbSymbolTableRecord
100
AcDbLinetypeTableRecord
  2
HIDDEN
 70
     0
  3
_ _ _ _ _ _ _ _ _ _ _ _ _ _ _ _ _ _ _ _ _ _ _
 72
    65
 73
     2
 40
0.375
 49
0.25
 74
     0
 49
-0.125
 74
     0
  0
ENDTAB
  0
TABLE
  2
LAYER
  5
57F
330
0
100
AcDbSymbolTable
 70
     7
  0
LAYER
  5
58D
330
57F
100
AcDbSymbolTableRecord
100
AcDbLayerTableRecord
  2
0
 70
     0
 62
     7
  6
CONTINUOUS
  0
LAYER
  5
59F
330
57F
100
AcDbSymbolTableRecord
100
AcDbLayerTableRecord
  2
DAMAN
 70
     0
 62
     5
  6
CONTINUOUS
  0
LAYER
  5
5A2
330
57F
100
AcDbSymbolTableRecord
100
AcDbLayerTableRecord
  2
ISO
 70
     1
 62
     5
  6
CONTINUOUS
  0
LAYER
  5
5A3
330
57F
100
AcDbSymbolTableRecord
100
AcDbLayerTableRecord
  2
PIPE
 70
     1
 62
     5
  6
CONTINUOUS
  0
LAYER
  5
5A4
330
57F
100
AcDbSymbolTableRecord
100
AcDbLayerTableRecord
  2
SAE
 70
     0
 62
     5
  6
CONTINUOUS
  0
LAYER
  5
5A5
330
57F
100
AcDbSymbolTableRecord
100
AcDbLayerTableRecord
  2
BSPP
 70
     1
 62
     5
  6
CONTINUOUS
  0
LAYER
  5
5A6
330
57F
100
AcDbSymbolTableRecord
100
AcDbLayerTableRecord
  2
CHIDDEN
 70
     0
 62
     3
  6
HIDDEN
  0
ENDTAB
  0
TABLE
  2
STYLE
  5
580
330
0
100
AcDbSymbolTable
 70
     1
  0
STYLE
  5
58E
330
580
100
AcDbSymbolTableRecord
100
AcDbTextStyleTableRecord
  2
STANDARD
 70
     0
 40
0.0
 41
1.0
 50
0.0
 71
     0
 42
0.2
  3
txt
  4

  0
ENDTAB
  0
TABLE
  2
VIEW
  5
583
330
0
100
AcDbSymbolTable
 70
     0
  0
ENDTAB
  0
TABLE
  2
UCS
  5
584
330
0
100
AcDbSymbolTable
 70
     0
  0
ENDTAB
  0
TABLE
  2
APPID
  5
586
330
0
100
AcDbSymbolTable
 70
     1
  0
APPID
  5
58F
330
586
100
AcDbSymbolTableRecord
100
AcDbRegAppTableRecord
  2
ACAD
 70
     0
  0
ENDTAB
  0
TABLE
  2
DIMSTYLE
  5
587
330
0
100
AcDbSymbolTable
 70
     1
  0
DIMSTYLE
105
5A7
330
587
100
AcDbSymbolTableRecord
100
AcDbDimStyleTableRecord
  2
STANDARD
 70
     0
  3

  4

  5

  6

  7

 40
1.0
 41
0.18
 42
0.0625
 43
0.38
 44
0.18
 45
0.0
 46
0.0
 47
0.0
 48
0.0
140
0.18
141
0.09
142
0.0
143
25.4
144
1.0
145
0.0
146
1.0
147
0.09
 71
     0
 72
     0
 73
     1
 74
     1
 75
     0
 76
     0
 77
     0
 78
     0
170
     0
171
     2
172
     0
173
     0
174
     0
175
     0
176
     0
177
     0
178
     0
270
     2
271
     4
272
     4
273
     2
274
     2
340
58E
275
     0
280
     0
281
     0
282
     0
283
     1
284
     0
285
     0
286
     0
287
     3
288
     0
  0
ENDTAB
  0
TABLE
  2
BLOCK_RECORD
  5
57E
330
0
100
AcDbSymbolTable
 70
    23
  0
BLOCK_RECORD
  5
59B
102
{ACAD_XDICTIONARY
360
7F8
102
}
330
57E
100
AcDbSymbolTableRecord
100
AcDbBlockTableRecord
  2
*MODEL_SPACE
  0
BLOCK_RECORD
  5
597
102
{ACAD_XDICTIONARY
360
7F6
102
}
330
57E
100
AcDbSymbolTableRecord
100
AcDbBlockTableRecord
  2
*PAPER_SPACE
  0
BLOCK_RECORD
  5
5A9
330
57E
100
AcDbSymbolTableRecord
100
AcDbBlockTableRecord
  2
$MODEL_SPACE
  0
BLOCK_RECORD
  5
5AC
330
57E
100
AcDbSymbolTableRecord
100
AcDbBlockTableRecord
  2
$PAPER_SPACE
  0
BLOCK_RECORD
  5
5AF
330
57E
100
AcDbSymbolTableRecord
100
AcDbBlockTableRecord
  2
100CROSS
  0
BLOCK_RECORD
  5
5B1
330
57E
100
AcDbSymbolTableRecord
100
AcDbBlockTableRecord
  2
050CROSS
  0
BLOCK_RECORD
  5
5BC
330
57E
100
AcDbSymbolTableRecord
100
AcDbBlockTableRecord
  2
100NPTFT
  0
BLOCK_RECORD
  5
5C3
330
57E
100
AcDbSymbolTableRecord
100
AcDbBlockTableRecord
  2
025NPTFT
  0
BLOCK_RECORD
  5
5C5
330
57E
100
AcDbSymbolTableRecord
100
AcDbBlockTableRecord
  2
250NPTFT
  0
BLOCK_RECORD
  5
5D1
330
57E
100
AcDbSymbolTableRecord
100
AcDbBlockTableRecord
  2
16SAET
  0
BLOCK_RECORD
  5
5D9
330
57E
100
AcDbSymbolTableRecord
100
AcDbBlockTableRecord
  2
06SAET
  0
BLOCK_RECORD
  5
5E0
330
57E
100
AcDbSymbolTableRecord
100
AcDbBlockTableRecord
  2
100BSPPT
  0
BLOCK_RECORD
  5
5E8
330
57E
100
AcDbSymbolTableRecord
100
AcDbBlockTableRecord
  2
M33T
  0
BLOCK_RECORD
  5
5F1
330
57E
100
AcDbSymbolTableRecord
100
AcDbBlockTableRecord
  2
M14T
  0
BLOCK_RECORD
  5
5FA
330
57E
100
AcDbSymbolTableRecord
100
AcDbBlockTableRecord
  2
D07
  0
BLOCK_RECORD
  5
622
330
57E
100
AcDbSymbolTableRecord
100
AcDbBlockTableRecord
  2
600MKT
  0
BLOCK_RECORD
  5
668
330
57E
100
AcDbSymbolTableRecord
100
AcDbBlockTableRecord
  2
08SAET
  0
BLOCK_RECORD
  5
670
330
57E
100
AcDbSymbolTableRecord
100
AcDbBlockTableRecord
  2
600MKST
  0
BLOCK_RECORD
  5
69D
330
57E
100
AcDbSymbolTableRecord
100
AcDbBlockTableRecord
  2
125NPTFT
  0
BLOCK_RECORD
  5
6A4
330
57E
100
AcDbSymbolTableRecord
100
AcDbBlockTableRecord
  2
050NPTFT
  0
BLOCK_RECORD
  5
6A6
330
57E
100
AcDbSymbolTableRecord
100
AcDbBlockTableRecord
  2
500NPTFT
  0
BLOCK_RECORD
  5
6AF
330
57E
100
AcDbSymbolTableRecord
100
AcDbBlockTableRecord
  2
20SAET
  0
BLOCK_RECORD
  5
6B6
330
57E
100
AcDbSymbolTableRecord
100
AcDbBlockTableRecord
  2
125BSPPT
  0
BLOCK_RECORD
  5
6BE
330
57E
100
AcDbSymbolTableRecord
100
AcDbBlockTableRecord
  2
0500BSPPT
  0
BLOCK_RECORD
  5
6C6
330
57E
100
AcDbSymbolTableRecord
100
AcDbBlockTableRecord
  2
M42T
  0
ENDTAB
  0
ENDSEC
  0
SECTION
  2
BLOCKS
  0
BLOCK
  5
59C
330
59B
100
AcDbEntity
  8
0
100
AcDbBlockBegin
  2
*MODEL_SPACE
 70
     0
 10
0.0
 20
0.0
 30
0.0
  3
*MODEL_SPACE
  1

  0
ENDBLK
  5
59D
330
59B
100
AcDbEntity
  8
0
100
AcDbBlockEnd
  0
BLOCK
  5
598
330
597
100
AcDbEntity
 67
     1
  8
0
100
AcDbBlockBegin
  2
*PAPER_SPACE
 70
     0
 10
0.0
 20
0.0
 30
0.0
  3
*PAPER_SPACE
  1

  0
ENDBLK
  5
599
330
597
100
AcDbEntity
 67
     1
  8
0
100
AcDbBlockEnd
  0
BLOCK
  5
5AA
330
5A9
100
AcDbEntity
  8
0
100
AcDbBlockBegin
  2
$MODEL_SPACE
 70
     0
 10
0.0
 20
0.0
 30
0.0
  3
$MODEL_SPACE
  1

  0
ENDBLK
  5
5AB
330
5A9
100
AcDbEntity
  8
0
100
AcDbBlockEnd
  0
BLOCK
  5
5AD
330
5AC
100
AcDbEntity
  8
0
100
AcDbBlockBegin
  2
$PAPER_SPACE
 70
     0
 10
0.0
 20
0.0
 30
0.0
  3
$PAPER_SPACE
  1

  0
ENDBLK
  5
5AE
330
5AC
100
AcDbEntity
  8
0
100
AcDbBlockEnd
  0
BLOCK
  5
5B0
330
5AF
100
AcDbEntity
  8
0
100
AcDbBlockBegin
  2
100CROSS
 70
     0
 10
5.62500000000004
 20
4.593750000000039
 30
0.0
  3
100CROSS
  1

  0
INSERT
  5
5B2
330
5AF
100
AcDbEntity
  8
0
100
AcDbBlockReference
  2
050CROSS
 10
5.62500000000004
 20
4.593750000000039
 30
0.0
  0
ENDBLK
  5
5B3
330
5AF
100
AcDbEntity
  8
0
100
AcDbBlockEnd
  0
BLOCK
  5
5B4
330
5B1
100
AcDbEntity
  8
0
100
AcDbBlockBegin
  2
050CROSS
 70
     0
 10
5.000000000000039
 20
5.000000000000039
 30
0.0
  3
050CROSS
  1

  0
LINE
  5
5B5
330
5B1
100
AcDbEntity
  8
0
100
AcDbLine
 10
5.000000000000039
 20
5.281250000000039
 30
0.0
 11
5.000000000000079
 21
5.78125000000004
 31
0.0
  0
LINE
  5
5B6
330
5B1
100
AcDbEntity
  8
0
100
AcDbLine
 10
5.000000000000039
 20
4.875000000000039
 30
0.0
 11
5.000000000000079
 21
5.125000000000039
 31
0.0
  0
LINE
  5
5B7
330
5B1
100
AcDbEntity
  8
0
100
AcDbLine
 10
5.000000000000039
 20
4.156250000000039
 30
0.0
 11
5.000000000000079
 21
4.718750000000039
 31
0.0
  0
LINE
  5
5B8
330
5B1
100
AcDbEntity
  8
0
100
AcDbLine
 10
5.250000000000039
 20
5.000000000000039
 30
0.0
 11
5.81250000000004
 21
5.000000000000079
 31
0.0
  0
LINE
  5
5B9
330
5B1
100
AcDbEntity
  8
0
100
AcDbLine
 10
4.906250000000039
 20
5.000000000000039
 30
0.0
 11
5.093750000000039
 21
5.000000000000079
 31
0.0
  0
LINE
  5
5BA
330
5B1
100
AcDbEntity
  8
0
100
AcDbLine
 10
4.187500000000039
 20
5.000000000000039
 30
0.0
 11
4.750000000000039
 21
5.000000000000079
 31
0.0
  0
ENDBLK
  5
5BB
330
5B1
100
AcDbEntity
  8
0
100
AcDbBlockEnd
  0
BLOCK
  5
5BD
330
5BC
100
AcDbEntity
  8
0
100
AcDbBlockBegin
  2
100NPTFT
 70
     0
 10
0.0
 20
0.0
 30
0.0
  3
100NPTFT
  1

  0
CIRCLE
  5
5BE
330
5BC
100
AcDbEntity
  8
DAMAN
100
AcDbCircle
 10
0.0
 20
0.0
 30
0.0
 40
0.5625
  0
CIRCLE
  5
5BF
330
5BC
100
AcDbEntity
  8
DAMAN
100
AcDbCircle
 10
0.0
 20
0.0
 30
0.0
 40
0.6720000000000002
  0
INSERT
  5
5C0
330
5BC
100
AcDbEntity
  8
DAMAN
100
AcDbBlockReference
  2
100CROSS
 10
0.0
 20
0.0
 30
0.0
 41
1.199999999999999
 42
1.199999999999999
  0
CIRCLE
  5
5C1
330
5BC
100
AcDbEntity
  8
DAMAN
100
AcDbCircle
 10
-0.0000000000000409
 20
-0.00000000000004
 30
0.0
 40
0.625
  0
ENDBLK
  5
5C2
330
5BC
100
AcDbEntity
  8
0
100
AcDbBlockEnd
  0
BLOCK
  5
5C4
330
5C3
100
AcDbEntity
  8
0
100
AcDbBlockBegin
  2
025NPTFT
 70
     0
 10
0.0
 20
0.0
 30
0.0
  3
025NPTFT
  1

  0
INSERT
  5
5C6
330
5C3
100
AcDbEntity
  8
DAMAN
100
AcDbBlockReference
  2
250NPTFT
 10
0.0
 20
0.0
 30
0.0
  0
ENDBLK
  5
5C7
330
5C3
100
AcDbEntity
  8
0
100
AcDbBlockEnd
  0
BLOCK
  5
5C8
330
5C5
100
AcDbEntity
  8
0
100
AcDbBlockBegin
  2
250NPTFT
 70
     0
 10
0.0
 20
0.0
 30
0.0
  3
250NPTFT
  1

  0
CIRCLE
  5
5C9
330
5C5
100
AcDbEntity
  8
DAMAN
100
AcDbCircle
 10
0.0
 20
0.0
 30
0.0
 40
0.273
  0
CIRCLE
  5
5CA
330
5C5
100
AcDbEntity
  8
DAMAN
100
AcDbCircle
 10
0.0
 20
0.0
 30
0.0
 40
0.211
  0
INSERT
  5
5CB
330
5C5
100
AcDbEntity
  8
DAMAN
100
AcDbBlockReference
  2
100CROSS
 10
0.0
 20
0.0
 30
0.0
 41
0.4220000000000001
 42
0.4220000000000001
  0
CIRCLE
  5
5CC
330
5C5
100
AcDbEntity
  8
DAMAN
100
AcDbCircle
 10
0.0000000000000071
 20
0.000000000000008
 30
0.0
 40
0.2422508395811249
  0
POINT
  5
5CD
330
5C5
100
AcDbEntity
  8
CHIDDEN
100
AcDbPoint
 10
-0.0879283445109387
 20
0.1918061683876866
 30
0.0
  0
POINT
  5
5CE
330
5C5
100
AcDbEntity
  8
CHIDDEN
100
AcDbPoint
 10
-0.137716646744698
 20
-0.1598597047707644
 30
0.0
  0
POINT
  5
5CF
330
5C5
100
AcDbEntity
  8
CHIDDEN
100
AcDbPoint
 10
0.2027074607181341
 20
-0.0585720528000025
 30
0.0
  0
ENDBLK
  5
5D0
330
5C5
100
AcDbEntity
  8
0
100
AcDbBlockEnd
  0
BLOCK
  5
5D2
330
5D1
100
AcDbEntity
  8
0
100
AcDbBlockBegin
  2
16SAET
 70
     0
 10
0.0
 20
0.0
 30
0.0
  3
16SAET
  1

  0
CIRCLE
  5
5D3
330
5D1
100
AcDbEntity
  8
DAMAN
100
AcDbCircle
 10
0.0
 20
0.0
 30
0.0
 40
0.6125
  0
CIRCLE
  5
5D4
330
5D1
100
AcDbEntity
  8
DAMAN
100
AcDbCircle
 10
0.0
 20
0.0
 30
0.0
 40
0.5620000000000001
  0
CIRCLE
  5
5D5
330
5D1
100
AcDbEntity
  8
DAMAN
100
AcDbCircle
 10
0.0
 20
0.0
 30
0.0
 40
1.0
  0
INSERT
  5
5D6
330
5D1
100
AcDbEntity
  8
DAMAN
100
AcDbBlockReference
  2
100CROSS
 10
0.0
 20
0.0
 30
0.0
 41
1.6
 42
1.6
  0
CIRCLE
  5
5D7
330
5D1
100
AcDbEntity
  8
DAMAN
100
AcDbCircle
 10
0.0
 20
0.0
 30
0.0
 40
0.65625
  0
ENDBLK
  5
5D8
330
5D1
100
AcDbEntity
  8
0
100
AcDbBlockEnd
  0
BLOCK
  5
5DA
330
5D9
100
AcDbEntity
  8
0
100
AcDbBlockBegin
  2
06SAET
 70
     0
 10
0.0
 20
0.0
 30
0.0
  3
06SAET
  1

  0
INSERT
  5
5DB
330
5D9
100
AcDbEntity
  8
DAMAN
100
AcDbBlockReference
  2
100CROSS
 10
0.0
 20
0.0
 30
0.0
  0
CIRCLE
  5
5DC
330
5D9
100
AcDbEntity
  8
DAMAN
100
AcDbCircle
 10
0.0
 20
0.0
 30
0.0
 40
0.28125
  0
CIRCLE
  5
5DD
330
5D9
100
AcDbEntity
  8
DAMAN
100
AcDbCircle
 10
0.0
 20
0.0
 30
0.0
 40
0.5
  0
CIRCLE
  5
5DE
330
5D9
100
AcDbEntity
  8
DAMAN
100
AcDbCircle
 10
0.0
 20
0.0
 30
0.0
 40
0.25
  0
ENDBLK
  5
5DF
330
5D9
100
AcDbEntity
  8
0
100
AcDbBlockEnd
  0
BLOCK
  5
5E1
330
5E0
100
AcDbEntity
  8
0
100
AcDbBlockBegin
  2
100BSPPT
 70
     0
 10
0.0
 20
0.0
 30
0.0
  3
100BSPPT
  1

  0
CIRCLE
  5
5E2
330
5E0
100
AcDbEntity
  8
DAMAN
  6
HIDDEN
100
AcDbCircle
 10
0.0
 20
0.0
 30
0.0
 40
0.6545
  0
CIRCLE
  5
5E3
330
5E0
100
AcDbEntity
  8
DAMAN
100
AcDbCircle
 10
0.0
 20
0.0
 30
0.0
 40
0.6125
  0
CIRCLE
  5
5E4
330
5E0
100
AcDbEntity
  8
DAMAN
100
AcDbCircle
 10
0.0
 20
0.0
 30
0.0
 40
0.915
  0
INSERT
  5
5E5
330
5E0
100
AcDbEntity
  8
DAMAN
100
AcDbBlockReference
  2
100CROSS
 10
0.0
 20
0.0
 30
0.0
 41
1.33
 42
1.33
  0
CIRCLE
  5
5E6
330
5E0
100
AcDbEntity
  8
DAMAN
100
AcDbCircle
 10
0.0000000000000266
 20
0.0000000000000266
 30
0.0
 40
0.6575
  0
ENDBLK
  5
5E7
330
5E0
100
AcDbEntity
  8
0
100
AcDbBlockEnd
  0
BLOCK
  5
5E9
330
5E8
100
AcDbEntity
  8
0
100
AcDbBlockBegin
  2
M33T
 70
     0
 10
0.0
 20
0.0
 30
0.0
  3
M33T
  1

  0
CIRCLE
  5
5EA
330
5E8
100
AcDbEntity
  8
DAMAN
100
AcDbCircle
 10
0.0
 20
0.0
 30
0.0
 40
0.6970000000000001
  0
CIRCLE
  5
5EB
330
5E8
100
AcDbEntity
  8
DAMAN
  6
HIDDEN
100
AcDbCircle
 10
0.0
 20
0.0
 30
0.0
 40
0.649606
  0
CIRCLE
  5
5EC
330
5E8
100
AcDbEntity
  8
DAMAN
100
AcDbCircle
 10
0.0
 20
0.0
 30
0.0
 40
0.9644999999999999
  0
INSERT
  5
5ED
330
5E8
100
AcDbEntity
  8
DAMAN
100
AcDbBlockReference
  2
100CROSS
 10
0.0
 20
0.0
 30
0.0
 41
1.33
 42
1.33
  0
CIRCLE
  5
5EE
330
5E8
100
AcDbEntity
  8
DAMAN
100
AcDbCircle
 10
0.0000000000000266
 20
0.0000000000000266
 30
0.0
 40
0.8464999999999999
  0
CIRCLE
  5
5EF
330
5E8
100
AcDbEntity
  8
DAMAN
100
AcDbCircle
 10
0.0
 20
0.0
 30
0.0
 40
0.614
  0
ENDBLK
  5
5F0
330
5E8
100
AcDbEntity
  8
0
100
AcDbBlockEnd
  0
BLOCK
  5
5F2
330
5F1
100
AcDbEntity
  8
0
100
AcDbBlockBegin
  2
M14T
 70
     0
 10
0.0
 20
0.0
 30
0.0
  3
M14T
  1

  0
CIRCLE
  5
5F3
330
5F1
100
AcDbEntity
  8
DAMAN
  6
HIDDEN
100
AcDbCircle
 10
0.0
 20
0.0
 30
0.0
 40
0.2755
  0
CIRCLE
  5
5F4
330
5F1
100
AcDbEntity
  8
DAMAN
100
AcDbCircle
 10
0.0
 20
0.0
 30
0.0
 40
0.4920000000000001
  0
CIRCLE
  5
5F5
330
5F1
100
AcDbEntity
  8
DAMAN
100
AcDbCircle
 10
0.0
 20
0.0
 30
0.0
 40
0.413
  0
CIRCLE
  5
5F6
330
5F1
100
AcDbEntity
  8
DAMAN
100
AcDbCircle
 10
0.0
 20
0.0
 30
0.0
 40
0.311
  0
CIRCLE
  5
5F7
330
5F1
100
AcDbEntity
  8
DAMAN
100
AcDbCircle
 10
0.0
 20
0.0
 30
0.0
 40
0.25
  0
INSERT
  5
5F8
330
5F1
100
AcDbEntity
  8
DAMAN
100
AcDbBlockReference
  2
100CROSS
 10
-0.0000000000000169
 20
-0.000000000000016
 30
0.0
 41
0.8259999999999998
 42
0.8259999999999998
  0
ENDBLK
  5
5F9
330
5F1
100
AcDbEntity
  8
0
100
AcDbBlockEnd
  0
BLOCK
  5
5FB
330
5FA
100
AcDbEntity
  8
0
100
AcDbBlockBegin
  2
D07
 70
     0
 10
0.0
 20
0.0
 30
0.0
  3
D07
  1

  0
CIRCLE
  5
5FC
330
5FA
100
AcDbEntity
  8
DAMAN
100
AcDbCircle
 10
0.0
 20
1.249
 30
0.0
 40
0.3439999999999999
  0
CIRCLE
  5
5FD
330
5FA
100
AcDbEntity
  8
DAMAN
100
AcDbCircle
 10
0.0
 20
0.0
 30
0.0
 40
0.3439999999999999
  0
INSERT
  5
5FE
330
5FA
100
AcDbEntity
  8
DAMAN
100
AcDbBlockReference
  2
100CROSS
 10
0.0
 20
1.249
 30
0.0
 41
0.5625
 42
0.5625
  0
INSERT
  5
5FF
330
5FA
100
AcDbEntity
  8
DAMAN
100
AcDbBlockReference
  2
100CROSS
 10
0.0
 20
0.0
 30
0.0
 41
0.5625
 42
0.5625
  0
INSERT
  5
600
330
5FA
100
AcDbEntity
  8
DAMAN
100
AcDbBlockReference
  2
100CROSS
 10
-2.2505
 20
-0.0009999999999999
 30
0.0
 41
0.25
 42
0.25
  0
CIRCLE
  5
601
330
5FA
100
AcDbEntity
  8
DAMAN
100
AcDbCircle
 10
-2.188
 20
-2.032
 30
0.0
 40
0.1875
  0
CIRCLE
  5
602
330
5FA
100
AcDbEntity
  8
DAMAN
100
AcDbCircle
 10
-2.188
 20
-2.032
 30
0.0
 40
0.15625
  0
INSERT
  5
603
330
5FA
100
AcDbEntity
  8
DAMAN
100
AcDbBlockReference
  2
100CROSS
 10
-2.188
 20
-2.032
 30
0.0
 41
0.375
 42
0.375
  0
CIRCLE
  5
604
330
5FA
100
AcDbEntity
  8
DAMAN
100
AcDbCircle
 10
-2.250999999999999
 20
-0.0007500000000005
 30
0.0
 40
0.125
  0
CIRCLE
  5
605
330
5FA
100
AcDbEntity
  8
DAMAN
100
AcDbCircle
 10
-2.2505
 20
-0.0009999999999999
 30
0.0
 40
0.1055
  0
CIRCLE
  5
606
330
5FA
100
AcDbEntity
  8
DAMAN
100
AcDbCircle
 10
-1.625999999999999
 20
-0.6259999999999997
 30
0.0
 40
0.3439999999999999
  0
INSERT
  5
607
330
5FA
100
AcDbEntity
  8
DAMAN
100
AcDbBlockReference
  2
100CROSS
 10
-1.625999999999999
 20
-0.6259999999999997
 30
0.0
 41
0.5625
 42
0.5625
  0
CIRCLE
  5
608
330
5FA
100
AcDbEntity
  8
DAMAN
100
AcDbCircle
 10
-1.687999999999999
 20
-1.499999999999998
 30
0.0
 40
0.125
  0
INSERT
  5
609
330
5FA
100
AcDbEntity
  8
DAMAN
100
AcDbBlockReference
  2
100CROSS
 10
-1.687999999999999
 20
-1.499999999999998
 30
0.0
 41
0.375
 42
0.375
  0
TEXT
  5
60A
330
5FA
100
AcDbEntity
  8
DAMAN
100
AcDbText
 10
-1.562999999999999
 20
-1.313249999999998
 30
0.0
 40
0.12
  1
Y
100
AcDbText
  0
TEXT
  5
60B
330
5FA
100
AcDbEntity
  8
DAMAN
100
AcDbText
 10
-1.312999999999999
 20
-0.2194999999999998
 30
0.0
 40
0.12
  1
B
100
AcDbText
  0
CIRCLE
  5
60C
330
5FA
100
AcDbEntity
  8
DAMAN
100
AcDbCircle
 10
-2.188
 20
1.249
 30
0.0
 40
0.0845
  0
CIRCLE
  5
60D
330
5FA
100
AcDbEntity
  8
DAMAN
100
AcDbCircle
 10
-2.188
 20
1.968
 30
0.0
 40
0.1875
  0
CIRCLE
  5
60E
330
5FA
100
AcDbEntity
  8
DAMAN
100
AcDbCircle
 10
-2.188
 20
1.968
 30
0.0
 40
0.15625
  0
INSERT
  5
60F
330
5FA
100
AcDbEntity
  8
DAMAN
100
AcDbBlockReference
  2
100CROSS
 10
-2.188
 20
1.968
 30
0.0
 41
0.375
 42
0.375
  0
INSERT
  5
610
330
5FA
100
AcDbEntity
  8
DAMAN
100
AcDbBlockReference
  2
100CROSS
 10
-2.188
 20
1.249
 30
0.0
 41
0.25
 42
0.25
  0
CIRCLE
  5
611
330
5FA
100
AcDbEntity
  8
DAMAN
100
AcDbCircle
 10
-1.625999999999999
 20
0.6240000000000001
 30
0.0
 40
0.3439999999999999
  0
INSERT
  5
612
330
5FA
100
AcDbEntity
  8
DAMAN
100
AcDbBlockReference
  2
100CROSS
 10
-1.625999999999999
 20
0.6240000000000001
 30
0.0
 41
0.5625
 42
0.5625
  0
TEXT
  5
613
330
5FA
100
AcDbEntity
  8
DAMAN
100
AcDbText
 10
-1.344249999999999
 20
1.030499999999998
 30
0.0
 40
0.12
  1
A
100
AcDbText
  0
INSERT
  5
614
330
5FA
100
AcDbEntity
  8
DAMAN
100
AcDbBlockReference
  2
100CROSS
 10
0.5620000000000001
 20
-2.032
 30
0.0
 41
0.375
 42
0.375
  0
CIRCLE
  5
615
330
5FA
100
AcDbEntity
  8
DAMAN
100
AcDbCircle
 10
0.5620000000000001
 20
-2.032
 30
0.0
 40
0.1875
  0
CIRCLE
  5
616
330
5FA
100
AcDbEntity
  8
DAMAN
100
AcDbCircle
 10
0.5620000000000001
 20
-2.032
 30
0.0
 40
0.15625
  0
INSERT
  5
617
330
5FA
100
AcDbEntity
  8
DAMAN
100
AcDbBlockReference
  2
100CROSS
 10
0.5620000000000001
 20
-1.046999999999999
 30
0.0
 41
0.25
 42
0.25
  0
CIRCLE
  5
618
330
5FA
100
AcDbEntity
  8
DAMAN
100
AcDbCircle
 10
0.5620000000000001
 20
-1.046999999999999
 30
0.0
 40
0.0845
  0
INSERT
  5
619
330
5FA
100
AcDbEntity
  8
DAMAN
100
AcDbBlockReference
  2
100CROSS
 10
0.5620000000000001
 20
1.968
 30
0.0
 41
0.375
 42
0.375
  0
INSERT
  5
61A
330
5FA
100
AcDbEntity
  8
DAMAN
100
AcDbBlockReference
  2
100CROSS
 10
0.6245000000000001
 20
0.6240000000000001
 30
0.0
 41
0.25
 42
0.25
  0
TEXT
  5
61B
330
5FA
100
AcDbEntity
  8
DAMAN
100
AcDbText
 10
0.2182499999999998
 20
0.4680000000000002
 30
0.0
 40
0.12
  1
P
100
AcDbText
  0
CIRCLE
  5
61C
330
5FA
100
AcDbEntity
  8
DAMAN
100
AcDbCircle
 10
0.6239999999999993
 20
0.6242499999999998
 30
0.0
 40
0.125
  0
CIRCLE
  5
61D
330
5FA
100
AcDbEntity
  8
DAMAN
100
AcDbCircle
 10
0.6245000000000001
 20
0.6240000000000001
 30
0.0
 40
0.1055
  0
TEXT
  5
61E
330
5FA
100
AcDbEntity
  8
DAMAN
100
AcDbText
 10
0.2494999999999998
 20
1.718
 30
0.0
 40
0.12
  1
T
100
AcDbText
  0
CIRCLE
  5
61F
330
5FA
100
AcDbEntity
  8
DAMAN
100
AcDbCircle
 10
0.5620000000000001
 20
1.968
 30
0.0
 40
0.1875
  0
CIRCLE
  5
620
330
5FA
100
AcDbEntity
  8
DAMAN
100
AcDbCircle
 10
0.5620000000000001
 20
1.968
 30
0.0
 40
0.15625
  0
ENDBLK
  5
621
330
5FA
100
AcDbEntity
  8
0
100
AcDbBlockEnd
  0
BLOCK
  5
623
330
622
100
AcDbEntity
  8
0
100
AcDbBlockBegin
  2
600MKT
 70
     0
 10
0.0
 20
0.0
 30
0.0
  3
600MKT
  1

  0
LINE
  5
624
330
622
100
AcDbEntity
  8
DAMAN
100
AcDbLine
 10
-0.5625
 20
6.0
 30
0.0
 11
1.0625
 21
6.0
 31
0.0
  0
LINE
  5
625
330
622
100
AcDbEntity
  8
DAMAN
100
AcDbLine
 10
1.0625
 20
6.0
 30
0.0
 11
1.0625
 21
0.0
 31
0.0
  0
LINE
  5
626
330
622
100
AcDbEntity
  8
DAMAN
100
AcDbLine
 10
1.0625
 20
0.0
 30
0.0
 11
-0.5625
 21
0.0
 31
0.0
  0
LINE
  5
627
330
622
100
AcDbEntity
  8
DAMAN
100
AcDbLine
 10
-0.5625
 20
0.0
 30
0.0
 11
-0.5625
 21
6.0
 31
0.0
  0
LINE
  5
628
330
622
100
AcDbEntity
  8
DAMAN
100
AcDbLine
 10
-0.375
 20
0.0
 30
0.0
 11
-0.375
 21
6.0
 31
0.0
  0
LINE
  5
629
330
622
100
AcDbEntity
  8
DAMAN
100
AcDbLine
 10
-0.375
 20
1.09375
 30
0.0
 11
-0.3125
 21
1.09375
 31
0.0
  0
LINE
  5
62A
330
622
100
AcDbEntity
  8
DAMAN
100
AcDbLine
 10
-0.3125
 20
1.09375
 30
0.0
 11
-0.3125
 21
0.03125
 31
0.0
  0
LINE
  5
62B
330
622
100
AcDbEntity
  8
DAMAN
100
AcDbLine
 10
-0.3125
 20
0.03125
 30
0.0
 11
-0.375
 21
0.03125
 31
0.0
  0
LINE
  5
62C
330
622
100
AcDbEntity
  8
DAMAN
100
AcDbLine
 10
-0.3125
 20
0.9955127018922189
 30
0.0
 11
-0.0428346394726904
 21
0.9955127018922189
 31
0.0
  0
LINE
  5
62D
330
622
100
AcDbEntity
  8
DAMAN
100
AcDbLine
 10
-0.0000000000000004
 20
0.921320930001624
 30
0.0
 11
0.0000000000000004
 21
0.2036790699983779
 31
0.0
  0
LINE
  5
62E
330
622
100
AcDbEntity
  8
DAMAN
100
AcDbLine
 10
-0.0428346394726904
 20
0.1294872981077813
 30
0.0
 11
-0.3125
 21
0.1294872981077813
 31
0.0
  0
LINE
  5
62F
330
622
100
AcDbEntity
  8
DAMAN
100
AcDbLine
 10
-0.3125
 20
0.7790063509461103
 30
0.0
 11
-0.0625000000000462
 21
0.7790063509461103
 31
0.0
  0
LINE
  5
630
330
622
100
AcDbEntity
  8
DAMAN
100
AcDbLine
 10
-0.3125
 20
0.3459936490538915
 30
0.0
 11
-0.0624999999999894
 21
0.3459936490538915
 31
0.0
  0
ARC
  5
631
330
622
100
AcDbEntity
  8
DAMAN
100
AcDbCircle
 10
-0.4062499999999967
 20
0.5625000000000018
 30
0.0
 40
0.4062499999999964
100
AcDbArc
 50
327.7957724960277
 51
32.20422750397212
  0
ARC
  5
632
330
622
100
AcDbEntity
  8
DAMAN
100
AcDbCircle
 10
-0.1250000000000004
 20
0.2377404735808355
 30
0.0
 40
0.1250000000000008
100
AcDbArc
 50
300.0000000000003
 51
60.00000000000041
  0
ARC
  5
633
330
622
100
AcDbEntity
  8
DAMAN
100
AcDbCircle
 10
-0.1250000000000004
 20
0.8872595264191645
 30
0.0
 40
0.1250000000000008
100
AcDbArc
 50
299.9999999999996
 51
59.99999999999973
  0
LINE
  5
634
330
622
100
AcDbEntity
  8
DAMAN
100
AcDbLine
 10
-0.0428346394726904
 20
0.9955127018922189
 30
0.0
 11
-0.0000000000000004
 21
0.921320930001624
 31
0.0
  0
LINE
  5
635
330
622
100
AcDbEntity
  8
DAMAN
100
AcDbLine
 10
-0.0428346394726904
 20
0.1294872981077813
 30
0.0
 11
0.0000000000000004
 21
0.2036790699983779
 31
0.0
  0
LINE
  5
636
330
622
100
AcDbEntity
  8
DAMAN
100
AcDbLine
 10
-0.5625
 20
0.8125
 30
0.0
 11
-1.28125
 21
0.8125
 31
0.0
  0
LINE
  5
637
330
622
100
AcDbEntity
  8
DAMAN
100
AcDbLine
 10
-1.28125
 20
0.8125
 30
0.0
 11
-1.3125
 21
0.78125
 31
0.0
  0
LINE
  5
638
330
622
100
AcDbEntity
  8
DAMAN
100
AcDbLine
 10
-1.3125
 20
0.78125
 30
0.0
 11
-1.3125
 21
0.34375
 31
0.0
  0
LINE
  5
639
330
622
100
AcDbEntity
  8
DAMAN
100
AcDbLine
 10
-1.3125
 20
0.34375
 30
0.0
 11
-1.28125
 21
0.3125
 31
0.0
  0
LINE
  5
63A
330
622
100
AcDbEntity
  8
DAMAN
100
AcDbLine
 10
-1.28125
 20
0.3125
 30
0.0
 11
-0.5625
 21
0.3125
 31
0.0
  0
LINE
  5
63B
330
622
100
AcDbEntity
  8
DAMAN
100
AcDbLine
 10
-0.5625
 20
0.78125
 30
0.0
 11
-1.3125
 21
0.78125
 31
0.0
  0
LINE
  5
63C
330
622
100
AcDbEntity
  8
DAMAN
100
AcDbLine
 10
-0.5625
 20
0.34375
 30
0.0
 11
-1.3125
 21
0.34375
 31
0.0
  0
LINE
  5
63D
330
622
100
AcDbEntity
  8
DAMAN
100
AcDbLine
 10
0.125
 20
0.5625
 30
0.0
 11
-1.40625
 21
0.5625
 31
0.0
  0
LINE
  5
63E
330
622
100
AcDbEntity
  8
DAMAN
100
AcDbLine
 10
0.125
 20
5.4375
 30
0.0
 11
-1.40625
 21
5.4375
 31
0.0
  0
LINE
  5
63F
330
622
100
AcDbEntity
  8
DAMAN
100
AcDbLine
 10
-0.5625
 20
5.21875
 30
0.0
 11
-1.3125
 21
5.21875
 31
0.0
  0
LINE
  5
640
330
622
100
AcDbEntity
  8
DAMAN
100
AcDbLine
 10
-1.28125
 20
5.1875
 30
0.0
 11
-0.5625
 21
5.1875
 31
0.0
  0
LINE
  5
641
330
622
100
AcDbEntity
  8
DAMAN
100
AcDbLine
 10
-0.5625
 20
5.65625
 30
0.0
 11
-1.3125
 21
5.65625
 31
0.0
  0
LINE
  5
642
330
622
100
AcDbEntity
  8
DAMAN
100
AcDbLine
 10
-0.5625
 20
5.6875
 30
0.0
 11
-1.28125
 21
5.6875
 31
0.0
  0
LINE
  5
643
330
622
100
AcDbEntity
  8
DAMAN
100
AcDbLine
 10
-1.3125
 20
5.65625
 30
0.0
 11
-1.3125
 21
5.21875
 31
0.0
  0
LINE
  5
644
330
622
100
AcDbEntity
  8
DAMAN
100
AcDbLine
 10
-1.28125
 20
5.6875
 30
0.0
 11
-1.3125
 21
5.65625
 31
0.0
  0
LINE
  5
645
330
622
100
AcDbEntity
  8
DAMAN
100
AcDbLine
 10
-1.3125
 20
5.21875
 30
0.0
 11
-1.28125
 21
5.1875
 31
0.0
  0
ARC
  5
646
330
622
100
AcDbEntity
  8
DAMAN
100
AcDbCircle
 10
-0.4062499999999967
 20
5.4375
 30
0.0
 40
0.4062499999999964
100
AcDbArc
 50
327.7957724960277
 51
32.20422750397212
  0
LINE
  5
647
330
622
100
AcDbEntity
  8
DAMAN
100
AcDbLine
 10
-0.3125
 20
5.96875
 30
0.0
 11
-0.3125
 21
4.90625
 31
0.0
  0
LINE
  5
648
330
622
100
AcDbEntity
  8
DAMAN
100
AcDbLine
 10
-0.0000000000000004
 20
5.796320930001622
 30
0.0
 11
0.0000000000000004
 21
5.078679069998377
 31
0.0
  0
ARC
  5
649
330
622
100
AcDbEntity
  8
DAMAN
100
AcDbCircle
 10
-0.1250000000000004
 20
5.762259526419161
 30
0.0
 40
0.1250000000000008
100
AcDbArc
 50
299.9999999999996
 51
59.99999999999973
  0
LINE
  5
64A
330
622
100
AcDbEntity
  8
DAMAN
100
AcDbLine
 10
-0.0428346394726904
 20
5.870512701892216
 30
0.0
 11
-0.0000000000000004
 21
5.796320930001622
 31
0.0
  0
LINE
  5
64B
330
622
100
AcDbEntity
  8
DAMAN
100
AcDbLine
 10
-0.3125
 20
5.870512701892216
 30
0.0
 11
-0.0428346394726904
 21
5.870512701892216
 31
0.0
  0
LINE
  5
64C
330
622
100
AcDbEntity
  8
DAMAN
100
AcDbLine
 10
-0.375
 20
5.96875
 30
0.0
 11
-0.3125
 21
5.96875
 31
0.0
  0
LINE
  5
64D
330
622
100
AcDbEntity
  8
DAMAN
100
AcDbLine
 10
-0.3125
 20
5.65400635094611
 30
0.0
 11
-0.0625000000000462
 21
5.65400635094611
 31
0.0
  0
ARC
  5
64E
330
622
100
AcDbEntity
  8
DAMAN
100
AcDbCircle
 10
-0.1250000000000004
 20
5.112740473580834
 30
0.0
 40
0.1250000000000008
100
AcDbArc
 50
300.0000000000003
 51
60.00000000000041
  0
LINE
  5
64F
330
622
100
AcDbEntity
  8
DAMAN
100
AcDbLine
 10
-0.3125
 20
5.220993649053889
 30
0.0
 11
-0.0624999999999894
 21
5.220993649053889
 31
0.0
  0
LINE
  5
650
330
622
100
AcDbEntity
  8
DAMAN
100
AcDbLine
 10
-0.0428346394726904
 20
5.00448729810778
 30
0.0
 11
-0.3125
 21
5.00448729810778
 31
0.0
  0
LINE
  5
651
330
622
100
AcDbEntity
  8
DAMAN
100
AcDbLine
 10
-0.3125
 20
4.90625
 30
0.0
 11
-0.375
 21
4.90625
 31
0.0
  0
LINE
  5
652
330
622
100
AcDbEntity
  8
DAMAN
100
AcDbLine
 10
-0.0428346394726904
 20
5.00448729810778
 30
0.0
 11
0.0000000000000004
 21
5.078679069998377
 31
0.0
  0
CIRCLE
  5
653
330
622
100
AcDbEntity
  8
DAMAN
100
AcDbCircle
 10
0.5
 20
5.4375
 30
0.0
 40
0.53125
  0
CIRCLE
  5
654
330
622
100
AcDbEntity
  8
DAMAN
100
AcDbCircle
 10
0.5
 20
0.5625
 30
0.0
 40
0.53125
  0
LWPOLYLINE
  5
655
330
622
100
AcDbEntity
  8
DAMAN
100
AcDbPolyline
 90
        6
 70
     1
 43
0.0
 10
0.875
 20
5.654006350946106
 10
0.5
 20
5.870512701892216
 10
0.125
 20
5.654006350946106
 10
0.125
 20
5.220993649053888
 10
0.4999999999999998
 20
5.00448729810778
 10
0.8749999999999998
 20
5.220993649053887
  0
CIRCLE
  5
65D
330
622
100
AcDbEntity
  8
DAMAN
100
AcDbCircle
 10
0.5
 20
5.4375
 30
0.0
 40
0.375
  0
CIRCLE
  5
65E
330
622
100
AcDbEntity
  8
DAMAN
100
AcDbCircle
 10
0.5
 20
0.5625
 30
0.0
 40
0.375
  0
LWPOLYLINE
  5
65F
330
622
100
AcDbEntity
  8
DAMAN
100
AcDbPolyline
 90
        6
 70
     1
 43
0.0
 10
0.875
 20
0.7790063509461094
 10
0.5
 20
0.9955127018922196
 10
0.125
 20
0.7790063509461094
 10
0.125
 20
0.3459936490538906
 10
0.4999999999999998
 20
0.1294872981077804
 10
0.8749999999999998
 20
0.3459936490538897
  0
ENDBLK
  5
667
330
622
100
AcDbEntity
  8
0
100
AcDbBlockEnd
  0
BLOCK
  5
669
330
668
100
AcDbEntity
  8
0
100
AcDbBlockBegin
  2
08SAET
 70
     0
 10
0.0
 20
0.0
 30
0.0
  3
08SAET
  1

  0
CIRCLE
  5
66A
330
668
100
AcDbEntity
  8
DAMAN
100
AcDbCircle
 10
0.0
 20
0.0
 30
0.0
 40
0.375
  0
CIRCLE
  5
66B
330
668
100
AcDbEntity
  8
DAMAN
100
AcDbCircle
 10
-0.0000000000000391
 20
-0.00000000000004
 30
0.0
 40
0.3125
  0
CIRCLE
  5
66C
330
668
100
AcDbEntity
  8
DAMAN
  6
HIDDEN
100
AcDbCircle
 10
-0.0000000000000391
 20
-0.00000000000004
 30
0.0
 40
0.3439999999999999
  0
INSERT
  5
66D
330
668
100
AcDbEntity
  8
DAMAN
100
AcDbBlockReference
  2
100CROSS
 10
0.0
 20
0.0
 30
0.0
 41
0.88
 42
0.88
  0
CIRCLE
  5
66E
330
668
100
AcDbEntity
  8
DAMAN
100
AcDbCircle
 10
0.0
 20
0.0
 30
0.0
 40
0.594
  0
ENDBLK
  5
66F
330
668
100
AcDbEntity
  8
0
100
AcDbBlockEnd
  0
BLOCK
  5
671
330
670
100
AcDbEntity
  8
0
100
AcDbBlockBegin
  2
600MKST
 70
     0
 10
0.0
 20
0.0
 30
0.0
  3
600MKST
  1

  0
LINE
  5
672
330
670
100
AcDbEntity
  8
DAMAN
100
AcDbLine
 10
-1.625
 20
-0.5625
 30
0.0
 11
-1.625
 21
-0.375
 31
0.0
  0
LINE
  5
673
330
670
100
AcDbEntity
  8
DAMAN
100
AcDbLine
 10
-1.625
 20
-0.375
 30
0.0
 11
-0.4375
 21
-0.375
 31
0.0
  0
LINE
  5
674
330
670
100
AcDbEntity
  8
DAMAN
100
AcDbLine
 10
-0.1875
 20
-0.125
 30
0.0
 11
-0.1875
 21
1.0625
 31
0.0
  0
LINE
  5
675
330
670
100
AcDbEntity
  8
DAMAN
100
AcDbLine
 10
-0.1875
 20
1.0625
 30
0.0
 11
0.0
 21
1.0625
 31
0.0
  0
LINE
  5
676
330
670
100
AcDbEntity
  8
DAMAN
100
AcDbLine
 10
0.0
 20
1.0625
 30
0.0
 11
0.0
 21
-0.125
 31
0.0
  0
LINE
  5
677
330
670
100
AcDbEntity
  8
DAMAN
100
AcDbLine
 10
-0.4375
 20
-0.5625
 30
0.0
 11
-1.625
 21
-0.5625
 31
0.0
  0
ARC
  5
678
330
670
100
AcDbEntity
  8
DAMAN
100
AcDbCircle
 10
-0.4375
 20
-0.125
 30
0.0
 40
0.25
100
AcDbArc
 50
270.0
 51
0.0
  0
ARC
  5
679
330
670
100
AcDbEntity
  8
DAMAN
100
AcDbCircle
 10
-0.4375
 20
-0.125
 30
0.0
 40
0.4375
100
AcDbArc
 50
270.0
 51
0.0
  0
LINE
  5
67A
330
670
100
AcDbEntity
  8
DAMAN
100
AcDbLine
 10
-1.59375
 20
-0.375
 30
0.0
 11
-1.59375
 21
-0.3125
 31
0.0
  0
LINE
  5
67B
330
670
100
AcDbEntity
  8
DAMAN
100
AcDbLine
 10
-1.59375
 20
-0.3125
 30
0.0
 11
-0.53125
 21
-0.3125
 31
0.0
  0
LINE
  5
67C
330
670
100
AcDbEntity
  8
DAMAN
100
AcDbLine
 10
-0.53125
 20
-0.3125
 30
0.0
 11
-0.53125
 21
-0.375
 31
0.0
  0
LINE
  5
67D
330
670
100
AcDbEntity
  8
DAMAN
100
AcDbLine
 10
-1.495512701892218
 20
-0.3125
 30
0.0
 11
-1.495512701892218
 21
-0.0428346394726904
 31
0.0
  0
LINE
  5
67E
330
670
100
AcDbEntity
  8
DAMAN
100
AcDbLine
 10
-1.421320930001621
 20
-0.0000000000000004
 30
0.0
 11
-0.703679069998378
 21
0.0000000000000004
 31
0.0
  0
LINE
  5
67F
330
670
100
AcDbEntity
  8
DAMAN
100
AcDbLine
 10
-0.6294872981077813
 20
-0.0428346394726904
 30
0.0
 11
-0.6294872981077813
 21
-0.3125
 31
0.0
  0
LINE
  5
680
330
670
100
AcDbEntity
  8
DAMAN
100
AcDbLine
 10
-1.27900635094611
 20
-0.3125
 30
0.0
 11
-1.27900635094611
 21
-0.0625000000000462
 31
0.0
  0
LINE
  5
681
330
670
100
AcDbEntity
  8
DAMAN
100
AcDbLine
 10
-0.8459936490538915
 20
-0.3125
 30
0.0
 11
-0.8459936490538915
 21
-0.0624999999999894
 31
0.0
  0
ARC
  5
682
330
670
100
AcDbEntity
  8
DAMAN
100
AcDbCircle
 10
-1.062500000000001
 20
-0.4062499999999967
 30
0.0
 40
0.4062499999999964
100
AcDbArc
 50
57.79577249602763
 51
122.204227503972
  0
ARC
  5
683
330
670
100
AcDbEntity
  8
DAMAN
100
AcDbCircle
 10
-0.7377404735808355
 20
-0.1250000000000004
 30
0.0
 40
0.1250000000000008
100
AcDbArc
 50
30.00000000000031
 51
150.0000000000003
  0
ARC
  5
684
330
670
100
AcDbEntity
  8
DAMAN
100
AcDbCircle
 10
-1.387259526419163
 20
-0.1250000000000004
 30
0.0
 40
0.1250000000000008
100
AcDbArc
 50
29.9999999999996
 51
149.9999999999997
  0
LINE
  5
685
330
670
100
AcDbEntity
  8
DAMAN
100
AcDbLine
 10
-1.495512701892218
 20
-0.0428346394726904
 30
0.0
 11
-1.421320930001621
 21
-0.0000000000000004
 31
0.0
  0
LINE
  5
686
330
670
100
AcDbEntity
  8
DAMAN
100
AcDbLine
 10
-0.6294872981077813
 20
-0.0428346394726904
 30
0.0
 11
-0.703679069998378
 21
0.0000000000000004
 31
0.0
  0
LINE
  5
687
330
670
100
AcDbEntity
  8
DAMAN
100
AcDbLine
 10
-1.3125
 20
-0.5625
 30
0.0
 11
-1.3125
 21
-1.28125
 31
0.0
  0
LINE
  5
688
330
670
100
AcDbEntity
  8
DAMAN
100
AcDbLine
 10
-1.3125
 20
-1.28125
 30
0.0
 11
-1.28125
 21
-1.3125
 31
0.0
  0
LINE
  5
689
330
670
100
AcDbEntity
  8
DAMAN
100
AcDbLine
 10
-1.28125
 20
-1.3125
 30
0.0
 11
-0.84375
 21
-1.3125
 31
0.0
  0
LINE
  5
68A
330
670
100
AcDbEntity
  8
DAMAN
100
AcDbLine
 10
-0.84375
 20
-1.3125
 30
0.0
 11
-0.8125
 21
-1.28125
 31
0.0
  0
LINE
  5
68B
330
670
100
AcDbEntity
  8
DAMAN
100
AcDbLine
 10
-0.8125
 20
-1.28125
 30
0.0
 11
-0.8125
 21
-0.5625
 31
0.0
  0
LINE
  5
68C
330
670
100
AcDbEntity
  8
DAMAN
100
AcDbLine
 10
-1.28125
 20
-0.5625
 30
0.0
 11
-1.28125
 21
-1.3125
 31
0.0
  0
LINE
  5
68D
330
670
100
AcDbEntity
  8
DAMAN
100
AcDbLine
 10
-0.84375
 20
-0.5625
 30
0.0
 11
-0.84375
 21
-1.3125
 31
0.0
  0
LINE
  5
68E
330
670
100
AcDbEntity
  8
DAMAN
100
AcDbLine
 10
-1.0625
 20
0.125
 30
0.0
 11
-1.0625
 21
-1.40625
 31
0.0
  0
LINE
  5
68F
330
670
100
AcDbEntity
  8
DAMAN
100
AcDbLine
 10
-0.5196653605273092
 20
0.9330127018922189
 30
0.0
 11
-0.5625
 21
0.8588209300016222
 31
0.0
  0
LINE
  5
690
330
670
100
AcDbEntity
  8
DAMAN
100
AcDbLine
 10
-0.5196653605273092
 20
0.0669872981077813
 30
0.0
 11
-0.5624999999999984
 21
0.1411790699983761
 31
0.0
  0
ARC
  5
691
330
670
100
AcDbEntity
  8
DAMAN
100
AcDbCircle
 10
-0.4374999999999984
 20
0.1752404735808355
 30
0.0
 40
0.1250000000000008
100
AcDbArc
 50
119.9999999999996
 51
239.9999999999995
  0
ARC
  5
692
330
670
100
AcDbEntity
  8
DAMAN
100
AcDbCircle
 10
-0.4374999999999984
 20
0.8247595264191645
 30
0.0
 40
0.1250000000000008
100
AcDbArc
 50
120.0000000000003
 51
240.0000000000004
  0
ARC
  5
693
330
670
100
AcDbEntity
  8
DAMAN
100
AcDbCircle
 10
-0.1562500000000035
 20
0.4999999999999984
 30
0.0
 40
0.4062499999999964
100
AcDbArc
 50
147.7957724960276
 51
212.204227503972
  0
LINE
  5
694
330
670
100
AcDbEntity
  8
DAMAN
100
AcDbLine
 10
-0.25
 20
0.7165063509461085
 30
0.0
 11
-0.5000000000000107
 21
0.7165063509461085
 31
0.0
  0
LINE
  5
695
330
670
100
AcDbEntity
  8
DAMAN
100
AcDbLine
 10
-0.25
 20
0.2834936490538897
 30
0.0
 11
-0.4999999999999539
 21
0.2834936490538897
 31
0.0
  0
LINE
  5
696
330
670
100
AcDbEntity
  8
DAMAN
100
AcDbLine
 10
-0.5196653605273092
 20
0.9330127018922189
 30
0.0
 11
-0.25
 21
0.9330127018922189
 31
0.0
  0
LINE
  5
697
330
670
100
AcDbEntity
  8
DAMAN
100
AcDbLine
 10
-0.5624999999999984
 20
0.1411790699983761
 30
0.0
 11
-0.5625
 21
0.8588209300016222
 31
0.0
  0
LINE
  5
698
330
670
100
AcDbEntity
  8
DAMAN
100
AcDbLine
 10
-0.25
 20
0.0669872981077813
 30
0.0
 11
-0.5196653605273092
 21
0.0669872981077813
 31
0.0
  0
LINE
  5
699
330
670
100
AcDbEntity
  8
DAMAN
100
AcDbLine
 10
-0.25
 20
1.03125
 30
0.0
 11
-0.1875
 21
1.03125
 31
0.0
  0
LINE
  5
69A
330
670
100
AcDbEntity
  8
DAMAN
100
AcDbLine
 10
-0.25
 20
-0.03125
 30
0.0
 11
-0.25
 21
1.03125
 31
0.0
  0
LINE
  5
69B
330
670
100
AcDbEntity
  8
DAMAN
100
AcDbLine
 10
-0.1875
 20
-0.03125
 30
0.0
 11
-0.25
 21
-0.03125
 31
0.0
  0
ENDBLK
  5
69C
330
670
100
AcDbEntity
  8
0
100
AcDbBlockEnd
  0
BLOCK
  5
69E
330
69D
100
AcDbEntity
  8
0
100
AcDbBlockBegin
  2
125NPTFT
 70
     0
 10
0.0
 20
0.0
 30
0.0
  3
125NPTFT
  1

  0
CIRCLE
  5
69F
330
69D
100
AcDbEntity
  8
DAMAN
100
AcDbCircle
 10
0.00000000000004
 20
0.0000000000003997
 30
0.0
 40
0.8440000000000001
  0
CIRCLE
  5
6A0
330
69D
100
AcDbEntity
  8
DAMAN
100
AcDbCircle
 10
0.00000000000004
 20
0.0000000000003997
 30
0.0
 40
0.7265000000000002
  0
INSERT
  5
6A1
330
69D
100
AcDbEntity
  8
DAMAN
100
AcDbBlockReference
  2
100CROSS
 10
0.00000000000004
 20
0.0000000000003997
 30
0.0
 41
1.399999999999999
 42
1.399999999999999
  0
CIRCLE
  5
6A2
330
69D
100
AcDbEntity
  8
DAMAN
100
AcDbCircle
 10
0.0
 20
0.0
 30
0.0
 40
0.78125
  0
ENDBLK
  5
6A3
330
69D
100
AcDbEntity
  8
0
100
AcDbBlockEnd
  0
BLOCK
  5
6A5
330
6A4
100
AcDbEntity
  8
0
100
AcDbBlockBegin
  2
050NPTFT
 70
     0
 10
0.0
 20
0.0
 30
0.0
  3
050NPTFT
  1

  0
INSERT
  5
6A7
330
6A4
100
AcDbEntity
  8
DAMAN
100
AcDbBlockReference
  2
500NPTFT
 10
0.0
 20
0.0
 30
0.0
  0
ENDBLK
  5
6A8
330
6A4
100
AcDbEntity
  8
0
100
AcDbBlockEnd
  0
BLOCK
  5
6A9
330
6A6
100
AcDbEntity
  8
0
100
AcDbBlockBegin
  2
500NPTFT
 70
     0
 10
0.0
 20
0.0
 30
0.0
  3
500NPTFT
  1

  0
INSERT
  5
6AA
330
6A6
100
AcDbEntity
  8
DAMAN
 62
     5
100
AcDbBlockReference
  2
100CROSS
 10
0.0
 20
0.0
 30
0.0
 41
0.84
 42
0.84
  0
CIRCLE
  5
6AB
330
6A6
100
AcDbEntity
  8
DAMAN
 62
     5
100
AcDbCircle
 10
-0.0000000000003979
 20
-0.0000000000000497
 30
0.0
 40
0.3846266739788397
  0
CIRCLE
  5
6AC
330
6A6
100
AcDbEntity
  8
DAMAN
 62
     5
100
AcDbCircle
 10
0.0
 20
0.0
 30
0.0
 40
0.3439999999999999
  0
CIRCLE
  5
6AD
330
6A6
100
AcDbEntity
  8
DAMAN
 62
     5
100
AcDbCircle
 10
0.0
 20
0.0
 30
0.0
 40
0.4295000000000001
  0
ENDBLK
  5
6AE
330
6A6
100
AcDbEntity
  8
0
100
AcDbBlockEnd
  0
BLOCK
  5
6B0
330
6AF
100
AcDbEntity
  8
0
100
AcDbBlockBegin
  2
20SAET
 70
     0
 10
0.0
 20
0.0
 30
0.0
  3
20SAET
  1

  0
INSERT
  5
6B1
330
6AF
100
AcDbEntity
  8
DAMAN
100
AcDbBlockReference
  2
100CROSS
 10
0.0
 20
0.0
 30
0.0
 41
1.7
 42
1.7
  0
CIRCLE
  5
6B2
330
6AF
100
AcDbEntity
  8
DAMAN
100
AcDbCircle
 10
0.0
 20
0.0
 30
0.0
 40
0.8125
  0
CIRCLE
  5
6B3
330
6AF
100
AcDbEntity
  8
DAMAN
100
AcDbCircle
 10
0.0
 20
0.0
 30
0.0
 40
1.125
  0
CIRCLE
  5
6B4
330
6AF
100
AcDbEntity
  8
DAMAN
100
AcDbCircle
 10
0.0
 20
0.0
 30
0.0
 40
0.75
  0
ENDBLK
  5
6B5
330
6AF
100
AcDbEntity
  8
0
100
AcDbBlockEnd
  0
BLOCK
  5
6B7
330
6B6
100
AcDbEntity
  8
0
100
AcDbBlockBegin
  2
125BSPPT
 70
     0
 10
0.0
 20
0.0
 30
0.0
  3
125BSPPT
  1

  0
CIRCLE
  5
6B8
330
6B6
100
AcDbEntity
  8
DAMAN
100
AcDbCircle
 10
0.0
 20
0.0
 30
0.0
 40
0.703
  0
CIRCLE
  5
6B9
330
6B6
100
AcDbEntity
  8
DAMAN
100
AcDbCircle
 10
0.0
 20
0.0
 30
0.0
 40
0.7700000000000001
  0
CIRCLE
  5
6BA
330
6B6
100
AcDbEntity
  8
DAMAN
  6
HIDDEN
100
AcDbCircle
 10
0.0
 20
0.0
 30
0.0
 40
0.825
  0
CIRCLE
  5
6BB
330
6B6
100
AcDbEntity
  8
DAMAN
100
AcDbCircle
 10
0.0
 20
0.0
 30
0.0
 40
1.125
  0
INSERT
  5
6BC
330
6B6
100
AcDbEntity
  8
DAMAN
100
AcDbBlockReference
  2
100CROSS
 10
0.0000000000000586
 20
0.0000000000005995
 30
0.0
 41
2.099999999999999
 42
2.099999999999999
  0
ENDBLK
  5
6BD
330
6B6
100
AcDbEntity
  8
0
100
AcDbBlockEnd
  0
BLOCK
  5
6BF
330
6BE
100
AcDbEntity
  8
0
100
AcDbBlockBegin
  2
0500BSPPT
 70
     0
 10
0.0
 20
0.0
 30
0.0
  3
0500BSPPT
  1

  0
CIRCLE
  5
6C0
330
6BE
100
AcDbEntity
  8
DAMAN
100
AcDbCircle
 10
-0.0000000000000391
 20
-0.0000000000000391
 30
0.0
 40
0.3795
  0
INSERT
  5
6C1
330
6BE
100
AcDbEntity
  8
DAMAN
100
AcDbBlockReference
  2
100CROSS
 10
-0.0000000000000391
 20
-0.0000000000000391
 30
0.0
 41
1.199999999999999
 42
1.199999999999999
  0
CIRCLE
  5
6C2
330
6BE
100
AcDbEntity
  8
DAMAN
100
AcDbCircle
 10
-0.0000000000000391
 20
-0.0000000000000391
 30
0.0
 40
0.605
  0
CIRCLE
  5
6C3
330
6BE
100
AcDbEntity
  8
DAMAN
  6
HIDDEN
100
AcDbCircle
 10
-0.0000000000000391
 20
-0.0000000000000391
 30
0.0
 40
0.4125
  0
CIRCLE
  5
6C4
330
6BE
100
AcDbEntity
  8
DAMAN
100
AcDbCircle
 10
-0.0000000000000142
 20
-0.000000000000016
 30
0.0
 40
0.4175
  0
ENDBLK
  5
6C5
330
6BE
100
AcDbEntity
  8
0
100
AcDbBlockEnd
  0
BLOCK
  5
6C7
330
6C6
100
AcDbEntity
  8
0
100
AcDbBlockBegin
  2
M42T
 70
     0
 10
0.0
 20
0.0
 30
0.0
  3
M42T
  1

  0
CIRCLE
  5
6C8
330
6C6
100
AcDbEntity
  8
DAMAN
100
AcDbCircle
 10
0.0
 20
0.0
 30
0.0
 40
1.179999999999999
  0
CIRCLE
  5
6C9
330
6C6
100
AcDbEntity
  8
DAMAN
100
AcDbCircle
 10
0.0
 20
0.0
 30
0.0
 40
1.023499999999997
  0
CIRCLE
  5
6CA
330
6C6
100
AcDbEntity
  8
DAMAN
100
AcDbCircle
 10
0.0
 20
0.0
 30
0.0
 40
0.8740000000000001
  0
CIRCLE
  5
6CB
330
6C6
100
AcDbEntity
  8
DAMAN
  6
HIDDEN
100
AcDbCircle
 10
0.0
 20
0.0
 30
0.0
 40
0.8265
  0
CIRCLE
  5
6CC
330
6C6
100
AcDbEntity
  8
DAMAN
100
AcDbCircle
 10
0.0
 20
0.0
 30
0.0
 40
0.7900000000000002
  0
CIRCLE
  5
6CD
330
6C6
100
AcDbEntity
  8
DAMAN
100
AcDbCircle
 10
0.0
 20
0.0
 30
0.0
 40
0.625
  0
INSERT
  5
6CE
330
6C6
100
AcDbEntity
  8
DAMAN
100
AcDbBlockReference
  2
100CROSS
 10
0.0
 20
0.0
 30
0.0
 41
1.75
 42
1.75
  0
ENDBLK
  5
6CF
330
6C6
100
AcDbEntity
  8
0
100
AcDbBlockEnd
  0
ENDSEC
  0
SECTION
  2
ENTITIES
  0
LINE
  5
6D1
330
59B
100
AcDbEntity
  8
DAMAN
  6
HIDDEN
100
AcDbLine
 10
3.222981730665903
 20
14.64704760976418
 30
0.0
 11
3.222981730665903
 21
20.8970476097642
 31
0.0
  0
LINE
  5
6D2
330
59B
100
AcDbEntity
  8
DAMAN
100
AcDbLine
 10
3.222981730665903
 20
20.8970476097642
 30
0.0
 11
7.972981730665906
 21
20.8970476097642
 31
0.0
  0
LINE
  5
6D3
330
59B
100
AcDbEntity
  8
DAMAN
100
AcDbLine
 10
7.972981730665906
 20
14.64704760976418
 30
0.0
 11
7.972981730665905
 21
20.8970476097642
 31
0.0
  0
LINE
  5
6D4
330
59B
100
AcDbEntity
  8
DAMAN
100
AcDbLine
 10
3.222981730665903
 20
14.64704760976418
 30
0.0
 11
7.972981730665906
 21
14.64704760976418
 31
0.0
  0
LINE
  5
6D5
330
59B
100
AcDbEntity
  8
DAMAN
100
AcDbLine
 10
10.59798173066589
 20
14.64704760976418
 30
0.0
 11
10.59798173066589
 21
20.8970476097642
 31
0.0
  0
LINE
  5
6D6
330
59B
100
AcDbEntity
  8
DAMAN
100
AcDbLine
 10
36.22298173066589
 20
14.64704760976418
 30
0.0
 11
36.22298173066589
 21
20.8970476097642
 31
0.0
  0
LINE
  5
6D7
330
59B
100
AcDbEntity
  8
DAMAN
100
AcDbLine
 10
10.59798173066589
 20
20.8970476097642
 30
0.0
 11
36.22298173066589
 21
20.8970476097642
 31
0.0
  0
LINE
  5
6D8
330
59B
100
AcDbEntity
  8
DAMAN
100
AcDbLine
 10
10.59798173066589
 20
14.64704760976418
 30
0.0
 11
36.22298173066589
 21
14.64704760976418
 31
0.0
  0
INSERT
  5
6D9
330
59B
100
AcDbEntity
  8
DAMAN
100
AcDbBlockReference
  2
600MKT
 10
3.225481730665903
 20
14.7720476097642
 30
0.0
  0
INSERT
  5
6DA
330
59B
100
AcDbEntity
  8
DAMAN
100
AcDbBlockReference
  2
600MKST
 10
10.59798173066589
 20
8.897047609764205
 30
0.0
  0
LINE
  5
6DB
330
59B
100
AcDbEntity
  8
DAMAN
100
AcDbLine
 10
10.59798173066589
 20
14.7720476097642
 30
0.0
 11
8.972981730665907
 21
14.7720476097642
 31
0.0
  0
LINE
  5
6DC
330
59B
100
AcDbEntity
  8
DAMAN
100
AcDbLine
 10
8.972981730665907
 20
14.7720476097642
 30
0.0
 11
8.972981730665907
 21
20.77204760976421
 31
0.0
  0
LINE
  5
6DD
330
59B
100
AcDbEntity
  8
DAMAN
100
AcDbLine
 10
8.972981730665907
 20
20.77204760976421
 30
0.0
 11
10.59798173066589
 21
20.77204760976421
 31
0.0
  0
LINE
  5
6DE
330
59B
100
AcDbEntity
  8
DAMAN
100
AcDbLine
 10
10.59798173066589
 20
20.77204760976421
 30
0.0
 11
10.59798173066589
 21
14.7720476097642
 31
0.0
  0
LINE
  5
6DF
330
59B
100
AcDbEntity
  8
DAMAN
100
AcDbLine
 10
10.4104817306659
 20
20.77204760976421
 30
0.0
 11
10.4104817306659
 21
14.7720476097642
 31
0.0
  0
LINE
  5
6E0
330
59B
100
AcDbEntity
  8
DAMAN
100
AcDbLine
 10
10.4104817306659
 20
19.6782976097642
 30
0.0
 11
10.3479817306659
 21
19.6782976097642
 31
0.0
  0
LINE
  5
6E1
330
59B
100
AcDbEntity
  8
DAMAN
100
AcDbLine
 10
10.3479817306659
 20
19.6782976097642
 30
0.0
 11
10.3479817306659
 21
20.7407976097642
 31
0.0
  0
LINE
  5
6E2
330
59B
100
AcDbEntity
  8
DAMAN
100
AcDbLine
 10
10.3479817306659
 20
20.7407976097642
 30
0.0
 11
10.4104817306659
 21
20.7407976097642
 31
0.0
  0
LINE
  5
6E3
330
59B
100
AcDbEntity
  8
DAMAN
100
AcDbLine
 10
10.3479817306659
 20
19.77653490787198
 30
0.0
 11
10.07831637013858
 21
19.77653490787198
 31
0.0
  0
LINE
  5
6E4
330
59B
100
AcDbEntity
  8
DAMAN
100
AcDbLine
 10
10.0354817306659
 20
19.85072667976257
 30
0.0
 11
10.0354817306659
 21
20.56836853976582
 31
0.0
  0
LINE
  5
6E5
330
59B
100
AcDbEntity
  8
DAMAN
100
AcDbLine
 10
10.07831637013858
 20
20.64256031165642
 30
0.0
 11
10.3479817306659
 21
20.64256031165642
 31
0.0
  0
LINE
  5
6E6
330
59B
100
AcDbEntity
  8
DAMAN
100
AcDbLine
 10
10.3479817306659
 20
19.99304125881807
 30
0.0
 11
10.09798173066595
 21
19.99304125881807
 31
0.0
  0
LINE
  5
6E7
330
59B
100
AcDbEntity
  8
DAMAN
100
AcDbLine
 10
10.3479817306659
 20
20.42605396071031
 30
0.0
 11
10.09798173066588
 21
20.42605396071031
 31
0.0
  0
ARC
  5
6E8
330
59B
100
AcDbEntity
  8
DAMAN
100
AcDbCircle
 10
10.44173173066589
 20
20.2095476097642
 30
0.0
 40
0.4062499999999964
100
AcDbArc
 50
147.7957724960276
 51
212.204227503972
  0
ARC
  5
6E9
330
59B
100
AcDbEntity
  8
DAMAN
100
AcDbCircle
 10
10.1604817306659
 20
20.53430713618336
 30
0.0
 40
0.1250000000000008
100
AcDbArc
 50
120.0000000000003
 51
240.0000000000004
  0
ARC
  5
6EA
330
59B
100
AcDbEntity
  8
DAMAN
100
AcDbCircle
 10
10.1604817306659
 20
19.88478808334503
 30
0.0
 40
0.1250000000000008
100
AcDbArc
 50
119.9999999999996
 51
239.9999999999995
  0
LINE
  5
6EB
330
59B
100
AcDbEntity
  8
DAMAN
100
AcDbLine
 10
10.07831637013858
 20
19.77653490787198
 30
0.0
 11
10.0354817306659
 21
19.85072667976257
 31
0.0
  0
LINE
  5
6EC
330
59B
100
AcDbEntity
  8
DAMAN
100
AcDbLine
 10
10.07831637013858
 20
20.64256031165642
 30
0.0
 11
10.0354817306659
 21
20.56836853976582
 31
0.0
  0
ARC
  5
6ED
330
59B
100
AcDbEntity
  8
DAMAN
100
AcDbCircle
 10
10.44173173066589
 20
15.33454760976419
 30
0.0
 40
0.4062499999999964
100
AcDbArc
 50
147.7957724960276
 51
212.204227503972
  0
LINE
  5
6EE
330
59B
100
AcDbEntity
  8
DAMAN
100
AcDbLine
 10
10.3479817306659
 20
14.80329760976418
 30
0.0
 11
10.3479817306659
 21
15.8657976097642
 31
0.0
  0
LINE
  5
6EF
330
59B
100
AcDbEntity
  8
DAMAN
100
AcDbLine
 10
10.0354817306659
 20
14.97572667976258
 30
0.0
 11
10.0354817306659
 21
15.69336853976582
 31
0.0
  0
ARC
  5
6F0
330
59B
100
AcDbEntity
  8
DAMAN
100
AcDbCircle
 10
10.1604817306659
 20
15.00978808334504
 30
0.0
 40
0.1250000000000008
100
AcDbArc
 50
119.9999999999996
 51
239.9999999999995
  0
LINE
  5
6F1
330
59B
100
AcDbEntity
  8
DAMAN
100
AcDbLine
 10
10.07831637013858
 20
14.90153490787199
 30
0.0
 11
10.0354817306659
 21
14.97572667976258
 31
0.0
  0
LINE
  5
6F2
330
59B
100
AcDbEntity
  8
DAMAN
100
AcDbLine
 10
10.3479817306659
 20
14.90153490787199
 30
0.0
 11
10.07831637013858
 21
14.90153490787199
 31
0.0
  0
LINE
  5
6F3
330
59B
100
AcDbEntity
  8
DAMAN
100
AcDbLine
 10
10.4104817306659
 20
14.80329760976418
 30
0.0
 11
10.3479817306659
 21
14.80329760976418
 31
0.0
  0
LINE
  5
6F4
330
59B
100
AcDbEntity
  8
DAMAN
100
AcDbLine
 10
10.3479817306659
 20
15.11804125881809
 30
0.0
 11
10.09798173066595
 21
15.11804125881809
 31
0.0
  0
ARC
  5
6F5
330
59B
100
AcDbEntity
  8
DAMAN
100
AcDbCircle
 10
10.1604817306659
 20
15.65930713618335
 30
0.0
 40
0.1250000000000008
100
AcDbArc
 50
120.0000000000003
 51
240.0000000000004
  0
LINE
  5
6F6
330
59B
100
AcDbEntity
  8
DAMAN
100
AcDbLine
 10
10.3479817306659
 20
15.55105396071031
 30
0.0
 11
10.09798173066588
 21
15.55105396071031
 31
0.0
  0
LINE
  5
6F7
330
59B
100
AcDbEntity
  8
DAMAN
100
AcDbLine
 10
10.07831637013858
 20
15.76756031165642
 30
0.0
 11
10.3479817306659
 21
15.76756031165642
 31
0.0
  0
LINE
  5
6F8
330
59B
100
AcDbEntity
  8
DAMAN
100
AcDbLine
 10
10.3479817306659
 20
15.8657976097642
 30
0.0
 11
10.4104817306659
 21
15.8657976097642
 31
0.0
  0
LINE
  5
6F9
330
59B
100
AcDbEntity
  8
DAMAN
100
AcDbLine
 10
10.07831637013858
 20
15.76756031165642
 30
0.0
 11
10.0354817306659
 21
15.69336853976582
 31
0.0
  0
CIRCLE
  5
6FA
330
59B
100
AcDbEntity
  8
DAMAN
100
AcDbCircle
 10
9.535481730665907
 20
15.33454760976419
 30
0.0
 40
0.53125
  0
CIRCLE
  5
6FB
330
59B
100
AcDbEntity
  8
DAMAN
100
AcDbCircle
 10
9.535481730665907
 20
20.2095476097642
 30
0.0
 40
0.53125
  0
LWPOLYLINE
  5
6FC
330
59B
100
AcDbEntity
  8
DAMAN
100
AcDbPolyline
 90
        6
 70
     1
 43
0.0
 10
9.160481730665907
 20
15.1180412588181
 10
9.535481730665907
 20
14.90153490787198
 10
9.910481730665907
 20
15.1180412588181
 10
9.910481730665907
 20
15.55105396071031
 10
9.535481730665907
 20
15.76756031165643
 10
9.160481730665907
 20
15.55105396071032
  0
CIRCLE
  5
704
330
59B
100
AcDbEntity
  8
DAMAN
100
AcDbCircle
 10
9.535481730665907
 20
15.33454760976419
 30
0.0
 40
0.375
  0
CIRCLE
  5
705
330
59B
100
AcDbEntity
  8
DAMAN
100
AcDbCircle
 10
9.535481730665907
 20
20.2095476097642
 30
0.0
 40
0.375
  0
LWPOLYLINE
  5
706
330
59B
100
AcDbEntity
  8
DAMAN
100
AcDbPolyline
 90
        6
 70
     1
 43
0.0
 10
9.160481730665907
 20
19.99304125881808
 10
9.535481730665907
 20
19.77653490787198
 10
9.910481730665907
 20
19.99304125881808
 10
9.910481730665907
 20
20.42605396071031
 10
9.535481730665907
 20
20.64256031165642
 10
9.160481730665907
 20
20.42605396071031
  0
LINE
  5
70E
330
59B
100
AcDbEntity
  8
DAMAN
100
AcDbLine
 10
7.972981730665906
 20
14.7720476097642
 30
0.0
 11
7.972981730665906
 21
20.77204760976421
 31
0.0
  0
LINE
  5
70F
330
59B
100
AcDbEntity
  8
DAMAN
100
AcDbLine
 10
10.59798173066589
 20
13.6470476097642
 30
0.0
 11
36.22298173066589
 21
13.6470476097642
 31
0.0
  0
LINE
  5
710
330
59B
100
AcDbEntity
  8
DAMAN
100
AcDbLine
 10
10.59798173066589
 20
8.897047609764205
 30
0.0
 11
36.22298173066589
 21
8.897047609764205
 31
0.0
  0
LINE
  5
711
330
59B
100
AcDbEntity
  8
DAMAN
100
AcDbLine
 10
10.59798173066589
 20
13.6470476097642
 30
0.0
 11
10.59798173066589
 21
8.897047609764205
 31
0.0
  0
LINE
  5
712
330
59B
100
AcDbEntity
  8
DAMAN
100
AcDbLine
 10
36.22298173066589
 20
13.6470476097642
 30
0.0
 11
36.22298173066589
 21
8.897047609764205
 31
0.0
  0
INSERT
  5
713
330
59B
100
AcDbEntity
  8
PIPE
100
AcDbBlockReference
  2
100NPTFT
 10
5.597981730665905
 20
16.8370476097642
 30
0.0
  0
INSERT
  5
714
330
59B
100
AcDbEntity
  8
PIPE
100
AcDbBlockReference
  2
050NPTFT
 10
11.4729817306663
 20
11.27204760976423
 30
0.0
  0
INSERT
  5
715
330
59B
100
AcDbEntity
  8
SAE
100
AcDbBlockReference
  2
16SAET
 10
5.597981730665905
 20
16.8370476097642
 30
0.0
  0
INSERT
  5
716
330
59B
100
AcDbEntity
  8
SAE
100
AcDbBlockReference
  2
08SAET
 10
11.4729817306663
 20
11.27204760976423
 30
0.0
  0
INSERT
  5
717
330
59B
100
AcDbEntity
  8
BSPP
100
AcDbBlockReference
  2
100BSPPT
 10
5.597981730665877
 20
16.83704760976418
 30
0.0
  0
INSERT
  5
718
330
59B
100
AcDbEntity
  8
BSPP
100
AcDbBlockReference
  2
0500BSPPT
 10
11.47298173066628
 20
11.27204760976423
 30
0.0
  0
INSERT
  5
719
330
59B
100
AcDbEntity
  8
ISO
100
AcDbBlockReference
  2
M33T
 10
5.597981730665846
 20
16.83704760976413
 30
0.0
  0
INSERT
  5
71A
330
59B
100
AcDbEntity
  8
ISO
100
AcDbBlockReference
  2
M14T
 10
11.47298173066624
 20
11.27204760976419
 30
0.0
 41
1.094
 42
1.094
 43
1.094
  0
TEXT
  5
71B
330
59B
100
AcDbEntity
  8
DAMAN
100
AcDbText
 10
6.234970235300703
 20
15.93700473288871
 30
0.0
 40
0.2
  1
P
 50
270.0
100
AcDbText
  0
TEXT
  5
71C
330
59B
100
AcDbEntity
  8
DAMAN
100
AcDbText
 10
6.587413777428213
 20
20.43085483295773
 30
0.0
 40
0.2
  1
T
 50
270.0
100
AcDbText
  0
TEXT
  5
71D
330
59B
100
AcDbEntity
  8
DAMAN
100
AcDbText
 10
15.68244604389986
 20
11.02562390067761
 30
0.0
 40
0.2
  1
GA
100
AcDbText
  0
INSERT
  5
71E
330
59B
100
AcDbEntity
  8
PIPE
100
AcDbBlockReference
  2
125NPTFT
 10
5.597981730665905
 20
19.59704760976419
 30
0.0
  0
INSERT
  5
71F
330
59B
100
AcDbEntity
  8
SAE
100
AcDbBlockReference
  2
20SAET
 10
5.597981730665905
 20
19.59704760976419
 30
0.0
  0
INSERT
  5
720
330
59B
100
AcDbEntity
  8
ISO
100
AcDbBlockReference
  2
M42T
 10
5.597981730665905
 20
19.59704760976419
 30
0.0
  0
INSERT
  5
721
330
59B
100
AcDbEntity
  8
BSPP
100
AcDbBlockReference
  2
125BSPPT
 10
5.597981730665905
 20
19.59704760976419
 30
0.0
  0
INSERT
  5
722
330
59B
100
AcDbEntity
  8
SAE
100
AcDbBlockReference
  2
16SAET
 10
41.22298173066589
 20
16.8370476097642
 30
0.0
 41
-1.0
  0
INSERT
  5
723
330
59B
100
AcDbEntity
  8
BSPP
100
AcDbBlockReference
  2
125BSPPT
 10
25.22298173066589
 20
19.59704760976419
 30
0.0
 41
-1.0
  0
LINE
  5
724
330
59B
100
AcDbEntity
  8
DAMAN
  6
HIDDEN
100
AcDbLine
 10
43.59798173066589
 20
14.64704760976418
 30
0.0
 11
43.59798173066589
 21
20.8970476097642
 31
0.0
  0
INSERT
  5
725
330
59B
100
AcDbEntity
  8
DAMAN
100
AcDbBlockReference
  2
600MKT
 10
43.59548173066588
 20
14.7720476097642
 30
0.0
 41
-1.0
  0
LINE
  5
726
330
59B
100
AcDbEntity
  8
DAMAN
100
AcDbLine
 10
38.84798173066589
 20
14.64704760976418
 30
0.0
 11
38.84798173066589
 21
20.8970476097642
 31
0.0
  0
LINE
  5
727
330
59B
100
AcDbEntity
  8
DAMAN
100
AcDbLine
 10
38.84798173066589
 20
14.7720476097642
 30
0.0
 11
38.84798173066589
 21
20.77204760976421
 31
0.0
  0
LINE
  5
728
330
59B
100
AcDbEntity
  8
DAMAN
100
AcDbLine
 10
43.59798173066589
 20
14.64704760976418
 30
0.0
 11
38.84798173066589
 21
14.64704760976418
 31
0.0
  0
INSERT
  5
729
330
59B
100
AcDbEntity
  8
PIPE
100
AcDbBlockReference
  2
100NPTFT
 10
25.22298173066589
 20
16.8370476097642
 30
0.0
 41
-1.0
  0
INSERT
  5
72A
330
59B
100
AcDbEntity
  8
ISO
100
AcDbBlockReference
  2
M33T
 10
25.22298173066596
 20
16.83704760976413
 30
0.0
 41
-1.0
  0
INSERT
  5
72B
330
59B
100
AcDbEntity
  8
BSPP
100
AcDbBlockReference
  2
100BSPPT
 10
25.22298173066593
 20
16.83704760976418
 30
0.0
 41
-1.0
  0
LINE
  5
72C
330
59B
100
AcDbEntity
  8
DAMAN
100
AcDbLine
 10
43.59798173066589
 20
20.8970476097642
 30
0.0
 11
38.84798173066589
 21
20.8970476097642
 31
0.0
  0
INSERT
  5
72D
330
59B
100
AcDbEntity
  8
ISO
100
AcDbBlockReference
  2
M42T
 10
25.22298173066589
 20
19.59704760976419
 30
0.0
 41
-1.0
  0
INSERT
  5
72E
330
59B
100
AcDbEntity
  8
SAE
100
AcDbBlockReference
  2
20SAET
 10
41.22298173066589
 20
19.59704760976419
 30
0.0
 41
-1.0
  0
INSERT
  5
72F
330
59B
100
AcDbEntity
  8
PIPE
100
AcDbBlockReference
  2
125NPTFT
 10
25.22298173066589
 20
19.59704760976419
 30
0.0
 41
-1.0
  0
INSERT
  5
730
330
59B
100
AcDbEntity
  8
DAMAN
100
AcDbBlockReference
  2
600MKST
 10
36.22298173066589
 20
8.897047609764205
 30
0.0
 41
-1.0
  0
LINE
  5
731
330
59B
100
AcDbEntity
  8
DAMAN
100
AcDbLine
 10
36.41048173066589
 20
20.77204760976421
 30
0.0
 11
36.41048173066589
 21
14.7720476097642
 31
0.0
  0
LINE
  5
732
330
59B
100
AcDbEntity
  8
DAMAN
100
AcDbLine
 10
36.22298173066589
 20
14.64704760976418
 30
0.0
 11
36.22298173066589
 21
20.8970476097642
 31
0.0
  0
LINE
  5
733
330
59B
100
AcDbEntity
  8
DAMAN
100
AcDbLine
 10
37.84798173066589
 20
14.7720476097642
 30
0.0
 11
37.84798173066589
 21
20.77204760976421
 31
0.0
  0
LINE
  5
734
330
59B
100
AcDbEntity
  8
DAMAN
100
AcDbLine
 10
36.22298173066589
 20
14.7720476097642
 30
0.0
 11
37.84798173066589
 21
14.7720476097642
 31
0.0
  0
CIRCLE
  5
735
330
59B
100
AcDbEntity
  8
DAMAN
100
AcDbCircle
 10
37.28548173066589
 20
15.33454760976419
 30
0.0
 40
0.375
  0
LWPOLYLINE
  5
736
330
59B
100
AcDbEntity
  8
DAMAN
100
AcDbPolyline
 90
        6
 70
     1
 43
0.0
 10
37.66048173066589
 20
15.1180412588181
 10
37.28548173066589
 20
14.90153490787198
 10
36.91048173066589
 20
15.1180412588181
 10
36.91048173066589
 20
15.55105396071031
 10
37.28548173066589
 20
15.76756031165643
 10
37.66048173066589
 20
15.55105396071032
  0
CIRCLE
  5
73E
330
59B
100
AcDbEntity
  8
DAMAN
100
AcDbCircle
 10
37.28548173066589
 20
15.33454760976419
 30
0.0
 40
0.53125
  0
ARC
  5
73F
330
59B
100
AcDbEntity
  8
DAMAN
100
AcDbCircle
 10
36.37923173066589
 20
15.33454760976419
 30
0.0
 40
0.4062499999999964
100
AcDbArc
 50
327.7957724960277
 51
32.20422750397233
  0
LINE
  5
740
330
59B
100
AcDbEntity
  8
DAMAN
100
AcDbLine
 10
36.47298173066589
 20
14.80329760976418
 30
0.0
 11
36.47298173066589
 21
15.8657976097642
 31
0.0
  0
LINE
  5
741
330
59B
100
AcDbEntity
  8
DAMAN
100
AcDbLine
 10
36.78548173066589
 20
14.97572667976258
 30
0.0
 11
36.78548173066589
 21
15.69336853976582
 31
0.0
  0
LINE
  5
742
330
59B
100
AcDbEntity
  8
DAMAN
100
AcDbLine
 10
36.7426470911932
 20
14.90153490787199
 30
0.0
 11
36.78548173066589
 21
14.97572667976258
 31
0.0
  0
ARC
  5
743
330
59B
100
AcDbEntity
  8
DAMAN
100
AcDbCircle
 10
36.66048173066589
 20
15.00978808334504
 30
0.0
 40
0.1250000000000008
100
AcDbArc
 50
300.0000000000003
 51
60.00000000000034
  0
LINE
  5
744
330
59B
100
AcDbEntity
  8
DAMAN
100
AcDbLine
 10
36.47298173066589
 20
15.11804125881809
 30
0.0
 11
36.72298173066585
 21
15.11804125881809
 31
0.0
  0
LINE
  5
745
330
59B
100
AcDbEntity
  8
DAMAN
100
AcDbLine
 10
36.47298173066589
 20
14.90153490787199
 30
0.0
 11
36.7426470911932
 21
14.90153490787199
 31
0.0
  0
LINE
  5
746
330
59B
100
AcDbEntity
  8
DAMAN
100
AcDbLine
 10
36.41048173066589
 20
14.80329760976418
 30
0.0
 11
36.47298173066589
 21
14.80329760976418
 31
0.0
  0
LINE
  5
747
330
59B
100
AcDbEntity
  8
DAMAN
100
AcDbLine
 10
36.7426470911932
 20
15.76756031165642
 30
0.0
 11
36.78548173066589
 21
15.69336853976582
 31
0.0
  0
ARC
  5
748
330
59B
100
AcDbEntity
  8
DAMAN
100
AcDbCircle
 10
36.66048173066589
 20
15.65930713618335
 30
0.0
 40
0.1250000000000008
100
AcDbArc
 50
299.9999999999995
 51
59.9999999999997
  0
LINE
  5
749
330
59B
100
AcDbEntity
  8
DAMAN
100
AcDbLine
 10
36.7426470911932
 20
15.76756031165642
 30
0.0
 11
36.47298173066589
 21
15.76756031165642
 31
0.0
  0
LINE
  5
74A
330
59B
100
AcDbEntity
  8
DAMAN
100
AcDbLine
 10
36.47298173066589
 20
15.55105396071031
 30
0.0
 11
36.7229817306659
 21
15.55105396071031
 31
0.0
  0
LINE
  5
74B
330
59B
100
AcDbEntity
  8
DAMAN
100
AcDbLine
 10
36.47298173066589
 20
15.8657976097642
 30
0.0
 11
36.41048173066589
 21
15.8657976097642
 31
0.0
  0
LINE
  5
74C
330
59B
100
AcDbEntity
  8
DAMAN
100
AcDbLine
 10
37.84798173066589
 20
20.77204760976421
 30
0.0
 11
36.22298173066589
 21
20.77204760976421
 31
0.0
  0
LWPOLYLINE
  5
74D
330
59B
100
AcDbEntity
  8
DAMAN
100
AcDbPolyline
 90
        6
 70
     1
 43
0.0
 10
37.66048173066589
 20
19.99304125881808
 10
37.28548173066589
 20
19.77653490787198
 10
36.91048173066589
 20
19.99304125881808
 10
36.91048173066589
 20
20.42605396071031
 10
37.28548173066589
 20
20.64256031165642
 10
37.66048173066589
 20
20.42605396071031
  0
CIRCLE
  5
755
330
59B
100
AcDbEntity
  8
DAMAN
100
AcDbCircle
 10
37.28548173066589
 20
20.2095476097642
 30
0.0
 40
0.375
  0
CIRCLE
  5
756
330
59B
100
AcDbEntity
  8
DAMAN
100
AcDbCircle
 10
37.28548173066589
 20
20.2095476097642
 30
0.0
 40
0.53125
  0
ARC
  5
757
330
59B
100
AcDbEntity
  8
DAMAN
100
AcDbCircle
 10
36.66048173066589
 20
20.53430713618336
 30
0.0
 40
0.1250000000000008
100
AcDbArc
 50
299.9999999999995
 51
59.9999999999997
  0
LINE
  5
758
330
59B
100
AcDbEntity
  8
DAMAN
100
AcDbLine
 10
36.47298173066589
 20
19.6782976097642
 30
0.0
 11
36.47298173066589
 21
20.7407976097642
 31
0.0
  0
LINE
  5
759
330
59B
100
AcDbEntity
  8
DAMAN
100
AcDbLine
 10
36.78548173066589
 20
19.85072667976257
 30
0.0
 11
36.78548173066589
 21
20.56836853976582
 31
0.0
  0
LINE
  5
75A
330
59B
100
AcDbEntity
  8
DAMAN
100
AcDbLine
 10
36.7426470911932
 20
19.77653490787198
 30
0.0
 11
36.78548173066589
 21
19.85072667976257
 31
0.0
  0
ARC
  5
75B
330
59B
100
AcDbEntity
  8
DAMAN
100
AcDbCircle
 10
36.66048173066589
 20
19.88478808334503
 30
0.0
 40
0.1250000000000008
100
AcDbArc
 50
300.0000000000003
 51
60.00000000000034
  0
ARC
  5
75C
330
59B
100
AcDbEntity
  8
DAMAN
100
AcDbCircle
 10
36.37923173066589
 20
20.2095476097642
 30
0.0
 40
0.4062499999999964
100
AcDbArc
 50
327.7957724960277
 51
32.20422750397233
  0
LINE
  5
75D
330
59B
100
AcDbEntity
  8
DAMAN
100
AcDbLine
 10
36.47298173066589
 20
20.42605396071031
 30
0.0
 11
36.7229817306659
 21
20.42605396071031
 31
0.0
  0
LINE
  5
75E
330
59B
100
AcDbEntity
  8
DAMAN
100
AcDbLine
 10
36.47298173066589
 20
19.99304125881807
 30
0.0
 11
36.72298173066585
 21
19.99304125881807
 31
0.0
  0
LINE
  5
75F
330
59B
100
AcDbEntity
  8
DAMAN
100
AcDbLine
 10
36.47298173066589
 20
19.77653490787198
 30
0.0
 11
36.7426470911932
 21
19.77653490787198
 31
0.0
  0
LINE
  5
760
330
59B
100
AcDbEntity
  8
DAMAN
100
AcDbLine
 10
36.41048173066589
 20
19.6782976097642
 30
0.0
 11
36.47298173066589
 21
19.6782976097642
 31
0.0
  0
LINE
  5
761
330
59B
100
AcDbEntity
  8
DAMAN
100
AcDbLine
 10
36.7426470911932
 20
20.64256031165642
 30
0.0
 11
36.78548173066589
 21
20.56836853976582
 31
0.0
  0
LINE
  5
762
330
59B
100
AcDbEntity
  8
DAMAN
100
AcDbLine
 10
36.7426470911932
 20
20.64256031165642
 30
0.0
 11
36.47298173066589
 21
20.64256031165642
 31
0.0
  0
LINE
  5
763
330
59B
100
AcDbEntity
  8
DAMAN
100
AcDbLine
 10
36.47298173066589
 20
20.7407976097642
 30
0.0
 11
36.41048173066589
 21
20.7407976097642
 31
0.0
  0
INSERT
  5
764
330
59B
100
AcDbEntity
  8
BSPP
100
AcDbBlockReference
  2
0500BSPPT
 10
13.28548173066628
 20
9.957047609764236
 30
0.0
  0
INSERT
  5
765
330
59B
100
AcDbEntity
  8
ISO
100
AcDbBlockReference
  2
M14T
 10
13.28548173066623
 20
9.957047609764195
 30
0.0
 41
1.094
 42
1.094
 43
1.094
  0
INSERT
  5
766
330
59B
100
AcDbEntity
  8
PIPE
100
AcDbBlockReference
  2
050NPTFT
 10
13.2854817306663
 20
9.957047609764254
 30
0.0
  0
INSERT
  5
767
330
59B
100
AcDbEntity
  8
BSPP
100
AcDbBlockReference
  2
0500BSPPT
 10
13.28548173066594
 20
12.58454760976424
 30
0.0
  0
INSERT
  5
768
330
59B
100
AcDbEntity
  8
PIPE
100
AcDbBlockReference
  2
050NPTFT
 10
13.28548173066596
 20
12.58454760976426
 30
0.0
  0
INSERT
  5
769
330
59B
100
AcDbEntity
  8
ISO
100
AcDbBlockReference
  2
M14T
 10
13.2854817306659
 20
12.5845476097642
 30
0.0
 41
1.094
 42
1.094
 43
1.094
  0
TEXT
  5
76A
330
59B
100
AcDbEntity
  8
DAMAN
100
AcDbText
 10
14.21772780362132
 20
10.69783327870424
 30
0.0
 40
0.2
  1
A
100
AcDbText
  0
TEXT
  5
76B
330
59B
100
AcDbEntity
  8
DAMAN
100
AcDbText
 10
14.21772789117967
 20
13.32846397548395
 30
0.0
 40
0.2
  1
B
100
AcDbText
  0
TEXT
  5
76C
330
59B
100
AcDbEntity
  8
DAMAN
100
AcDbText
 10
40.38510214265658
 20
16.04051706813363
 30
0.0
 40
0.2
  1
P
 50
90.0
100
AcDbText
  0
TEXT
  5
76D
330
59B
100
AcDbEntity
  8
DAMAN
100
AcDbText
 10
40.38173771444784
 20
20.56411700363057
 30
0.0
 40
0.2
  1
T
 50
90.0
100
AcDbText
  0
TEXT
  5
76E
330
59B
100
AcDbEntity
  8
DAMAN
100
AcDbText
 10
12.82979252223542
 20
11.17117116895611
 30
0.0
 40
0.2
  1
DAMAN ****
100
AcDbText
  0
INSERT
  5
76F
330
59B
100
AcDbEntity
  8
PIPE
100
AcDbBlockReference
  2
050NPTFT
 10
17.2854817306663
 20
9.957047609764254
 30
0.0
  0
INSERT
  5
770
330
59B
100
AcDbEntity
  8
ISO
100
AcDbBlockReference
  2
M14T
 10
17.28548173066623
 20
9.957047609764195
 30
0.0
 41
1.094
 42
1.094
 43
1.094
  0
INSERT
  5
771
330
59B
100
AcDbEntity
  8
BSPP
100
AcDbBlockReference
  2
0500BSPPT
 10
17.28548173066628
 20
9.957047609764236
 30
0.0
  0
TEXT
  5
772
330
59B
100
AcDbEntity
  8
DAMAN
100
AcDbText
 10
18.21772780362133
 20
10.69783327870424
 30
0.0
 40
0.2
  1
A
100
AcDbText
  0
INSERT
  5
773
330
59B
100
AcDbEntity
  8
BSPP
100
AcDbBlockReference
  2
0500BSPPT
 10
17.28548173066593
 20
12.58454760976424
 30
0.0
  0
INSERT
  5
774
330
59B
100
AcDbEntity
  8
PIPE
100
AcDbBlockReference
  2
050NPTFT
 10
17.28548173066597
 20
12.58454760976426
 30
0.0
  0
INSERT
  5
775
330
59B
100
AcDbEntity
  8
ISO
100
AcDbBlockReference
  2
M14T
 10
17.2854817306659
 20
12.5845476097642
 30
0.0
 41
1.094
 42
1.094
 43
1.094
  0
INSERT
  5
777
330
59B
100
AcDbEntity
  8
PIPE
100
AcDbBlockReference
  2
025NPTFT
 10
15.2229817306659
 20
10.64704760976419
 30
0.0
  0
INSERT
  5
778
330
59B
100
AcDbEntity
  8
SAE
100
AcDbBlockReference
  2
06SAET
 10
15.2229817306659
 20
10.64704760976419
 30
0.0
  0
TEXT
  5
779
330
59B
100
AcDbEntity
  8
DAMAN
100
AcDbText
 10
11.85339440687772
 20
11.83521358187795
 30
0.0
 40
0.2
  1
Y
100
AcDbText
  0
INSERT
  5
77A
330
59B
100
AcDbEntity
  8
SAE
100
AcDbBlockReference
  2
08SAET
 10
35.34798173066589
 20
11.27204760976419
 30
0.0
  0
INSERT
  5
77B
330
59B
100
AcDbEntity
  8
PIPE
100
AcDbBlockReference
  2
050NPTFT
 10
19.34798173066589
 20
11.27204760976419
 30
0.0
  0
INSERT
  5
77C
330
59B
100
AcDbEntity
  8
ISO
100
AcDbBlockReference
  2
M14T
 10
19.34798173066583
 20
11.27204760976413
 30
0.0
 41
1.094
 42
1.094
 43
1.094
  0
TEXT
  5
77D
330
59B
100
AcDbEntity
  8
DAMAN
100
AcDbText
 10
35.72839440687733
 20
11.83521358187791
 30
0.0
 40
0.2
  1
Y
100
AcDbText
  0
INSERT
  5
77E
330
59B
100
AcDbEntity
  8
BSPP
100
AcDbBlockReference
  2
0500BSPPT
 10
19.34798173066587
 20
11.27204760976417
 30
0.0
  0
INSERT
  5
77F
330
59B
100
AcDbEntity
  8
SAE
100
AcDbBlockReference
  2
16SAET
 10
13.28548173066596
 20
12.58454760976426
 30
0.0
  0
INSERT
  5
780
330
59B
100
AcDbEntity
  8
SAE
100
AcDbBlockReference
  2
16SAET
 10
13.2854817306663
 20
9.957047609764254
 30
0.0
  0
INSERT
  5
781
330
59B
100
AcDbEntity
  8
SAE
100
AcDbBlockReference
  2
16SAET
 10
17.2854817306663
 20
9.957047609764254
 30
0.0
  0
INSERT
  5
782
330
59B
100
AcDbEntity
  8
SAE
100
AcDbBlockReference
  2
16SAET
 10
17.28548173066593
 20
12.58454760976422
 30
0.0
  0
TEXT
  5
783
330
59B
100
AcDbEntity
  8
DAMAN
100
AcDbText
 10
18.21772789117962
 20
13.32846397548391
 30
0.0
 40
0.2
  1
B
100
AcDbText
  0
CIRCLE
  5
785
330
59B
100
AcDbEntity
  8
DAMAN
100
AcDbCircle
 10
14.22298173066588
 20
18.77104760976419
 30
0.0
 40
0.3439999999999999
  0
CIRCLE
  5
786
330
59B
100
AcDbEntity
  8
DAMAN
100
AcDbCircle
 10
14.22298173066588
 20
17.5220476097642
 30
0.0
 40
0.3439999999999999
  0
INSERT
  5
787
330
59B
100
AcDbEntity
  8
DAMAN
100
AcDbBlockReference
  2
100CROSS
 10
14.22298173066588
 20
18.77104760976419
 30
0.0
 41
0.5625
 42
0.5625
  0
INSERT
  5
788
330
59B
100
AcDbEntity
  8
DAMAN
100
AcDbBlockReference
  2
100CROSS
 10
14.22298173066588
 20
17.5220476097642
 30
0.0
 41
0.5625
 42
0.5625
  0
INSERT
  5
789
330
59B
100
AcDbEntity
  8
DAMAN
100
AcDbBlockReference
  2
100CROSS
 10
11.97248173066588
 20
17.52104760976418
 30
0.0
 41
0.25
 42
0.25
  0
CIRCLE
  5
78A
330
59B
100
AcDbEntity
  8
DAMAN
100
AcDbCircle
 10
12.03498173066588
 20
15.49004760976419
 30
0.0
 40
0.1875
  0
CIRCLE
  5
78B
330
59B
100
AcDbEntity
  8
DAMAN
100
AcDbCircle
 10
12.03498173066588
 20
15.49004760976419
 30
0.0
 40
0.15625
  0
INSERT
  5
78C
330
59B
100
AcDbEntity
  8
DAMAN
100
AcDbBlockReference
  2
100CROSS
 10
12.03498173066588
 20
15.49004760976419
 30
0.0
 41
0.375
 42
0.375
  0
CIRCLE
  5
78D
330
59B
100
AcDbEntity
  8
DAMAN
100
AcDbCircle
 10
11.97198173066588
 20
17.5212976097642
 30
0.0
 40
0.125
  0
CIRCLE
  5
78E
330
59B
100
AcDbEntity
  8
DAMAN
100
AcDbCircle
 10
11.97248173066588
 20
17.52104760976418
 30
0.0
 40
0.1055
  0
CIRCLE
  5
78F
330
59B
100
AcDbEntity
  8
DAMAN
100
AcDbCircle
 10
12.59698173066588
 20
16.89604760976418
 30
0.0
 40
0.3439999999999999
  0
INSERT
  5
790
330
59B
100
AcDbEntity
  8
DAMAN
100
AcDbBlockReference
  2
100CROSS
 10
12.59698173066588
 20
16.89604760976418
 30
0.0
 41
0.5625
 42
0.5625
  0
CIRCLE
  5
791
330
59B
100
AcDbEntity
  8
DAMAN
100
AcDbCircle
 10
12.53498173066588
 20
16.0220476097642
 30
0.0
 40
0.125
  0
INSERT
  5
792
330
59B
100
AcDbEntity
  8
DAMAN
100
AcDbBlockReference
  2
100CROSS
 10
12.53498173066588
 20
16.0220476097642
 30
0.0
 41
0.375
 42
0.375
  0
TEXT
  5
793
330
59B
100
AcDbEntity
  8
DAMAN
100
AcDbText
 10
12.65998173066588
 20
16.2087976097642
 30
0.0
 40
0.12
  1
Y
100
AcDbText
  0
TEXT
  5
794
330
59B
100
AcDbEntity
  8
DAMAN
100
AcDbText
 10
12.90998173066588
 20
17.3025476097642
 30
0.0
 40
0.12
  1
B
100
AcDbText
  0
CIRCLE
  5
795
330
59B
100
AcDbEntity
  8
DAMAN
100
AcDbCircle
 10
12.03498173066588
 20
18.77104760976419
 30
0.0
 40
0.0845
  0
CIRCLE
  5
796
330
59B
100
AcDbEntity
  8
DAMAN
100
AcDbCircle
 10
12.03498173066588
 20
19.4900476097642
 30
0.0
 40
0.1875
  0
CIRCLE
  5
797
330
59B
100
AcDbEntity
  8
DAMAN
100
AcDbCircle
 10
12.03498173066588
 20
19.4900476097642
 30
0.0
 40
0.15625
  0
INSERT
  5
798
330
59B
100
AcDbEntity
  8
DAMAN
100
AcDbBlockReference
  2
100CROSS
 10
12.03498173066588
 20
19.4900476097642
 30
0.0
 41
0.375
 42
0.375
  0
INSERT
  5
799
330
59B
100
AcDbEntity
  8
DAMAN
100
AcDbBlockReference
  2
100CROSS
 10
12.03498173066588
 20
18.77104760976419
 30
0.0
 41
0.25
 42
0.25
  0
CIRCLE
  5
79A
330
59B
100
AcDbEntity
  8
DAMAN
100
AcDbCircle
 10
12.59698173066588
 20
18.14604760976419
 30
0.0
 40
0.3439999999999999
  0
INSERT
  5
79B
330
59B
100
AcDbEntity
  8
DAMAN
100
AcDbBlockReference
  2
100CROSS
 10
12.59698173066588
 20
18.14604760976419
 30
0.0
 41
0.5625
 42
0.5625
  0
TEXT
  5
79C
330
59B
100
AcDbEntity
  8
DAMAN
100
AcDbText
 10
12.87873173066588
 20
18.5525476097642
 30
0.0
 40
0.12
  1
A
100
AcDbText
  0
INSERT
  5
79D
330
59B
100
AcDbEntity
  8
DAMAN
100
AcDbBlockReference
  2
100CROSS
 10
14.78498173066588
 20
15.49004760976419
 30
0.0
 41
0.375
 42
0.375
  0
CIRCLE
  5
79E
330
59B
100
AcDbEntity
  8
DAMAN
100
AcDbCircle
 10
14.78498173066588
 20
15.49004760976419
 30
0.0
 40
0.1875
  0
CIRCLE
  5
79F
330
59B
100
AcDbEntity
  8
DAMAN
100
AcDbCircle
 10
14.78498173066588
 20
15.49004760976419
 30
0.0
 40
0.15625
  0
INSERT
  5
7A0
330
59B
100
AcDbEntity
  8
DAMAN
100
AcDbBlockReference
  2
100CROSS
 10
14.78498173066588
 20
16.4750476097642
 30
0.0
 41
0.25
 42
0.25
  0
CIRCLE
  5
7A1
330
59B
100
AcDbEntity
  8
DAMAN
100
AcDbCircle
 10
14.78498173066588
 20
16.4750476097642
 30
0.0
 40
0.0845
  0
INSERT
  5
7A2
330
59B
100
AcDbEntity
  8
DAMAN
100
AcDbBlockReference
  2
100CROSS
 10
14.78498173066588
 20
19.4900476097642
 30
0.0
 41
0.375
 42
0.375
  0
INSERT
  5
7A3
330
59B
100
AcDbEntity
  8
DAMAN
100
AcDbBlockReference
  2
100CROSS
 10
14.84748173066588
 20
18.14604760976419
 30
0.0
 41
0.25
 42
0.25
  0
TEXT
  5
7A4
330
59B
100
AcDbEntity
  8
DAMAN
100
AcDbText
 10
14.44123173066588
 20
17.9900476097642
 30
0.0
 40
0.12
  1
P
100
AcDbText
  0
CIRCLE
  5
7A5
330
59B
100
AcDbEntity
  8
DAMAN
100
AcDbCircle
 10
14.84698173066588
 20
18.1462976097642
 30
0.0
 40
0.125
  0
CIRCLE
  5
7A6
330
59B
100
AcDbEntity
  8
DAMAN
100
AcDbCircle
 10
14.84748173066588
 20
18.14604760976419
 30
0.0
 40
0.1055
  0
TEXT
  5
7A7
330
59B
100
AcDbEntity
  8
DAMAN
100
AcDbText
 10
14.47248173066588
 20
19.2400476097642
 30
0.0
 40
0.12
  1
T
100
AcDbText
  0
CIRCLE
  5
7A8
330
59B
100
AcDbEntity
  8
DAMAN
100
AcDbCircle
 10
14.78498173066588
 20
19.4900476097642
 30
0.0
 40
0.1875
  0
CIRCLE
  5
7A9
330
59B
100
AcDbEntity
  8
DAMAN
100
AcDbCircle
 10
14.78498173066588
 20
19.4900476097642
 30
0.0
 40
0.15625
  0
CIRCLE
  5
7AA
330
59B
100
AcDbEntity
  8
DAMAN
100
AcDbCircle
 10
18.22298173066587
 20
18.77104760976419
 30
0.0
 40
0.3439999999999999
  0
CIRCLE
  5
7AB
330
59B
100
AcDbEntity
  8
DAMAN
100
AcDbCircle
 10
18.22298173066587
 20
17.5220476097642
 30
0.0
 40
0.3439999999999999
  0
INSERT
  5
7AC
330
59B
100
AcDbEntity
  8
DAMAN
100
AcDbBlockReference
  2
100CROSS
 10
18.22298173066587
 20
18.77104760976419
 30
0.0
 41
0.5625
 42
0.5625
  0
INSERT
  5
7AD
330
59B
100
AcDbEntity
  8
DAMAN
100
AcDbBlockReference
  2
100CROSS
 10
18.22298173066587
 20
17.5220476097642
 30
0.0
 41
0.5625
 42
0.5625
  0
INSERT
  5
7AE
330
59B
100
AcDbEntity
  8
DAMAN
100
AcDbBlockReference
  2
100CROSS
 10
15.97248173066588
 20
17.52104760976418
 30
0.0
 41
0.25
 42
0.25
  0
CIRCLE
  5
7AF
330
59B
100
AcDbEntity
  8
DAMAN
100
AcDbCircle
 10
16.03498173066587
 20
15.49004760976419
 30
0.0
 40
0.1875
  0
CIRCLE
  5
7B0
330
59B
100
AcDbEntity
  8
DAMAN
100
AcDbCircle
 10
16.03498173066587
 20
15.49004760976419
 30
0.0
 40
0.15625
  0
INSERT
  5
7B1
330
59B
100
AcDbEntity
  8
DAMAN
100
AcDbBlockReference
  2
100CROSS
 10
16.03498173066587
 20
15.49004760976419
 30
0.0
 41
0.375
 42
0.375
  0
CIRCLE
  5
7B2
330
59B
100
AcDbEntity
  8
DAMAN
100
AcDbCircle
 10
15.97198173066588
 20
17.5212976097642
 30
0.0
 40
0.125
  0
CIRCLE
  5
7B3
330
59B
100
AcDbEntity
  8
DAMAN
100
AcDbCircle
 10
15.97248173066588
 20
17.52104760976418
 30
0.0
 40
0.1055
  0
CIRCLE
  5
7B4
330
59B
100
AcDbEntity
  8
DAMAN
100
AcDbCircle
 10
16.59698173066588
 20
16.89604760976418
 30
0.0
 40
0.3439999999999999
  0
INSERT
  5
7B5
330
59B
100
AcDbEntity
  8
DAMAN
100
AcDbBlockReference
  2
100CROSS
 10
16.59698173066588
 20
16.89604760976418
 30
0.0
 41
0.5625
 42
0.5625
  0
CIRCLE
  5
7B6
330
59B
100
AcDbEntity
  8
DAMAN
100
AcDbCircle
 10
16.53498173066588
 20
16.0220476097642
 30
0.0
 40
0.125
  0
INSERT
  5
7B7
330
59B
100
AcDbEntity
  8
DAMAN
100
AcDbBlockReference
  2
100CROSS
 10
16.53498173066588
 20
16.0220476097642
 30
0.0
 41
0.375
 42
0.375
  0
TEXT
  5
7B8
330
59B
100
AcDbEntity
  8
DAMAN
100
AcDbText
 10
16.65998173066587
 20
16.2087976097642
 30
0.0
 40
0.12
  1
Y
100
AcDbText
  0
TEXT
  5
7B9
330
59B
100
AcDbEntity
  8
DAMAN
100
AcDbText
 10
16.90998173066588
 20
17.3025476097642
 30
0.0
 40
0.12
  1
B
100
AcDbText
  0
CIRCLE
  5
7BA
330
59B
100
AcDbEntity
  8
DAMAN
100
AcDbCircle
 10
16.03498173066587
 20
18.77104760976419
 30
0.0
 40
0.0845
  0
CIRCLE
  5
7BB
330
59B
100
AcDbEntity
  8
DAMAN
100
AcDbCircle
 10
16.03498173066587
 20
19.4900476097642
 30
0.0
 40
0.1875
  0
CIRCLE
  5
7BC
330
59B
100
AcDbEntity
  8
DAMAN
100
AcDbCircle
 10
16.03498173066587
 20
19.4900476097642
 30
0.0
 40
0.15625
  0
INSERT
  5
7BD
330
59B
100
AcDbEntity
  8
DAMAN
100
AcDbBlockReference
  2
100CROSS
 10
16.03498173066587
 20
19.4900476097642
 30
0.0
 41
0.375
 42
0.375
  0
INSERT
  5
7BE
330
59B
100
AcDbEntity
  8
DAMAN
100
AcDbBlockReference
  2
100CROSS
 10
16.03498173066587
 20
18.77104760976419
 30
0.0
 41
0.25
 42
0.25
  0
CIRCLE
  5
7BF
330
59B
100
AcDbEntity
  8
DAMAN
100
AcDbCircle
 10
16.59698173066588
 20
18.14604760976419
 30
0.0
 40
0.3439999999999999
  0
INSERT
  5
7C0
330
59B
100
AcDbEntity
  8
DAMAN
100
AcDbBlockReference
  2
100CROSS
 10
16.59698173066588
 20
18.14604760976419
 30
0.0
 41
0.5625
 42
0.5625
  0
TEXT
  5
7C1
330
59B
100
AcDbEntity
  8
DAMAN
100
AcDbText
 10
16.87873173066588
 20
18.5525476097642
 30
0.0
 40
0.12
  1
A
100
AcDbText
  0
INSERT
  5
7C2
330
59B
100
AcDbEntity
  8
DAMAN
100
AcDbBlockReference
  2
100CROSS
 10
18.78498173066588
 20
15.49004760976419
 30
0.0
 41
0.375
 42
0.375
  0
CIRCLE
  5
7C3
330
59B
100
AcDbEntity
  8
DAMAN
100
AcDbCircle
 10
18.78498173066588
 20
15.49004760976419
 30
0.0
 40
0.1875
  0
CIRCLE
  5
7C4
330
59B
100
AcDbEntity
  8
DAMAN
100
AcDbCircle
 10
18.78498173066588
 20
15.49004760976419
 30
0.0
 40
0.15625
  0
INSERT
  5
7C5
330
59B
100
AcDbEntity
  8
DAMAN
100
AcDbBlockReference
  2
100CROSS
 10
18.78498173066588
 20
16.4750476097642
 30
0.0
 41
0.25
 42
0.25
  0
CIRCLE
  5
7C6
330
59B
100
AcDbEntity
  8
DAMAN
100
AcDbCircle
 10
18.78498173066588
 20
16.4750476097642
 30
0.0
 40
0.0845
  0
INSERT
  5
7C7
330
59B
100
AcDbEntity
  8
DAMAN
100
AcDbBlockReference
  2
100CROSS
 10
18.78498173066588
 20
19.4900476097642
 30
0.0
 41
0.375
 42
0.375
  0
INSERT
  5
7C8
330
59B
100
AcDbEntity
  8
DAMAN
100
AcDbBlockReference
  2
100CROSS
 10
18.84748173066587
 20
18.14604760976419
 30
0.0
 41
0.25
 42
0.25
  0
TEXT
  5
7C9
330
59B
100
AcDbEntity
  8
DAMAN
100
AcDbText
 10
18.44123173066588
 20
17.9900476097642
 30
0.0
 40
0.12
  1
P
100
AcDbText
  0
CIRCLE
  5
7CA
330
59B
100
AcDbEntity
  8
DAMAN
100
AcDbCircle
 10
18.84698173066587
 20
18.1462976097642
 30
0.0
 40
0.125
  0
CIRCLE
  5
7CB
330
59B
100
AcDbEntity
  8
DAMAN
100
AcDbCircle
 10
18.84748173066587
 20
18.14604760976419
 30
0.0
 40
0.1055
  0
TEXT
  5
7CC
330
59B
100
AcDbEntity
  8
DAMAN
100
AcDbText
 10
18.47248173066588
 20
19.2400476097642
 30
0.0
 40
0.12
  1
T
100
AcDbText
  0
CIRCLE
  5
7CD
330
59B
100
AcDbEntity
  8
DAMAN
100
AcDbCircle
 10
18.78498173066588
 20
19.4900476097642
 30
0.0
 40
0.1875
  0
CIRCLE
  5
7CE
330
59B
100
AcDbEntity
  8
DAMAN
100
AcDbCircle
 10
18.78498173066588
 20
19.4900476097642
 30
0.0
 40
0.15625
  0
INSERT
  5
7CF
330
59B
100
AcDbEntity
  8
DAMAN
100
AcDbBlockReference
  2
100CROSS
 10
7.472981730665885
 20
17.7720476097642
 30
0.0
 41
0.4999875
 42
0.4999875
 43
1.333299999999999
  0
CIRCLE
  5
7D0
330
59B
100
AcDbEntity
  8
DAMAN
100
AcDbCircle
 10
7.472981730665885
 20
17.7720476097642
 30
0.0
 40
0.208328125
  0
CIRCLE
  5
7D1
330
59B
100
AcDbEntity
  8
DAMAN
100
AcDbCircle
 10
7.472981730665885
 20
17.7720476097642
 30
0.0
 40
0.24999375
  0
CIRCLE
  5
7D2
330
59B
100
AcDbEntity
  8
DAMAN
100
AcDbCircle
 10
39.34798173066587
 20
17.7720476097642
 30
0.0
 40
0.24999375
  0
INSERT
  5
7D3
330
59B
100
AcDbEntity
  8
DAMAN
100
AcDbBlockReference
  2
100CROSS
 10
39.34798173066587
 20
17.7720476097642
 30
0.0
 41
0.4999875
 42
0.4999875
 43
1.333299999999999
  0
CIRCLE
  5
7D4
330
59B
100
AcDbEntity
  8
DAMAN
100
AcDbCircle
 10
39.34798173066587
 20
17.7720476097642
 30
0.0
 40
0.208328125
  0
INSERT
  5
823
330
59B
100
AcDbEntity
  8
DAMAN
100
AcDbBlockReference
  2
100CROSS
 10
34.84748173066587
 20
18.14604760976419
 30
0.0
 41
0.25
 42
0.25
  0
INSERT
  5
824
330
59B
100
AcDbEntity
  8
DAMAN
100
AcDbBlockReference
  2
100CROSS
 10
34.78498173066587
 20
19.4900476097642
 30
0.0
 41
0.375
 42
0.375
  0
INSERT
  5
825
330
59B
100
AcDbEntity
  8
DAMAN
100
AcDbBlockReference
  2
100CROSS
 10
34.78498173066587
 20
15.49004760976419
 30
0.0
 41
0.375
 42
0.375
  0
INSERT
  5
826
330
59B
100
AcDbEntity
  8
DAMAN
100
AcDbBlockReference
  2
100CROSS
 10
32.59698173066588
 20
18.14604760976419
 30
0.0
 41
0.5625
 42
0.5625
  0
CIRCLE
  5
827
330
59B
100
AcDbEntity
  8
DAMAN
100
AcDbCircle
 10
32.59698173066588
 20
18.14604760976419
 30
0.0
 40
0.3439999999999999
  0
INSERT
  5
828
330
59B
100
AcDbEntity
  8
DAMAN
100
AcDbBlockReference
  2
100CROSS
 10
34.22298173066588
 20
18.77104760976419
 30
0.0
 41
0.5625
 42
0.5625
  0
INSERT
  5
829
330
59B
100
AcDbEntity
  8
DAMAN
100
AcDbBlockReference
  2
100CROSS
 10
32.53498173066587
 20
16.0220476097642
 30
0.0
 41
0.375
 42
0.375
  0
INSERT
  5
82A
330
59B
100
AcDbEntity
  8
DAMAN
100
AcDbBlockReference
  2
100CROSS
 10
32.59698173066588
 20
16.89604760976418
 30
0.0
 41
0.5625
 42
0.5625
  0
CIRCLE
  5
82B
330
59B
100
AcDbEntity
  8
DAMAN
100
AcDbCircle
 10
32.59698173066588
 20
16.89604760976418
 30
0.0
 40
0.3439999999999999
  0
INSERT
  5
82C
330
59B
100
AcDbEntity
  8
DAMAN
100
AcDbBlockReference
  2
100CROSS
 10
32.03498173066587
 20
15.49004760976419
 30
0.0
 41
0.375
 42
0.375
  0
CIRCLE
  5
82D
330
59B
100
AcDbEntity
  8
DAMAN
100
AcDbCircle
 10
32.03498173066587
 20
15.49004760976419
 30
0.0
 40
0.1875
  0
CIRCLE
  5
82E
330
59B
100
AcDbEntity
  8
DAMAN
100
AcDbCircle
 10
32.03498173066587
 20
15.49004760976419
 30
0.0
 40
0.15625
  0
CIRCLE
  5
82F
330
59B
100
AcDbEntity
  8
DAMAN
100
AcDbCircle
 10
32.53498173066587
 20
16.0220476097642
 30
0.0
 40
0.125
  0
TEXT
  5
830
330
59B
100
AcDbEntity
  8
DAMAN
100
AcDbText
 10
32.65998173066587
 20
16.2087976097642
 30
0.0
 40
0.12
  1
Y
100
AcDbText
  0
CIRCLE
  5
831
330
59B
100
AcDbEntity
  8
DAMAN
100
AcDbCircle
 10
31.97248173066588
 20
17.52104760976418
 30
0.0
 40
0.1055
  0
CIRCLE
  5
832
330
59B
100
AcDbEntity
  8
DAMAN
100
AcDbCircle
 10
31.97198173066588
 20
17.5212976097642
 30
0.0
 40
0.125
  0
INSERT
  5
833
330
59B
100
AcDbEntity
  8
DAMAN
100
AcDbBlockReference
  2
100CROSS
 10
31.97248173066588
 20
17.52104760976418
 30
0.0
 41
0.25
 42
0.25
  0
CIRCLE
  5
834
330
59B
100
AcDbEntity
  8
DAMAN
100
AcDbCircle
 10
34.78498173066587
 20
15.49004760976419
 30
0.0
 40
0.15625
  0
CIRCLE
  5
835
330
59B
100
AcDbEntity
  8
DAMAN
100
AcDbCircle
 10
34.78498173066587
 20
15.49004760976419
 30
0.0
 40
0.1875
  0
INSERT
  5
836
330
59B
100
AcDbEntity
  8
DAMAN
100
AcDbBlockReference
  2
100CROSS
 10
34.22298173066588
 20
17.5220476097642
 30
0.0
 41
0.5625
 42
0.5625
  0
CIRCLE
  5
837
330
59B
100
AcDbEntity
  8
DAMAN
100
AcDbCircle
 10
34.22298173066588
 20
17.5220476097642
 30
0.0
 40
0.3439999999999999
  0
TEXT
  5
838
330
59B
100
AcDbEntity
  8
DAMAN
100
AcDbText
 10
32.90998173066587
 20
17.3025476097642
 30
0.0
 40
0.12
  1
B
100
AcDbText
  0
CIRCLE
  5
839
330
59B
100
AcDbEntity
  8
DAMAN
100
AcDbCircle
 10
34.78498173066587
 20
16.4750476097642
 30
0.0
 40
0.0845
  0
INSERT
  5
83A
330
59B
100
AcDbEntity
  8
DAMAN
100
AcDbBlockReference
  2
100CROSS
 10
34.78498173066587
 20
16.4750476097642
 30
0.0
 41
0.25
 42
0.25
  0
TEXT
  5
83B
330
59B
100
AcDbEntity
  8
DAMAN
100
AcDbText
 10
34.44123173066587
 20
17.9900476097642
 30
0.0
 40
0.12
  1
P
100
AcDbText
  0
CIRCLE
  5
83C
330
59B
100
AcDbEntity
  8
DAMAN
100
AcDbCircle
 10
34.84748173066587
 20
18.14604760976419
 30
0.0
 40
0.1055
  0
CIRCLE
  5
83D
330
59B
100
AcDbEntity
  8
DAMAN
100
AcDbCircle
 10
34.84698173066587
 20
18.1462976097642
 30
0.0
 40
0.125
  0
INSERT
  5
83E
330
59B
100
AcDbEntity
  8
DAMAN
100
AcDbBlockReference
  2
100CROSS
 10
32.03498173066587
 20
19.4900476097642
 30
0.0
 41
0.375
 42
0.375
  0
CIRCLE
  5
83F
330
59B
100
AcDbEntity
  8
DAMAN
100
AcDbCircle
 10
32.03498173066587
 20
19.4900476097642
 30
0.0
 40
0.15625
  0
CIRCLE
  5
840
330
59B
100
AcDbEntity
  8
DAMAN
100
AcDbCircle
 10
32.03498173066587
 20
19.4900476097642
 30
0.0
 40
0.1875
  0
INSERT
  5
841
330
59B
100
AcDbEntity
  8
DAMAN
100
AcDbBlockReference
  2
100CROSS
 10
32.03498173066587
 20
18.77104760976419
 30
0.0
 41
0.25
 42
0.25
  0
CIRCLE
  5
842
330
59B
100
AcDbEntity
  8
DAMAN
100
AcDbCircle
 10
32.03498173066587
 20
18.77104760976419
 30
0.0
 40
0.0845
  0
CIRCLE
  5
843
330
59B
100
AcDbEntity
  8
DAMAN
100
AcDbCircle
 10
34.22298173066588
 20
18.77104760976419
 30
0.0
 40
0.3439999999999999
  0
TEXT
  5
844
330
59B
100
AcDbEntity
  8
DAMAN
100
AcDbText
 10
32.87873173066587
 20
18.5525476097642
 30
0.0
 40
0.12
  1
A
100
AcDbText
  0
CIRCLE
  5
845
330
59B
100
AcDbEntity
  8
DAMAN
100
AcDbCircle
 10
34.78498173066587
 20
19.4900476097642
 30
0.0
 40
0.15625
  0
CIRCLE
  5
846
330
59B
100
AcDbEntity
  8
DAMAN
100
AcDbCircle
 10
34.78498173066587
 20
19.4900476097642
 30
0.0
 40
0.1875
  0
TEXT
  5
847
330
59B
100
AcDbEntity
  8
DAMAN
100
AcDbText
 10
34.47248173066587
 20
19.2400476097642
 30
0.0
 40
0.12
  1
T
100
AcDbText
  0
INSERT
  5
848
330
59B
100
AcDbEntity
  8
SAE
100
AcDbBlockReference
  2
16SAET
 10
33.2854817306663
 20
9.957047609764254
 30
0.0
  0
INSERT
  5
849
330
59B
100
AcDbEntity
  8
SAE
100
AcDbBlockReference
  2
16SAET
 10
33.28548173066593
 20
12.58454760976422
 30
0.0
  0
TEXT
  5
84A
330
59B
100
AcDbEntity
  8
DAMAN
100
AcDbText
 10
34.21772780362132
 20
10.69783327870424
 30
0.0
 40
0.2
  1
A
100
AcDbText
  0
TEXT
  5
84B
330
59B
100
AcDbEntity
  8
DAMAN
100
AcDbText
 10
34.21772789117962
 20
13.32846397548391
 30
0.0
 40
0.2
  1
B
100
AcDbText
  0
INSERT
  5
86F
330
59B
100
AcDbEntity
  8
DAMAN
100
AcDbBlockReference
  2
100CROSS
 10
20.59698173066588
 20
18.14604760976419
 30
0.0
 41
0.5625
 42
0.5625
  0
CIRCLE
  5
870
330
59B
100
AcDbEntity
  8
DAMAN
100
AcDbCircle
 10
20.59698173066588
 20
18.14604760976419
 30
0.0
 40
0.3439999999999999
  0
INSERT
  5
871
330
59B
100
AcDbEntity
  8
DAMAN
100
AcDbBlockReference
  2
100CROSS
 10
22.22298173066588
 20
18.77104760976419
 30
0.0
 41
0.5625
 42
0.5625
  0
INSERT
  5
872
330
59B
100
AcDbEntity
  8
DAMAN
100
AcDbBlockReference
  2
100CROSS
 10
22.22298173066588
 20
17.5220476097642
 30
0.0
 41
0.5625
 42
0.5625
  0
INSERT
  5
873
330
59B
100
AcDbEntity
  8
DAMAN
100
AcDbBlockReference
  2
100CROSS
 10
20.53498173066587
 20
16.0220476097642
 30
0.0
 41
0.375
 42
0.375
  0
INSERT
  5
874
330
59B
100
AcDbEntity
  8
DAMAN
100
AcDbBlockReference
  2
100CROSS
 10
20.03498173066588
 20
15.49004760976419
 30
0.0
 41
0.375
 42
0.375
  0
CIRCLE
  5
875
330
59B
100
AcDbEntity
  8
DAMAN
100
AcDbCircle
 10
20.03498173066588
 20
15.49004760976419
 30
0.0
 40
0.1875
  0
CIRCLE
  5
876
330
59B
100
AcDbEntity
  8
DAMAN
100
AcDbCircle
 10
20.03498173066588
 20
15.49004760976419
 30
0.0
 40
0.15625
  0
CIRCLE
  5
877
330
59B
100
AcDbEntity
  8
DAMAN
100
AcDbCircle
 10
20.53498173066587
 20
16.0220476097642
 30
0.0
 40
0.125
  0
CIRCLE
  5
878
330
59B
100
AcDbEntity
  8
DAMAN
100
AcDbCircle
 10
20.59698173066588
 20
16.89604760976418
 30
0.0
 40
0.3439999999999999
  0
TEXT
  5
879
330
59B
100
AcDbEntity
  8
DAMAN
100
AcDbText
 10
20.65998173066588
 20
16.2087976097642
 30
0.0
 40
0.12
  1
Y
100
AcDbText
  0
INSERT
  5
87A
330
59B
100
AcDbEntity
  8
DAMAN
100
AcDbBlockReference
  2
100CROSS
 10
20.59698173066588
 20
16.89604760976418
 30
0.0
 41
0.5625
 42
0.5625
  0
INSERT
  5
87B
330
59B
100
AcDbEntity
  8
DAMAN
100
AcDbBlockReference
  2
100CROSS
 10
19.97248173066588
 20
17.52104760976418
 30
0.0
 41
0.25
 42
0.25
  0
CIRCLE
  5
87C
330
59B
100
AcDbEntity
  8
DAMAN
100
AcDbCircle
 10
19.97198173066588
 20
17.5212976097642
 30
0.0
 40
0.125
  0
CIRCLE
  5
87D
330
59B
100
AcDbEntity
  8
DAMAN
100
AcDbCircle
 10
19.97248173066588
 20
17.52104760976418
 30
0.0
 40
0.1055
  0
TEXT
  5
87E
330
59B
100
AcDbEntity
  8
DAMAN
100
AcDbText
 10
20.90998173066588
 20
17.3025476097642
 30
0.0
 40
0.12
  1
B
100
AcDbText
  0
CIRCLE
  5
87F
330
59B
100
AcDbEntity
  8
DAMAN
100
AcDbCircle
 10
22.78498173066588
 20
15.49004760976419
 30
0.0
 40
0.1875
  0
INSERT
  5
880
330
59B
100
AcDbEntity
  8
DAMAN
100
AcDbBlockReference
  2
100CROSS
 10
22.78498173066588
 20
15.49004760976419
 30
0.0
 41
0.375
 42
0.375
  0
CIRCLE
  5
881
330
59B
100
AcDbEntity
  8
DAMAN
100
AcDbCircle
 10
22.78498173066588
 20
15.49004760976419
 30
0.0
 40
0.15625
  0
CIRCLE
  5
882
330
59B
100
AcDbEntity
  8
DAMAN
100
AcDbCircle
 10
22.84698173066587
 20
18.1462976097642
 30
0.0
 40
0.125
  0
INSERT
  5
883
330
59B
100
AcDbEntity
  8
DAMAN
100
AcDbBlockReference
  2
100CROSS
 10
22.84748173066588
 20
18.14604760976419
 30
0.0
 41
0.25
 42
0.25
  0
INSERT
  5
884
330
59B
100
AcDbEntity
  8
DAMAN
100
AcDbBlockReference
  2
100CROSS
 10
22.78498173066588
 20
16.4750476097642
 30
0.0
 41
0.25
 42
0.25
  0
CIRCLE
  5
885
330
59B
100
AcDbEntity
  8
DAMAN
100
AcDbCircle
 10
22.22298173066588
 20
17.5220476097642
 30
0.0
 40
0.3439999999999999
  0
CIRCLE
  5
886
330
59B
100
AcDbEntity
  8
DAMAN
100
AcDbCircle
 10
22.78498173066588
 20
16.4750476097642
 30
0.0
 40
0.0845
  0
TEXT
  5
887
330
59B
100
AcDbEntity
  8
DAMAN
100
AcDbText
 10
22.44123173066588
 20
17.9900476097642
 30
0.0
 40
0.12
  1
P
100
AcDbText
  0
CIRCLE
  5
888
330
59B
100
AcDbEntity
  8
DAMAN
100
AcDbCircle
 10
22.84748173066588
 20
18.14604760976419
 30
0.0
 40
0.1055
  0
INSERT
  5
889
330
59B
100
AcDbEntity
  8
DAMAN
100
AcDbBlockReference
  2
100CROSS
 10
20.03498173066588
 20
19.4900476097642
 30
0.0
 41
0.375
 42
0.375
  0
CIRCLE
  5
88A
330
59B
100
AcDbEntity
  8
DAMAN
100
AcDbCircle
 10
20.03498173066588
 20
19.4900476097642
 30
0.0
 40
0.15625
  0
CIRCLE
  5
88B
330
59B
100
AcDbEntity
  8
DAMAN
100
AcDbCircle
 10
20.03498173066588
 20
19.4900476097642
 30
0.0
 40
0.1875
  0
INSERT
  5
88C
330
59B
100
AcDbEntity
  8
DAMAN
100
AcDbBlockReference
  2
100CROSS
 10
20.03498173066588
 20
18.77104760976419
 30
0.0
 41
0.25
 42
0.25
  0
CIRCLE
  5
88D
330
59B
100
AcDbEntity
  8
DAMAN
100
AcDbCircle
 10
20.03498173066588
 20
18.77104760976419
 30
0.0
 40
0.0845
  0
TEXT
  5
88E
330
59B
100
AcDbEntity
  8
DAMAN
100
AcDbText
 10
20.87873173066588
 20
18.5525476097642
 30
0.0
 40
0.12
  1
A
100
AcDbText
  0
INSERT
  5
88F
330
59B
100
AcDbEntity
  8
DAMAN
100
AcDbBlockReference
  2
100CROSS
 10
22.78498173066588
 20
19.4900476097642
 30
0.0
 41
0.375
 42
0.375
  0
CIRCLE
  5
890
330
59B
100
AcDbEntity
  8
DAMAN
100
AcDbCircle
 10
22.78498173066588
 20
19.4900476097642
 30
0.0
 40
0.1875
  0
CIRCLE
  5
891
330
59B
100
AcDbEntity
  8
DAMAN
100
AcDbCircle
 10
22.78498173066588
 20
19.4900476097642
 30
0.0
 40
0.15625
  0
CIRCLE
  5
892
330
59B
100
AcDbEntity
  8
DAMAN
100
AcDbCircle
 10
22.22298173066588
 20
18.77104760976419
 30
0.0
 40
0.3439999999999999
  0
TEXT
  5
893
330
59B
100
AcDbEntity
  8
DAMAN
100
AcDbText
 10
22.47248173066588
 20
19.2400476097642
 30
0.0
 40
0.12
  1
T
100
AcDbText
  0
INSERT
  5
894
330
59B
100
AcDbEntity
  8
SAE
100
AcDbBlockReference
  2
16SAET
 10
21.2854817306663
 20
9.957047609764254
 30
0.0
  0
INSERT
  5
895
330
59B
100
AcDbEntity
  8
SAE
100
AcDbBlockReference
  2
16SAET
 10
21.28548173066592
 20
12.58454760976422
 30
0.0
  0
TEXT
  5
896
330
59B
100
AcDbEntity
  8
DAMAN
100
AcDbText
 10
22.21772780362133
 20
10.69783327870424
 30
0.0
 40
0.2
  1
A
100
AcDbText
  0
TEXT
  5
897
330
59B
100
AcDbEntity
  8
DAMAN
100
AcDbText
 10
22.21772789117963
 20
13.32846397548391
 30
0.0
 40
0.2
  1
B
100
AcDbText
  0
INSERT
  5
8BB
330
59B
100
AcDbEntity
  8
SAE
100
AcDbBlockReference
  2
16SAET
 10
25.2854817306663
 20
9.957047609764254
 30
0.0
  0
INSERT
  5
8BC
330
59B
100
AcDbEntity
  8
SAE
100
AcDbBlockReference
  2
16SAET
 10
25.28548173066592
 20
12.58454760976422
 30
0.0
  0
TEXT
  5
8BD
330
59B
100
AcDbEntity
  8
DAMAN
100
AcDbText
 10
26.21772780362133
 20
10.69783327870424
 30
0.0
 40
0.2
  1
A
100
AcDbText
  0
TEXT
  5
8BE
330
59B
100
AcDbEntity
  8
DAMAN
100
AcDbText
 10
26.21772789117962
 20
13.32846397548391
 30
0.0
 40
0.2
  1
B
100
AcDbText
  0
INSERT
  5
8BF
330
59B
100
AcDbEntity
  8
DAMAN
100
AcDbBlockReference
  2
100CROSS
 10
26.22298173066587
 20
18.77104760976419
 30
0.0
 41
0.5625
 42
0.5625
  0
CIRCLE
  5
8C0
330
59B
100
AcDbEntity
  8
DAMAN
100
AcDbCircle
 10
24.59698173066588
 20
18.14604760976419
 30
0.0
 40
0.3439999999999999
  0
INSERT
  5
8C1
330
59B
100
AcDbEntity
  8
DAMAN
100
AcDbBlockReference
  2
100CROSS
 10
24.59698173066588
 20
18.14604760976419
 30
0.0
 41
0.5625
 42
0.5625
  0
INSERT
  5
8C2
330
59B
100
AcDbEntity
  8
DAMAN
100
AcDbBlockReference
  2
100CROSS
 10
24.53498173066588
 20
16.0220476097642
 30
0.0
 41
0.375
 42
0.375
  0
CIRCLE
  5
8C3
330
59B
100
AcDbEntity
  8
DAMAN
100
AcDbCircle
 10
24.03498173066588
 20
15.49004760976419
 30
0.0
 40
0.15625
  0
CIRCLE
  5
8C4
330
59B
100
AcDbEntity
  8
DAMAN
100
AcDbCircle
 10
24.03498173066588
 20
15.49004760976419
 30
0.0
 40
0.1875
  0
INSERT
  5
8C5
330
59B
100
AcDbEntity
  8
DAMAN
100
AcDbBlockReference
  2
100CROSS
 10
24.03498173066588
 20
15.49004760976419
 30
0.0
 41
0.375
 42
0.375
  0
CIRCLE
  5
8C6
330
59B
100
AcDbEntity
  8
DAMAN
100
AcDbCircle
 10
24.53498173066588
 20
16.0220476097642
 30
0.0
 40
0.125
  0
INSERT
  5
8C7
330
59B
100
AcDbEntity
  8
DAMAN
100
AcDbBlockReference
  2
100CROSS
 10
23.97248173066588
 20
17.52104760976418
 30
0.0
 41
0.25
 42
0.25
  0
INSERT
  5
8C8
330
59B
100
AcDbEntity
  8
DAMAN
100
AcDbBlockReference
  2
100CROSS
 10
24.59698173066588
 20
16.89604760976418
 30
0.0
 41
0.5625
 42
0.5625
  0
CIRCLE
  5
8C9
330
59B
100
AcDbEntity
  8
DAMAN
100
AcDbCircle
 10
23.97248173066588
 20
17.52104760976418
 30
0.0
 40
0.1055
  0
CIRCLE
  5
8CA
330
59B
100
AcDbEntity
  8
DAMAN
100
AcDbCircle
 10
23.97198173066588
 20
17.5212976097642
 30
0.0
 40
0.125
  0
TEXT
  5
8CB
330
59B
100
AcDbEntity
  8
DAMAN
100
AcDbText
 10
24.65998173066588
 20
16.2087976097642
 30
0.0
 40
0.12
  1
Y
100
AcDbText
  0
CIRCLE
  5
8CC
330
59B
100
AcDbEntity
  8
DAMAN
100
AcDbCircle
 10
24.59698173066588
 20
16.89604760976418
 30
0.0
 40
0.3439999999999999
  0
TEXT
  5
8CD
330
59B
100
AcDbEntity
  8
DAMAN
100
AcDbText
 10
24.90998173066587
 20
17.3025476097642
 30
0.0
 40
0.12
  1
B
100
AcDbText
  0
INSERT
  5
8CE
330
59B
100
AcDbEntity
  8
DAMAN
100
AcDbBlockReference
  2
100CROSS
 10
26.78498173066587
 20
15.49004760976419
 30
0.0
 41
0.375
 42
0.375
  0
CIRCLE
  5
8CF
330
59B
100
AcDbEntity
  8
DAMAN
100
AcDbCircle
 10
26.78498173066587
 20
15.49004760976419
 30
0.0
 40
0.15625
  0
CIRCLE
  5
8D0
330
59B
100
AcDbEntity
  8
DAMAN
100
AcDbCircle
 10
26.78498173066587
 20
15.49004760976419
 30
0.0
 40
0.1875
  0
CIRCLE
  5
8D1
330
59B
100
AcDbEntity
  8
DAMAN
100
AcDbCircle
 10
26.22298173066587
 20
17.5220476097642
 30
0.0
 40
0.3439999999999999
  0
INSERT
  5
8D2
330
59B
100
AcDbEntity
  8
DAMAN
100
AcDbBlockReference
  2
100CROSS
 10
26.22298173066587
 20
17.5220476097642
 30
0.0
 41
0.5625
 42
0.5625
  0
CIRCLE
  5
8D3
330
59B
100
AcDbEntity
  8
DAMAN
100
AcDbCircle
 10
26.78498173066587
 20
16.4750476097642
 30
0.0
 40
0.0845
  0
INSERT
  5
8D4
330
59B
100
AcDbEntity
  8
DAMAN
100
AcDbBlockReference
  2
100CROSS
 10
26.78498173066587
 20
16.4750476097642
 30
0.0
 41
0.25
 42
0.25
  0
INSERT
  5
8D5
330
59B
100
AcDbEntity
  8
DAMAN
100
AcDbBlockReference
  2
100CROSS
 10
26.84748173066588
 20
18.14604760976419
 30
0.0
 41
0.25
 42
0.25
  0
TEXT
  5
8D6
330
59B
100
AcDbEntity
  8
DAMAN
100
AcDbText
 10
26.44123173066588
 20
17.9900476097642
 30
0.0
 40
0.12
  1
P
100
AcDbText
  0
CIRCLE
  5
8D7
330
59B
100
AcDbEntity
  8
DAMAN
100
AcDbCircle
 10
26.84748173066588
 20
18.14604760976419
 30
0.0
 40
0.1055
  0
CIRCLE
  5
8D8
330
59B
100
AcDbEntity
  8
DAMAN
100
AcDbCircle
 10
26.84698173066587
 20
18.1462976097642
 30
0.0
 40
0.125
  0
INSERT
  5
8D9
330
59B
100
AcDbEntity
  8
DAMAN
100
AcDbBlockReference
  2
100CROSS
 10
24.03498173066588
 20
18.77104760976419
 30
0.0
 41
0.25
 42
0.25
  0
CIRCLE
  5
8DA
330
59B
100
AcDbEntity
  8
DAMAN
100
AcDbCircle
 10
24.03498173066588
 20
19.4900476097642
 30
0.0
 40
0.1875
  0
CIRCLE
  5
8DB
330
59B
100
AcDbEntity
  8
DAMAN
100
AcDbCircle
 10
24.03498173066588
 20
19.4900476097642
 30
0.0
 40
0.15625
  0
INSERT
  5
8DC
330
59B
100
AcDbEntity
  8
DAMAN
100
AcDbBlockReference
  2
100CROSS
 10
24.03498173066588
 20
19.4900476097642
 30
0.0
 41
0.375
 42
0.375
  0
CIRCLE
  5
8DD
330
59B
100
AcDbEntity
  8
DAMAN
100
AcDbCircle
 10
24.03498173066588
 20
18.77104760976419
 30
0.0
 40
0.0845
  0
TEXT
  5
8DE
330
59B
100
AcDbEntity
  8
DAMAN
100
AcDbText
 10
24.87873173066588
 20
18.5525476097642
 30
0.0
 40
0.12
  1
A
100
AcDbText
  0
CIRCLE
  5
8DF
330
59B
100
AcDbEntity
  8
DAMAN
100
AcDbCircle
 10
26.22298173066587
 20
18.77104760976419
 30
0.0
 40
0.3439999999999999
  0
CIRCLE
  5
8E0
330
59B
100
AcDbEntity
  8
DAMAN
100
AcDbCircle
 10
26.78498173066587
 20
19.4900476097642
 30
0.0
 40
0.15625
  0
CIRCLE
  5
8E1
330
59B
100
AcDbEntity
  8
DAMAN
100
AcDbCircle
 10
26.78498173066587
 20
19.4900476097642
 30
0.0
 40
0.1875
  0
INSERT
  5
8E2
330
59B
100
AcDbEntity
  8
DAMAN
100
AcDbBlockReference
  2
100CROSS
 10
26.78498173066587
 20
19.4900476097642
 30
0.0
 41
0.375
 42
0.375
  0
TEXT
  5
8E3
330
59B
100
AcDbEntity
  8
DAMAN
100
AcDbText
 10
26.47248173066587
 20
19.2400476097642
 30
0.0
 40
0.12
  1
T
100
AcDbText
  0
INSERT
  5
907
330
59B
100
AcDbEntity
  8
SAE
100
AcDbBlockReference
  2
16SAET
 10
29.2854817306663
 20
9.957047609764254
 30
0.0
  0
INSERT
  5
908
330
59B
100
AcDbEntity
  8
SAE
100
AcDbBlockReference
  2
16SAET
 10
29.28548173066593
 20
12.58454760976422
 30
0.0
  0
TEXT
  5
909
330
59B
100
AcDbEntity
  8
DAMAN
100
AcDbText
 10
30.21772780362133
 20
10.69783327870424
 30
0.0
 40
0.2
  1
A
100
AcDbText
  0
TEXT
  5
90A
330
59B
100
AcDbEntity
  8
DAMAN
100
AcDbText
 10
30.21772789117962
 20
13.32846397548391
 30
0.0
 40
0.2
  1
B
100
AcDbText
  0
INSERT
  5
90B
330
59B
100
AcDbEntity
  8
DAMAN
100
AcDbBlockReference
  2
100CROSS
 10
28.59698173066588
 20
18.14604760976419
 30
0.0
 41
0.5625
 42
0.5625
  0
CIRCLE
  5
90C
330
59B
100
AcDbEntity
  8
DAMAN
100
AcDbCircle
 10
28.59698173066588
 20
18.14604760976419
 30
0.0
 40
0.3439999999999999
  0
INSERT
  5
90D
330
59B
100
AcDbEntity
  8
DAMAN
100
AcDbBlockReference
  2
100CROSS
 10
30.22298173066587
 20
18.77104760976419
 30
0.0
 41
0.5625
 42
0.5625
  0
INSERT
  5
90E
330
59B
100
AcDbEntity
  8
DAMAN
100
AcDbBlockReference
  2
100CROSS
 10
30.22298173066587
 20
17.5220476097642
 30
0.0
 41
0.5625
 42
0.5625
  0
INSERT
  5
90F
330
59B
100
AcDbEntity
  8
DAMAN
100
AcDbBlockReference
  2
100CROSS
 10
28.53498173066588
 20
16.0220476097642
 30
0.0
 41
0.375
 42
0.375
  0
INSERT
  5
910
330
59B
100
AcDbEntity
  8
DAMAN
100
AcDbBlockReference
  2
100CROSS
 10
28.03498173066587
 20
15.49004760976419
 30
0.0
 41
0.375
 42
0.375
  0
CIRCLE
  5
911
330
59B
100
AcDbEntity
  8
DAMAN
100
AcDbCircle
 10
28.03498173066587
 20
15.49004760976419
 30
0.0
 40
0.1875
  0
CIRCLE
  5
912
330
59B
100
AcDbEntity
  8
DAMAN
100
AcDbCircle
 10
28.03498173066587
 20
15.49004760976419
 30
0.0
 40
0.15625
  0
CIRCLE
  5
913
330
59B
100
AcDbEntity
  8
DAMAN
100
AcDbCircle
 10
28.53498173066588
 20
16.0220476097642
 30
0.0
 40
0.125
  0
CIRCLE
  5
914
330
59B
100
AcDbEntity
  8
DAMAN
100
AcDbCircle
 10
28.59698173066588
 20
16.89604760976418
 30
0.0
 40
0.3439999999999999
  0
TEXT
  5
915
330
59B
100
AcDbEntity
  8
DAMAN
100
AcDbText
 10
28.65998173066587
 20
16.2087976097642
 30
0.0
 40
0.12
  1
Y
100
AcDbText
  0
INSERT
  5
916
330
59B
100
AcDbEntity
  8
DAMAN
100
AcDbBlockReference
  2
100CROSS
 10
28.59698173066588
 20
16.89604760976418
 30
0.0
 41
0.5625
 42
0.5625
  0
INSERT
  5
917
330
59B
100
AcDbEntity
  8
DAMAN
100
AcDbBlockReference
  2
100CROSS
 10
27.97248173066588
 20
17.52104760976418
 30
0.0
 41
0.25
 42
0.25
  0
CIRCLE
  5
918
330
59B
100
AcDbEntity
  8
DAMAN
100
AcDbCircle
 10
27.97198173066588
 20
17.5212976097642
 30
0.0
 40
0.125
  0
CIRCLE
  5
919
330
59B
100
AcDbEntity
  8
DAMAN
100
AcDbCircle
 10
27.97248173066588
 20
17.52104760976418
 30
0.0
 40
0.1055
  0
TEXT
  5
91A
330
59B
100
AcDbEntity
  8
DAMAN
100
AcDbText
 10
28.90998173066588
 20
17.3025476097642
 30
0.0
 40
0.12
  1
B
100
AcDbText
  0
CIRCLE
  5
91B
330
59B
100
AcDbEntity
  8
DAMAN
100
AcDbCircle
 10
30.78498173066588
 20
15.49004760976419
 30
0.0
 40
0.1875
  0
INSERT
  5
91C
330
59B
100
AcDbEntity
  8
DAMAN
100
AcDbBlockReference
  2
100CROSS
 10
30.78498173066588
 20
15.49004760976419
 30
0.0
 41
0.375
 42
0.375
  0
CIRCLE
  5
91D
330
59B
100
AcDbEntity
  8
DAMAN
100
AcDbCircle
 10
30.78498173066588
 20
15.49004760976419
 30
0.0
 40
0.15625
  0
CIRCLE
  5
91E
330
59B
100
AcDbEntity
  8
DAMAN
100
AcDbCircle
 10
30.84698173066588
 20
18.1462976097642
 30
0.0
 40
0.125
  0
INSERT
  5
91F
330
59B
100
AcDbEntity
  8
DAMAN
100
AcDbBlockReference
  2
100CROSS
 10
30.84748173066587
 20
18.14604760976419
 30
0.0
 41
0.25
 42
0.25
  0
INSERT
  5
920
330
59B
100
AcDbEntity
  8
DAMAN
100
AcDbBlockReference
  2
100CROSS
 10
30.78498173066588
 20
16.4750476097642
 30
0.0
 41
0.25
 42
0.25
  0
CIRCLE
  5
921
330
59B
100
AcDbEntity
  8
DAMAN
100
AcDbCircle
 10
30.22298173066587
 20
17.5220476097642
 30
0.0
 40
0.3439999999999999
  0
CIRCLE
  5
922
330
59B
100
AcDbEntity
  8
DAMAN
100
AcDbCircle
 10
30.78498173066588
 20
16.4750476097642
 30
0.0
 40
0.0845
  0
TEXT
  5
923
330
59B
100
AcDbEntity
  8
DAMAN
100
AcDbText
 10
30.44123173066588
 20
17.9900476097642
 30
0.0
 40
0.12
  1
P
100
AcDbText
  0
CIRCLE
  5
924
330
59B
100
AcDbEntity
  8
DAMAN
100
AcDbCircle
 10
30.84748173066587
 20
18.14604760976419
 30
0.0
 40
0.1055
  0
INSERT
  5
925
330
59B
100
AcDbEntity
  8
DAMAN
100
AcDbBlockReference
  2
100CROSS
 10
28.03498173066587
 20
19.4900476097642
 30
0.0
 41
0.375
 42
0.375
  0
CIRCLE
  5
926
330
59B
100
AcDbEntity
  8
DAMAN
100
AcDbCircle
 10
28.03498173066587
 20
19.4900476097642
 30
0.0
 40
0.15625
  0
CIRCLE
  5
927
330
59B
100
AcDbEntity
  8
DAMAN
100
AcDbCircle
 10
28.03498173066587
 20
19.4900476097642
 30
0.0
 40
0.1875
  0
INSERT
  5
928
330
59B
100
AcDbEntity
  8
DAMAN
100
AcDbBlockReference
  2
100CROSS
 10
28.03498173066587
 20
18.77104760976419
 30
0.0
 41
0.25
 42
0.25
  0
CIRCLE
  5
929
330
59B
100
AcDbEntity
  8
DAMAN
100
AcDbCircle
 10
28.03498173066587
 20
18.77104760976419
 30
0.0
 40
0.0845
  0
TEXT
  5
92A
330
59B
100
AcDbEntity
  8
DAMAN
100
AcDbText
 10
28.87873173066587
 20
18.5525476097642
 30
0.0
 40
0.12
  1
A
100
AcDbText
  0
INSERT
  5
92B
330
59B
100
AcDbEntity
  8
DAMAN
100
AcDbBlockReference
  2
100CROSS
 10
30.78498173066588
 20
19.4900476097642
 30
0.0
 41
0.375
 42
0.375
  0
CIRCLE
  5
92C
330
59B
100
AcDbEntity
  8
DAMAN
100
AcDbCircle
 10
30.78498173066588
 20
19.4900476097642
 30
0.0
 40
0.1875
  0
CIRCLE
  5
92D
330
59B
100
AcDbEntity
  8
DAMAN
100
AcDbCircle
 10
30.78498173066588
 20
19.4900476097642
 30
0.0
 40
0.15625
  0
CIRCLE
  5
92E
330
59B
100
AcDbEntity
  8
DAMAN
100
AcDbCircle
 10
30.22298173066587
 20
18.77104760976419
 30
0.0
 40
0.3439999999999999
  0
TEXT
  5
92F
330
59B
100
AcDbEntity
  8
DAMAN
100
AcDbText
 10
30.47248173066588
 20
19.2400476097642
 30
0.0
 40
0.12
  1
T
100
AcDbText
  0
ENDSEC
  0
SECTION
  2
OBJECTS
  0
DICTIONARY
  5
589
330
0
100
AcDbDictionary
  3
ACAD_GROUP
350
58A
  3
ACAD_LAYOUT
350
596
  3
ACAD_MLINESTYLE
350
593
  3
ACAD_PLOTSETTINGS
350
595
  3
ACAD_PLOTSTYLENAME
350
58B
  3
ACDBHEADERROUNDTRIPXREC
350
931
  0
DICTIONARY
  5
7F8
330
59B
100
AcDbDictionary
280
     1
  3
ACAD_LAYOUTSELFREF
360
952
  0
DICTIONARY
  5
7F6
330
597
100
AcDbDictionary
280
     1
  3
ACAD_LAYOUTSELFREF
360
951
  0
DICTIONARY
  5
58A
102
{ACAD_REACTORS
330
589
102
}
330
589
100
AcDbDictionary
  0
DICTIONARY
  5
596
102
{ACAD_REACTORS
330
589
102
}
330
589
100
AcDbDictionary
  0
DICTIONARY
  5
593
102
{ACAD_REACTORS
330
589
102
}
330
589
100
AcDbDictionary
  3
STANDARD
350
594
  0
DICTIONARY
  5
595
102
{ACAD_REACTORS
330
589
102
}
330
589
100
AcDbDictionary
  0
ACDBDICTIONARYWDFLT
  5
58B
102
{ACAD_REACTORS
330
589
102
}
330
589
100
AcDbDictionary
281
     1
  3
Normal
350
58C
100
AcDbDictionaryWithDefault
340
58C
  0
DICTIONARY
  5
931
102
{ACAD_REACTORS
330
589
102
}
330
589
100
AcDbDictionary
  3
CEPSNTYPE
350
93B
  3
FINGERPRINTGUID
350
93C
  3
HYPERLINKBASE
350
934
  3
INSUNITS
350
93A
  3
LAYOUTDICT
350
936
  3
LWETCUNION
350
939
  3
PLOTSETDICT
350
937
  3
PLOTSTYLNAMDICT
350
938
  3
PSVPSCALE
350
93E
  3
PUCSBASE
350
941
  3
PUCSORGBACK
350
947
  3
PUCSORGBOTTOM
350
943
  3
PUCSORGFRONT
350
946
  3
PUCSORGLEFT
350
944
  3
PUCSORGRIGHT
350
945
  3
PUCSORGTOP
350
942
  3
PUCSORTHOREF
350
93F
  3
PUCSORTHOVIEW
350
940
  3
STYLESHEET
350
935
  3
TSTACKALIGN
350
932
  3
TSTACKSIZE
350
933
  3
UCSBASE
350
94A
  3
UCSORGBACK
350
950
  3
UCSORGBOTTOM
350
94C
  3
UCSORGFRONT
350
94F
  3
UCSORGLEFT
350
94D
  3
UCSORGRIGHT
350
94E
  3
UCSORGTOP
350
94B
  3
UCSORTHOREF
350
948
  3
UCSORTHOVIEW
350
949
  3
VERSIONGUID
350
93D
  0
XRECORD
  5
952
102
{ACAD_REACTORS
330
7F8
102
}
330
7F8
100
AcDbXrecord
340
59B
  0
XRECORD
  5
951
102
{ACAD_REACTORS
330
7F6
102
}
330
7F6
100
AcDbXrecord
340
597
  0
MLINESTYLE
  5
594
102
{ACAD_REACTORS
330
593
102
}
330
593
100
AcDbMlineStyle
  2
STANDARD
 70
     0
  3

 62
   256
 51
90.0
 52
90.0
 71
     2
 49
0.5
 62
   256
  6
BYLAYER
 49
-0.5
 62
   256
  6
BYLAYER
  0
ACDBPLACEHOLDER
  5
58C
102
{ACAD_REACTORS
330
58B
102
}
330
58B
100
AcDbPlaceHolder
280
     0
  0
XRECORD
  5
93B
102
{ACAD_REACTORS
330
931
102
}
330
931
100
AcDbXrecord
 90
        0
  0
XRECORD
  5
93C
102
{ACAD_REACTORS
330
931
102
}
330
931
100
AcDbXrecord
  1
{F56E973C-626C-4A30-AECA-BBBBC4ED799B}
  0
XRECORD
  5
934
102
{ACAD_REACTORS
330
931
102
}
330
931
100
AcDbXrecord
  1

  0
XRECORD
  5
93A
102
{ACAD_REACTORS
330
931
102
}
330
931
100
AcDbXrecord
 90
        0
  0
XRECORD
  5
936
102
{ACAD_REACTORS
330
931
102
}
330
931
100
AcDbXrecord
340
596
  0
XRECORD
  5
939
102
{ACAD_REACTORS
330
931
102
}
330
931
100
AcDbXrecord
 90
    10781
  0
XRECORD
  5
937
102
{ACAD_REACTORS
330
931
102
}
330
931
100
AcDbXrecord
340
595
  0
XRECORD
  5
938
102
{ACAD_REACTORS
330
931
102
}
330
931
100
AcDbXrecord
340
58B
  0
XRECORD
  5
93E
102
{ACAD_REACTORS
330
931
102
}
330
931
100
AcDbXrecord
 40
0.0
  0
XRECORD
  5
941
102
{ACAD_REACTORS
330
931
102
}
330
931
100
AcDbXrecord
340
0
  0
XRECORD
  5
947
102
{ACAD_REACTORS
330
931
102
}
330
931
100
AcDbXrecord
 10
0.0
 20
0.0
 30
0.0
  0
XRECORD
  5
943
102
{ACAD_REACTORS
330
931
102
}
330
931
100
AcDbXrecord
 10
0.0
 20
0.0
 30
0.0
  0
XRECORD
  5
946
102
{ACAD_REACTORS
330
931
102
}
330
931
100
AcDbXrecord
 10
0.0
 20
0.0
 30
0.0
  0
XRECORD
  5
944
102
{ACAD_REACTORS
330
931
102
}
330
931
100
AcDbXrecord
 10
0.0
 20
0.0
 30
0.0
  0
XRECORD
  5
945
102
{ACAD_REACTORS
330
931
102
}
330
931
100
AcDbXrecord
 10
0.0
 20
0.0
 30
0.0
  0
XRECORD
  5
942
102
{ACAD_REACTORS
330
931
102
}
330
931
100
AcDbXrecord
 10
0.0
 20
0.0
 30
0.0
  0
XRECORD
  5
93F
102
{ACAD_REACTORS
330
931
102
}
330
931
100
AcDbXrecord
340
0
  0
XRECORD
  5
940
102
{ACAD_REACTORS
330
931
102
}
330
931
100
AcDbXrecord
 70
     0
  0
XRECORD
  5
935
102
{ACAD_REACTORS
330
931
102
}
330
931
100
AcDbXrecord
  1

  0
XRECORD
  5
932
102
{ACAD_REACTORS
330
931
102
}
330
931
100
AcDbXrecord
 90
        1
  0
XRECORD
  5
933
102
{ACAD_REACTORS
330
931
102
}
330
931
100
AcDbXrecord
 90
       70
  0
XRECORD
  5
94A
102
{ACAD_REACTORS
330
931
102
}
330
931
100
AcDbXrecord
340
0
  0
XRECORD
  5
950
102
{ACAD_REACTORS
330
931
102
}
330
931
100
AcDbXrecord
 10
0.0
 20
0.0
 30
0.0
  0
XRECORD
  5
94C
102
{ACAD_REACTORS
330
931
102
}
330
931
100
AcDbXrecord
 10
0.0
 20
0.0
 30
0.0
  0
XRECORD
  5
94F
102
{ACAD_REACTORS
330
931
102
}
330
931
100
AcDbXrecord
 10
0.0
 20
0.0
 30
0.0
  0
XRECORD
  5
94D
102
{ACAD_REACTORS
330
931
102
}
330
931
100
AcDbXrecord
 10
0.0
 20
0.0
 30
0.0
  0
XRECORD
  5
94E
102
{ACAD_REACTORS
330
931
102
}
330
931
100
AcDbXrecord
 10
0.0
 20
0.0
 30
0.0
  0
XRECORD
  5
94B
102
{ACAD_REACTORS
330
931
102
}
330
931
100
AcDbXrecord
 10
0.0
 20
0.0
 30
0.0
  0
XRECORD
  5
948
102
{ACAD_REACTORS
330
931
102
}
330
931
100
AcDbXrecord
340
0
  0
XRECORD
  5
949
102
{ACAD_REACTORS
330
931
102
}
330
931
100
AcDbXrecord
 70
     0
  0
XRECORD
  5
93D
102
{ACAD_REACTORS
330
931
102
}
330
931
100
AcDbXrecord
  1
{8D69EA50-4D91-4F9A-B4B4-4B082308323F}
  0
ENDSEC
  0
EOF
