  0
SECTION
  2
HEADER
  9
$ACADVER
  1
AC1014
  9
$ACADMAINTVER
 70
     9
  9
$DWGCODEPAGE
  3
ANSI_1252
  9
$INSBASE
 10
0.0
 20
0.0
 30
0.0
  9
$EXTMIN
 10
3.335681869967281
 20
2.056335516805219
 30
-0.0015258207003583
  9
$EXTMAX
 10
30.51988189186701
 20
22.61969000033532
 30
0.0000000349246037
  9
$LIMMIN
 10
0.0
 20
0.0
  9
$LIMMAX
 10
28.0
 20
28.0
  9
$ORTHOMODE
 70
     0
  9
$REGENMODE
 70
     1
  9
$FILLMODE
 70
     1
  9
$QTEXTMODE
 70
     0
  9
$MIRRTEXT
 70
     1
  9
$DRAGMODE
 70
     2
  9
$LTSCALE
 40
1.0
  9
$OSMODE
 70
    37
  9
$ATTMODE
 70
     1
  9
$TEXTSIZE
 40
0.2
  9
$TRACEWID
 40
0.05
  9
$TEXTSTYLE
  7
STANDARD
  9
$CLAYER
  8
DAMAN
  9
$CELTYPE
  6
BYLAYER
  9
$CECOLOR
 62
   256
  9
$CELTSCALE
 40
1.0
  9
$DELOBJ
 70
     1
  9
$DISPSILH
 70
     0
  9
$DIMSCALE
 40
1.0
  9
$DIMASZ
 40
0.18
  9
$DIMEXO
 40
0.0625
  9
$DIMDLI
 40
0.38
  9
$DIMRND
 40
0.0
  9
$DIMDLE
 40
0.0
  9
$DIMEXE
 40
0.18
  9
$DIMTP
 40
0.0
  9
$DIMTM
 40
0.0
  9
$DIMTXT
 40
0.18
  9
$DIMCEN
 40
0.09
  9
$DIMTSZ
 40
0.0
  9
$DIMTOL
 70
     0
  9
$DIMLIM
 70
     0
  9
$DIMTIH
 70
     1
  9
$DIMTOH
 70
     1
  9
$DIMSE1
 70
     0
  9
$DIMSE2
 70
     0
  9
$DIMTAD
 70
     0
  9
$DIMZIN
 70
     0
  9
$DIMBLK
  1

  9
$DIMASO
 70
     1
  9
$DIMSHO
 70
     1
  9
$DIMPOST
  1

  9
$DIMAPOST
  1

  9
$DIMALT
 70
     0
  9
$DIMALTD
 70
     2
  9
$DIMALTF
 40
25.4
  9
$DIMLFAC
 40
1.0
  9
$DIMTOFL
 70
     0
  9
$DIMTVP
 40
0.0
  9
$DIMTIX
 70
     0
  9
$DIMSOXD
 70
     0
  9
$DIMSAH
 70
     0
  9
$DIMBLK1
  1

  9
$DIMBLK2
  1

  9
$DIMSTYLE
  2
DAMAN
  9
$DIMCLRD
 70
     0
  9
$DIMCLRE
 70
     0
  9
$DIMCLRT
 70
     0
  9
$DIMTFAC
 40
1.0
  9
$DIMGAP
 40
0.09
  9
$DIMJUST
 70
     0
  9
$DIMSD1
 70
     0
  9
$DIMSD2
 70
     0
  9
$DIMTOLJ
 70
     1
  9
$DIMTZIN
 70
     0
  9
$DIMALTZ
 70
     0
  9
$DIMALTTZ
 70
     0
  9
$DIMFIT
 70
     3
  9
$DIMUPT
 70
     0
  9
$DIMUNIT
 70
     2
  9
$DIMDEC
 70
     4
  9
$DIMTDEC
 70
     4
  9
$DIMALTU
 70
     2
  9
$DIMALTTD
 70
     2
  9
$DIMTXSTY
  7
STANDARD
  9
$DIMAUNIT
 70
     0
  9
$LUNITS
 70
     2
  9
$LUPREC
 70
     4
  9
$SKETCHINC
 40
0.1
  9
$FILLETRAD
 40
0.0
  9
$AUNITS
 70
     0
  9
$AUPREC
 70
     0
  9
$MENU
  1
tom
  9
$ELEVATION
 40
0.0
  9
$PELEVATION
 40
0.0
  9
$THICKNESS
 40
0.0
  9
$LIMCHECK
 70
     0
  9
$BLIPMODE
 70
     0
  9
$CHAMFERA
 40
0.0
  9
$CHAMFERB
 40
0.0
  9
$CHAMFERC
 40
0.0
  9
$CHAMFERD
 40
0.0
  9
$SKPOLY
 70
     0
  9
$TDCREATE
 40
2450466.608317940
  9
$TDUPDATE
 40
2453419.667227164
  9
$TDINDWG
 40
0.0013745949
  9
$TDUSRTIMER
 40
0.0013745949
  9
$USRTIMER
 70
     1
  9
$ANGBASE
 50
0.0
  9
$ANGDIR
 70
     0
  9
$PDMODE
 70
     0
  9
$PDSIZE
 40
0.0
  9
$PLINEWID
 40
0.0
  9
$COORDS
 70
     1
  9
$SPLFRAME
 70
     0
  9
$SPLINETYPE
 70
     6
  9
$SPLINESEGS
 70
     8
  9
$ATTDIA
 70
     0
  9
$ATTREQ
 70
     1
  9
$HANDLING
 70
-16383
  9
$HANDSEED
  5
96F
  9
$SURFTAB1
 70
     6
  9
$SURFTAB2
 70
     6
  9
$SURFTYPE
 70
     6
  9
$SURFU
 70
     6
  9
$SURFV
 70
     6
  9
$UCSNAME
  2

  9
$UCSORG
 10
0.0
 20
0.0
 30
0.0
  9
$UCSXDIR
 10
1.0
 20
0.0
 30
0.0
  9
$UCSYDIR
 10
0.0
 20
1.0
 30
0.0
  9
$PUCSNAME
  2

  9
$PUCSORG
 10
0.0
 20
0.0
 30
0.0
  9
$PUCSXDIR
 10
1.0
 20
0.0
 30
0.0
  9
$PUCSYDIR
 10
0.0
 20
1.0
 30
0.0
  9
$USERI1
 70
     0
  9
$USERI2
 70
     0
  9
$USERI3
 70
     0
  9
$USERI4
 70
     0
  9
$USERI5
 70
     0
  9
$USERR1
 40
0.0
  9
$USERR2
 40
0.0
  9
$USERR3
 40
0.0
  9
$USERR4
 40
0.0
  9
$USERR5
 40
0.0
  9
$WORLDVIEW
 70
     1
  9
$SHADEDGE
 70
     3
  9
$SHADEDIF
 70
    70
  9
$TILEMODE
 70
     1
  9
$MAXACTVP
 70
    16
  9
$PINSBASE
 10
0.0
 20
0.0
 30
0.0
  9
$PLIMCHECK
 70
     0
  9
$PEXTMIN
 10
1.000000000000000E+20
 20
1.000000000000000E+20
 30
1.000000000000000E+20
  9
$PEXTMAX
 10
-1.000000000000000E+20
 20
-1.000000000000000E+20
 30
-1.000000000000000E+20
  9
$PLIMMIN
 10
0.0
 20
0.0
  9
$PLIMMAX
 10
12.0
 20
9.0
  9
$UNITMODE
 70
     0
  9
$VISRETAIN
 70
     0
  9
$PLINEGEN
 70
     0
  9
$PSLTSCALE
 70
     1
  9
$TREEDEPTH
 70
  3020
  9
$PICKSTYLE
 70
     1
  9
$CMLSTYLE
  2
STANDARD
  9
$CMLJUST
 70
     0
  9
$CMLSCALE
 40
1.0
  9
$PROXYGRAPHICS
 70
     1
  9
$MEASUREMENT
 70
     0
  0
ENDSEC
  0
SECTION
  2
CLASSES
  0
CLASS
  1
ACDBDICTIONARYWDFLT
  2
AcDbDictionaryWithDefault
  3
AutoCAD 2000
 90
        0
280
     0
281
     0
  0
CLASS
  1
ACDBPLACEHOLDER
  2
AcDbPlaceHolder
  3
AutoCAD 2000
 90
        0
280
     0
281
     0
  0
CLASS
  1
LAYOUT
  2
AcDbLayout
  3
AutoCAD 2000
 90
        0
280
     0
281
     0
  0
CLASS
  1
LONG_TRANSACTION
  2
AcDbLongTransaction
  3
AutoCAD 2000
 90
        0
280
     0
281
     0
  0
CLASS
  1
LWPOLYLINE
  2
AcDbPolyline
  3
AutoCAD 2000
 90
        0
280
     0
281
     1
  0
CLASS
  1
HATCH
  2
AcDbHatch
  3
AutoCAD 2000
 90
        0
280
     0
281
     1
  0
CLASS
  1
XRECORD
  2
AcDbXrecord
  3
AutoCAD 2000
 90
        0
280
     0
281
     0
  0
ENDSEC
  0
SECTION
  2
TABLES
  0
TABLE
  2
VPORT
  5
6C8
330
0
100
AcDbSymbolTable
 70
     3
  0
VPORT
  5
94A
330
6C8
100
AcDbSymbolTableRecord
100
AcDbViewportTableRecord
  2
*ACTIVE
 70
     0
 10
0.0
 20
0.0
 11
1.0
 21
1.0
 12
16.92778188091714
 22
12.33801275857027
 13
0.0
 23
0.0
 14
1.0
 24
1.0
 15
0.0
 25
0.0
 16
0.0
 26
0.0
 36
1.0
 17
0.0
 27
0.0
 37
0.0
 40
20.77718485944203
 41
1.647569444444444
 42
50.0
 43
0.0
 44
0.0
 50
0.0
 51
0.0
 71
     0
 72
   100
 73
     1
 74
     1
 75
     0
 76
     0
 77
     0
 78
     0
  0
ENDTAB
  0
TABLE
  2
LTYPE
  5
6C5
330
0
100
AcDbSymbolTable
 70
     2
  0
LTYPE
  5
6D3
330
6C5
100
AcDbSymbolTableRecord
100
AcDbLinetypeTableRecord
  2
BYBLOCK
 70
     0
  3

 72
    65
 73
     0
 40
0.0
  0
LTYPE
  5
6D4
330
6C5
100
AcDbSymbolTableRecord
100
AcDbLinetypeTableRecord
  2
BYLAYER
 70
     0
  3

 72
    65
 73
     0
 40
0.0
  0
LTYPE
  5
6D5
330
6C5
100
AcDbSymbolTableRecord
100
AcDbLinetypeTableRecord
  2
CONTINUOUS
 70
     0
  3
Solid line
 72
    65
 73
     0
 40
0.0
  0
LTYPE
  5
6E4
330
6C5
100
AcDbSymbolTableRecord
100
AcDbLinetypeTableRecord
  2
HIDDEN
 70
     0
  3
_ _ _ _ _ _ _ _ _ _ _ _ _ _ _ _ _ _ _ _ _ _ _
 72
    65
 73
     2
 40
0.375
 49
0.25
 74
     0
 49
-0.125
 74
     0
  0
ENDTAB
  0
TABLE
  2
LAYER
  5
6C2
330
0
100
AcDbSymbolTable
 70
     7
  0
LAYER
  5
6D0
330
6C2
100
AcDbSymbolTableRecord
100
AcDbLayerTableRecord
  2
0
 70
     0
 62
     7
  6
CONTINUOUS
  0
LAYER
  5
6E2
330
6C2
100
AcDbSymbolTableRecord
100
AcDbLayerTableRecord
  2
DAMAN
 70
     0
 62
     5
  6
CONTINUOUS
  0
LAYER
  5
6E5
330
6C2
100
AcDbSymbolTableRecord
100
AcDbLayerTableRecord
  2
AISO
 70
     1
 62
     5
  6
CONTINUOUS
  0
LAYER
  5
6E6
330
6C2
100
AcDbSymbolTableRecord
100
AcDbLayerTableRecord
  2
APIPE
 70
     1
 62
     5
  6
CONTINUOUS
  0
LAYER
  5
6E7
330
6C2
100
AcDbSymbolTableRecord
100
AcDbLayerTableRecord
  2
ASAE
 70
     0
 62
     5
  6
CONTINUOUS
  0
LAYER
  5
6E8
330
6C2
100
AcDbSymbolTableRecord
100
AcDbLayerTableRecord
  2
ABSPP
 70
     1
 62
     5
  6
CONTINUOUS
  0
LAYER
  5
6E9
330
6C2
100
AcDbSymbolTableRecord
100
AcDbLayerTableRecord
  2
CHIDDEN
 70
     0
 62
     3
  6
HIDDEN
  0
ENDTAB
  0
TABLE
  2
STYLE
  5
6C3
330
0
100
AcDbSymbolTable
 70
     1
  0
STYLE
  5
6D1
330
6C3
100
AcDbSymbolTableRecord
100
AcDbTextStyleTableRecord
  2
STANDARD
 70
     0
 40
0.0
 41
1.0
 50
0.0
 71
     0
 42
0.2
  3
txt
  4

  0
ENDTAB
  0
TABLE
  2
VIEW
  5
6C6
330
0
100
AcDbSymbolTable
 70
     0
  0
ENDTAB
  0
TABLE
  2
UCS
  5
6C7
330
0
100
AcDbSymbolTable
 70
     0
  0
ENDTAB
  0
TABLE
  2
APPID
  5
6C9
330
0
100
AcDbSymbolTable
 70
     1
  0
APPID
  5
6D2
330
6C9
100
AcDbSymbolTableRecord
100
AcDbRegAppTableRecord
  2
ACAD
 70
     0
  0
ENDTAB
  0
TABLE
  2
DIMSTYLE
  5
6CA
330
0
100
AcDbSymbolTable
 70
     1
  0
DIMSTYLE
105
6EA
330
6CA
100
AcDbSymbolTableRecord
100
AcDbDimStyleTableRecord
  2
DAMAN
 70
     0
  3

  4

  5

  6

  7

 40
1.0
 41
0.08
 42
0.04
 43
0.18
 44
0.06
 45
0.0
 46
0.0
 47
0.0
 48
0.0
140
0.06
141
0.09
142
0.0
143
25.4
144
1.0
145
0.0
146
1.0
147
0.03
 71
     0
 72
     0
 73
     0
 74
     0
 75
     0
 76
     0
 77
     0
 78
     0
170
     1
171
     1
172
     0
173
     0
174
     0
175
     0
176
     5
177
     5
178
     5
270
     2
271
     4
272
     4
273
     2
274
     2
340
6D1
275
     0
280
     0
281
     0
282
     0
283
     1
284
     0
285
     0
286
     0
287
     5
288
     0
  0
ENDTAB
  0
TABLE
  2
BLOCK_RECORD
  5
6C1
330
0
100
AcDbSymbolTable
 70
    26
  0
BLOCK_RECORD
  5
6DE
102
{ACAD_XDICTIONARY
360
96D
102
}
330
6C1
100
AcDbSymbolTableRecord
100
AcDbBlockTableRecord
  2
*MODEL_SPACE
  0
BLOCK_RECORD
  5
6DA
102
{ACAD_XDICTIONARY
360
96B
102
}
330
6C1
100
AcDbSymbolTableRecord
100
AcDbBlockTableRecord
  2
*PAPER_SPACE
  0
BLOCK_RECORD
  5
6EC
330
6C1
100
AcDbSymbolTableRecord
100
AcDbBlockTableRecord
  2
$MODEL_SPACE
  0
BLOCK_RECORD
  5
6EF
330
6C1
100
AcDbSymbolTableRecord
100
AcDbBlockTableRecord
  2
$PAPER_SPACE
  0
BLOCK_RECORD
  5
6F2
330
6C1
100
AcDbSymbolTableRecord
100
AcDbBlockTableRecord
  2
100CROSS
  0
BLOCK_RECORD
  5
6F4
330
6C1
100
AcDbSymbolTableRecord
100
AcDbBlockTableRecord
  2
050CROSS
  0
BLOCK_RECORD
  5
6FF
330
6C1
100
AcDbSymbolTableRecord
100
AcDbBlockTableRecord
  2
100NPTFT
  0
BLOCK_RECORD
  5
706
330
6C1
100
AcDbSymbolTableRecord
100
AcDbBlockTableRecord
  2
025NPTFT
  0
BLOCK_RECORD
  5
708
330
6C1
100
AcDbSymbolTableRecord
100
AcDbBlockTableRecord
  2
250NPTFT
  0
BLOCK_RECORD
  5
714
330
6C1
100
AcDbSymbolTableRecord
100
AcDbBlockTableRecord
  2
16SAET
  0
BLOCK_RECORD
  5
71C
330
6C1
100
AcDbSymbolTableRecord
100
AcDbBlockTableRecord
  2
06SAET
  0
BLOCK_RECORD
  5
723
330
6C1
100
AcDbSymbolTableRecord
100
AcDbBlockTableRecord
  2
100BSPPT
  0
BLOCK_RECORD
  5
72B
330
6C1
100
AcDbSymbolTableRecord
100
AcDbBlockTableRecord
  2
M33T
  0
BLOCK_RECORD
  5
734
330
6C1
100
AcDbSymbolTableRecord
100
AcDbBlockTableRecord
  2
M14T
  0
BLOCK_RECORD
  5
73D
330
6C1
100
AcDbSymbolTableRecord
100
AcDbBlockTableRecord
  2
600MKT
  0
BLOCK_RECORD
  5
783
330
6C1
100
AcDbSymbolTableRecord
100
AcDbBlockTableRecord
  2
08SAET
  0
BLOCK_RECORD
  5
78B
330
6C1
100
AcDbSymbolTableRecord
100
AcDbBlockTableRecord
  2
600MKST
  0
BLOCK_RECORD
  5
7B8
330
6C1
100
AcDbSymbolTableRecord
100
AcDbBlockTableRecord
  2
125NPTFT
  0
BLOCK_RECORD
  5
7BF
330
6C1
100
AcDbSymbolTableRecord
100
AcDbBlockTableRecord
  2
050NPTFT
  0
BLOCK_RECORD
  5
7C1
330
6C1
100
AcDbSymbolTableRecord
100
AcDbBlockTableRecord
  2
500NPTFT
  0
BLOCK_RECORD
  5
7CA
330
6C1
100
AcDbSymbolTableRecord
100
AcDbBlockTableRecord
  2
20SAET
  0
BLOCK_RECORD
  5
7D1
330
6C1
100
AcDbSymbolTableRecord
100
AcDbBlockTableRecord
  2
125BSPPT
  0
BLOCK_RECORD
  5
7D9
330
6C1
100
AcDbSymbolTableRecord
100
AcDbBlockTableRecord
  2
0500BSPPT
  0
BLOCK_RECORD
  5
7E1
330
6C1
100
AcDbSymbolTableRecord
100
AcDbBlockTableRecord
  2
M42T
  0
BLOCK_RECORD
  5
7EB
330
6C1
100
AcDbSymbolTableRecord
100
AcDbBlockTableRecord
  2
M10T
  0
BLOCK_RECORD
  5
7F4
330
6C1
100
AcDbSymbolTableRecord
100
AcDbBlockTableRecord
  2
04SAET
  0
BLOCK_RECORD
  5
7FC
330
6C1
100
AcDbSymbolTableRecord
100
AcDbBlockTableRecord
  2
025BSPPT
  0
BLOCK_RECORD
  5
803
330
6C1
100
AcDbSymbolTableRecord
100
AcDbBlockTableRecord
  2
C162T
  0
ENDTAB
  0
ENDSEC
  0
SECTION
  2
BLOCKS
  0
BLOCK
  5
6DF
330
6DE
100
AcDbEntity
  8
0
100
AcDbBlockBegin
  2
*MODEL_SPACE
 70
     0
 10
0.0
 20
0.0
 30
0.0
  3
*MODEL_SPACE
  1

  0
ENDBLK
  5
6E0
330
6DE
100
AcDbEntity
  8
0
100
AcDbBlockEnd
  0
BLOCK
  5
6DB
330
6DA
100
AcDbEntity
 67
     1
  8
0
100
AcDbBlockBegin
  2
*PAPER_SPACE
 70
     0
 10
0.0
 20
0.0
 30
0.0
  3
*PAPER_SPACE
  1

  0
ENDBLK
  5
6DC
330
6DA
100
AcDbEntity
 67
     1
  8
0
100
AcDbBlockEnd
  0
BLOCK
  5
6ED
330
6EC
100
AcDbEntity
  8
0
100
AcDbBlockBegin
  2
$MODEL_SPACE
 70
     0
 10
0.0
 20
0.0
 30
0.0
  3
$MODEL_SPACE
  1

  0
ENDBLK
  5
6EE
330
6EC
100
AcDbEntity
  8
0
100
AcDbBlockEnd
  0
BLOCK
  5
6F0
330
6EF
100
AcDbEntity
  8
0
100
AcDbBlockBegin
  2
$PAPER_SPACE
 70
     0
 10
0.0
 20
0.0
 30
0.0
  3
$PAPER_SPACE
  1

  0
ENDBLK
  5
6F1
330
6EF
100
AcDbEntity
  8
0
100
AcDbBlockEnd
  0
BLOCK
  5
6F3
330
6F2
100
AcDbEntity
  8
0
100
AcDbBlockBegin
  2
100CROSS
 70
     0
 10
5.62500000000004
 20
4.593750000000039
 30
0.0
  3
100CROSS
  1

  0
INSERT
  5
6F5
330
6F2
100
AcDbEntity
  8
0
100
AcDbBlockReference
  2
050CROSS
 10
5.62500000000004
 20
4.593750000000039
 30
0.0
  0
ENDBLK
  5
6F6
330
6F2
100
AcDbEntity
  8
0
100
AcDbBlockEnd
  0
BLOCK
  5
6F7
330
6F4
100
AcDbEntity
  8
0
100
AcDbBlockBegin
  2
050CROSS
 70
     0
 10
5.000000000000039
 20
5.000000000000039
 30
0.0
  3
050CROSS
  1

  0
LINE
  5
6F8
330
6F4
100
AcDbEntity
  8
0
100
AcDbLine
 10
5.000000000000039
 20
5.281250000000039
 30
0.0
 11
5.000000000000079
 21
5.78125000000004
 31
0.0
  0
LINE
  5
6F9
330
6F4
100
AcDbEntity
  8
0
100
AcDbLine
 10
5.000000000000039
 20
4.875000000000039
 30
0.0
 11
5.000000000000079
 21
5.125000000000039
 31
0.0
  0
LINE
  5
6FA
330
6F4
100
AcDbEntity
  8
0
100
AcDbLine
 10
5.000000000000039
 20
4.156250000000039
 30
0.0
 11
5.000000000000079
 21
4.718750000000039
 31
0.0
  0
LINE
  5
6FB
330
6F4
100
AcDbEntity
  8
0
100
AcDbLine
 10
5.250000000000039
 20
5.000000000000039
 30
0.0
 11
5.81250000000004
 21
5.000000000000079
 31
0.0
  0
LINE
  5
6FC
330
6F4
100
AcDbEntity
  8
0
100
AcDbLine
 10
4.906250000000039
 20
5.000000000000039
 30
0.0
 11
5.093750000000039
 21
5.000000000000079
 31
0.0
  0
LINE
  5
6FD
330
6F4
100
AcDbEntity
  8
0
100
AcDbLine
 10
4.187500000000039
 20
5.000000000000039
 30
0.0
 11
4.750000000000039
 21
5.000000000000079
 31
0.0
  0
ENDBLK
  5
6FE
330
6F4
100
AcDbEntity
  8
0
100
AcDbBlockEnd
  0
BLOCK
  5
700
330
6FF
100
AcDbEntity
  8
0
100
AcDbBlockBegin
  2
100NPTFT
 70
     0
 10
0.0
 20
0.0
 30
0.0
  3
100NPTFT
  1

  0
CIRCLE
  5
701
330
6FF
100
AcDbEntity
  8
DAMAN
100
AcDbCircle
 10
0.0
 20
0.0
 30
0.0
 40
0.5625
  0
CIRCLE
  5
702
330
6FF
100
AcDbEntity
  8
DAMAN
100
AcDbCircle
 10
0.0
 20
0.0
 30
0.0
 40
0.6720000000000002
  0
INSERT
  5
703
330
6FF
100
AcDbEntity
  8
DAMAN
100
AcDbBlockReference
  2
100CROSS
 10
0.0
 20
0.0
 30
0.0
 41
1.199999999999999
 42
1.199999999999999
  0
CIRCLE
  5
704
330
6FF
100
AcDbEntity
  8
DAMAN
100
AcDbCircle
 10
-0.0000000000000409
 20
-0.00000000000004
 30
0.0
 40
0.625
  0
ENDBLK
  5
705
330
6FF
100
AcDbEntity
  8
0
100
AcDbBlockEnd
  0
BLOCK
  5
707
330
706
100
AcDbEntity
  8
0
100
AcDbBlockBegin
  2
025NPTFT
 70
     0
 10
0.0
 20
0.0
 30
0.0
  3
025NPTFT
  1

  0
INSERT
  5
709
330
706
100
AcDbEntity
  8
DAMAN
100
AcDbBlockReference
  2
250NPTFT
 10
0.0
 20
0.0
 30
0.0
  0
ENDBLK
  5
70A
330
706
100
AcDbEntity
  8
0
100
AcDbBlockEnd
  0
BLOCK
  5
70B
330
708
100
AcDbEntity
  8
0
100
AcDbBlockBegin
  2
250NPTFT
 70
     0
 10
0.0
 20
0.0
 30
0.0
  3
250NPTFT
  1

  0
CIRCLE
  5
70C
330
708
100
AcDbEntity
  8
DAMAN
100
AcDbCircle
 10
0.0
 20
0.0
 30
0.0
 40
0.273
  0
CIRCLE
  5
70D
330
708
100
AcDbEntity
  8
DAMAN
100
AcDbCircle
 10
0.0
 20
0.0
 30
0.0
 40
0.211
  0
INSERT
  5
70E
330
708
100
AcDbEntity
  8
DAMAN
100
AcDbBlockReference
  2
100CROSS
 10
0.0
 20
0.0
 30
0.0
 41
0.4220000000000001
 42
0.4220000000000001
  0
CIRCLE
  5
70F
330
708
100
AcDbEntity
  8
DAMAN
100
AcDbCircle
 10
0.0000000000000071
 20
0.000000000000008
 30
0.0
 40
0.2422508395811249
  0
POINT
  5
710
330
708
100
AcDbEntity
  8
CHIDDEN
100
AcDbPoint
 10
-0.0879283445109387
 20
0.1918061683876866
 30
0.0
  0
POINT
  5
711
330
708
100
AcDbEntity
  8
CHIDDEN
100
AcDbPoint
 10
-0.137716646744698
 20
-0.1598597047707644
 30
0.0
  0
POINT
  5
712
330
708
100
AcDbEntity
  8
CHIDDEN
100
AcDbPoint
 10
0.2027074607181341
 20
-0.0585720528000025
 30
0.0
  0
ENDBLK
  5
713
330
708
100
AcDbEntity
  8
0
100
AcDbBlockEnd
  0
BLOCK
  5
715
330
714
100
AcDbEntity
  8
0
100
AcDbBlockBegin
  2
16SAET
 70
     0
 10
0.0
 20
0.0
 30
0.0
  3
16SAET
  1

  0
CIRCLE
  5
716
330
714
100
AcDbEntity
  8
DAMAN
100
AcDbCircle
 10
0.0
 20
0.0
 30
0.0
 40
0.6125
  0
CIRCLE
  5
717
330
714
100
AcDbEntity
  8
DAMAN
100
AcDbCircle
 10
0.0
 20
0.0
 30
0.0
 40
0.5620000000000001
  0
CIRCLE
  5
718
330
714
100
AcDbEntity
  8
DAMAN
100
AcDbCircle
 10
0.0
 20
0.0
 30
0.0
 40
1.0
  0
INSERT
  5
719
330
714
100
AcDbEntity
  8
DAMAN
100
AcDbBlockReference
  2
100CROSS
 10
0.0
 20
0.0
 30
0.0
 41
1.6
 42
1.6
  0
CIRCLE
  5
71A
330
714
100
AcDbEntity
  8
DAMAN
100
AcDbCircle
 10
0.0
 20
0.0
 30
0.0
 40
0.65625
  0
ENDBLK
  5
71B
330
714
100
AcDbEntity
  8
0
100
AcDbBlockEnd
  0
BLOCK
  5
71D
330
71C
100
AcDbEntity
  8
0
100
AcDbBlockBegin
  2
06SAET
 70
     0
 10
0.0
 20
0.0
 30
0.0
  3
06SAET
  1

  0
INSERT
  5
71E
330
71C
100
AcDbEntity
  8
DAMAN
100
AcDbBlockReference
  2
100CROSS
 10
0.0
 20
0.0
 30
0.0
  0
CIRCLE
  5
71F
330
71C
100
AcDbEntity
  8
DAMAN
100
AcDbCircle
 10
0.0
 20
0.0
 30
0.0
 40
0.28125
  0
CIRCLE
  5
720
330
71C
100
AcDbEntity
  8
DAMAN
100
AcDbCircle
 10
0.0
 20
0.0
 30
0.0
 40
0.5
  0
CIRCLE
  5
721
330
71C
100
AcDbEntity
  8
DAMAN
100
AcDbCircle
 10
0.0
 20
0.0
 30
0.0
 40
0.25
  0
ENDBLK
  5
722
330
71C
100
AcDbEntity
  8
0
100
AcDbBlockEnd
  0
BLOCK
  5
724
330
723
100
AcDbEntity
  8
0
100
AcDbBlockBegin
  2
100BSPPT
 70
     0
 10
0.0
 20
0.0
 30
0.0
  3
100BSPPT
  1

  0
CIRCLE
  5
725
330
723
100
AcDbEntity
  8
DAMAN
  6
HIDDEN
100
AcDbCircle
 10
0.0
 20
0.0
 30
0.0
 40
0.6545
  0
CIRCLE
  5
726
330
723
100
AcDbEntity
  8
DAMAN
100
AcDbCircle
 10
0.0
 20
0.0
 30
0.0
 40
0.6125
  0
CIRCLE
  5
727
330
723
100
AcDbEntity
  8
DAMAN
100
AcDbCircle
 10
0.0
 20
0.0
 30
0.0
 40
0.915
  0
INSERT
  5
728
330
723
100
AcDbEntity
  8
DAMAN
100
AcDbBlockReference
  2
100CROSS
 10
0.0
 20
0.0
 30
0.0
 41
1.33
 42
1.33
  0
CIRCLE
  5
729
330
723
100
AcDbEntity
  8
DAMAN
100
AcDbCircle
 10
0.0000000000000266
 20
0.0000000000000266
 30
0.0
 40
0.6575
  0
ENDBLK
  5
72A
330
723
100
AcDbEntity
  8
0
100
AcDbBlockEnd
  0
BLOCK
  5
72C
330
72B
100
AcDbEntity
  8
0
100
AcDbBlockBegin
  2
M33T
 70
     0
 10
0.0
 20
0.0
 30
0.0
  3
M33T
  1

  0
CIRCLE
  5
72D
330
72B
100
AcDbEntity
  8
DAMAN
100
AcDbCircle
 10
0.0
 20
0.0
 30
0.0
 40
0.6970000000000001
  0
CIRCLE
  5
72E
330
72B
100
AcDbEntity
  8
DAMAN
  6
HIDDEN
100
AcDbCircle
 10
0.0
 20
0.0
 30
0.0
 40
0.649606
  0
CIRCLE
  5
72F
330
72B
100
AcDbEntity
  8
DAMAN
100
AcDbCircle
 10
0.0
 20
0.0
 30
0.0
 40
0.9644999999999999
  0
INSERT
  5
730
330
72B
100
AcDbEntity
  8
DAMAN
100
AcDbBlockReference
  2
100CROSS
 10
0.0
 20
0.0
 30
0.0
 41
1.33
 42
1.33
  0
CIRCLE
  5
731
330
72B
100
AcDbEntity
  8
DAMAN
100
AcDbCircle
 10
0.0000000000000266
 20
0.0000000000000266
 30
0.0
 40
0.8464999999999999
  0
CIRCLE
  5
732
330
72B
100
AcDbEntity
  8
DAMAN
100
AcDbCircle
 10
0.0
 20
0.0
 30
0.0
 40
0.614
  0
ENDBLK
  5
733
330
72B
100
AcDbEntity
  8
0
100
AcDbBlockEnd
  0
BLOCK
  5
735
330
734
100
AcDbEntity
  8
0
100
AcDbBlockBegin
  2
M14T
 70
     0
 10
0.0
 20
0.0
 30
0.0
  3
M14T
  1

  0
CIRCLE
  5
736
330
734
100
AcDbEntity
  8
DAMAN
  6
HIDDEN
100
AcDbCircle
 10
0.0
 20
0.0
 30
0.0
 40
0.2755
  0
CIRCLE
  5
737
330
734
100
AcDbEntity
  8
DAMAN
100
AcDbCircle
 10
0.0
 20
0.0
 30
0.0
 40
0.4920000000000001
  0
CIRCLE
  5
738
330
734
100
AcDbEntity
  8
DAMAN
100
AcDbCircle
 10
0.0
 20
0.0
 30
0.0
 40
0.413
  0
CIRCLE
  5
739
330
734
100
AcDbEntity
  8
DAMAN
100
AcDbCircle
 10
0.0
 20
0.0
 30
0.0
 40
0.311
  0
CIRCLE
  5
73A
330
734
100
AcDbEntity
  8
DAMAN
100
AcDbCircle
 10
0.0
 20
0.0
 30
0.0
 40
0.25
  0
INSERT
  5
73B
330
734
100
AcDbEntity
  8
DAMAN
100
AcDbBlockReference
  2
100CROSS
 10
-0.0000000000000169
 20
-0.000000000000016
 30
0.0
 41
0.8259999999999998
 42
0.8259999999999998
  0
ENDBLK
  5
73C
330
734
100
AcDbEntity
  8
0
100
AcDbBlockEnd
  0
BLOCK
  5
73E
330
73D
100
AcDbEntity
  8
0
100
AcDbBlockBegin
  2
600MKT
 70
     0
 10
0.0
 20
0.0
 30
0.0
  3
600MKT
  1

  0
LINE
  5
73F
330
73D
100
AcDbEntity
  8
DAMAN
100
AcDbLine
 10
-0.5625
 20
6.0
 30
0.0
 11
1.0625
 21
6.0
 31
0.0
  0
LINE
  5
740
330
73D
100
AcDbEntity
  8
DAMAN
100
AcDbLine
 10
1.0625
 20
6.0
 30
0.0
 11
1.0625
 21
0.0
 31
0.0
  0
LINE
  5
741
330
73D
100
AcDbEntity
  8
DAMAN
100
AcDbLine
 10
1.0625
 20
0.0
 30
0.0
 11
-0.5625
 21
0.0
 31
0.0
  0
LINE
  5
742
330
73D
100
AcDbEntity
  8
DAMAN
100
AcDbLine
 10
-0.5625
 20
0.0
 30
0.0
 11
-0.5625
 21
6.0
 31
0.0
  0
LINE
  5
743
330
73D
100
AcDbEntity
  8
DAMAN
100
AcDbLine
 10
-0.375
 20
0.0
 30
0.0
 11
-0.375
 21
6.0
 31
0.0
  0
LINE
  5
744
330
73D
100
AcDbEntity
  8
DAMAN
100
AcDbLine
 10
-0.375
 20
1.09375
 30
0.0
 11
-0.3125
 21
1.09375
 31
0.0
  0
LINE
  5
745
330
73D
100
AcDbEntity
  8
DAMAN
100
AcDbLine
 10
-0.3125
 20
1.09375
 30
0.0
 11
-0.3125
 21
0.03125
 31
0.0
  0
LINE
  5
746
330
73D
100
AcDbEntity
  8
DAMAN
100
AcDbLine
 10
-0.3125
 20
0.03125
 30
0.0
 11
-0.375
 21
0.03125
 31
0.0
  0
LINE
  5
747
330
73D
100
AcDbEntity
  8
DAMAN
100
AcDbLine
 10
-0.3125
 20
0.9955127018922189
 30
0.0
 11
-0.0428346394726904
 21
0.9955127018922189
 31
0.0
  0
LINE
  5
748
330
73D
100
AcDbEntity
  8
DAMAN
100
AcDbLine
 10
-0.0000000000000004
 20
0.921320930001624
 30
0.0
 11
0.0000000000000004
 21
0.2036790699983779
 31
0.0
  0
LINE
  5
749
330
73D
100
AcDbEntity
  8
DAMAN
100
AcDbLine
 10
-0.0428346394726904
 20
0.1294872981077813
 30
0.0
 11
-0.3125
 21
0.1294872981077813
 31
0.0
  0
LINE
  5
74A
330
73D
100
AcDbEntity
  8
DAMAN
100
AcDbLine
 10
-0.3125
 20
0.7790063509461103
 30
0.0
 11
-0.0625000000000462
 21
0.7790063509461103
 31
0.0
  0
LINE
  5
74B
330
73D
100
AcDbEntity
  8
DAMAN
100
AcDbLine
 10
-0.3125
 20
0.3459936490538915
 30
0.0
 11
-0.0624999999999894
 21
0.3459936490538915
 31
0.0
  0
ARC
  5
74C
330
73D
100
AcDbEntity
  8
DAMAN
100
AcDbCircle
 10
-0.4062499999999966
 20
0.5625000000000018
 30
0.0
 40
0.4062499999999964
100
AcDbArc
 50
327.7957724960277
 51
32.20422750397212
  0
ARC
  5
74D
330
73D
100
AcDbEntity
  8
DAMAN
100
AcDbCircle
 10
-0.1250000000000004
 20
0.2377404735808355
 30
0.0
 40
0.1250000000000008
100
AcDbArc
 50
300.0000000000003
 51
60.00000000000041
  0
ARC
  5
74E
330
73D
100
AcDbEntity
  8
DAMAN
100
AcDbCircle
 10
-0.1250000000000004
 20
0.8872595264191645
 30
0.0
 40
0.1250000000000008
100
AcDbArc
 50
299.9999999999996
 51
59.99999999999973
  0
LINE
  5
74F
330
73D
100
AcDbEntity
  8
DAMAN
100
AcDbLine
 10
-0.0428346394726904
 20
0.9955127018922189
 30
0.0
 11
-0.0000000000000004
 21
0.921320930001624
 31
0.0
  0
LINE
  5
750
330
73D
100
AcDbEntity
  8
DAMAN
100
AcDbLine
 10
-0.0428346394726904
 20
0.1294872981077813
 30
0.0
 11
0.0000000000000004
 21
0.2036790699983779
 31
0.0
  0
LINE
  5
751
330
73D
100
AcDbEntity
  8
DAMAN
100
AcDbLine
 10
-0.5625
 20
0.8125
 30
0.0
 11
-1.28125
 21
0.8125
 31
0.0
  0
LINE
  5
752
330
73D
100
AcDbEntity
  8
DAMAN
100
AcDbLine
 10
-1.28125
 20
0.8125
 30
0.0
 11
-1.3125
 21
0.78125
 31
0.0
  0
LINE
  5
753
330
73D
100
AcDbEntity
  8
DAMAN
100
AcDbLine
 10
-1.3125
 20
0.78125
 30
0.0
 11
-1.3125
 21
0.34375
 31
0.0
  0
LINE
  5
754
330
73D
100
AcDbEntity
  8
DAMAN
100
AcDbLine
 10
-1.3125
 20
0.34375
 30
0.0
 11
-1.28125
 21
0.3125
 31
0.0
  0
LINE
  5
755
330
73D
100
AcDbEntity
  8
DAMAN
100
AcDbLine
 10
-1.28125
 20
0.3125
 30
0.0
 11
-0.5625
 21
0.3125
 31
0.0
  0
LINE
  5
756
330
73D
100
AcDbEntity
  8
DAMAN
100
AcDbLine
 10
-0.5625
 20
0.78125
 30
0.0
 11
-1.3125
 21
0.78125
 31
0.0
  0
LINE
  5
757
330
73D
100
AcDbEntity
  8
DAMAN
100
AcDbLine
 10
-0.5625
 20
0.34375
 30
0.0
 11
-1.3125
 21
0.34375
 31
0.0
  0
LINE
  5
758
330
73D
100
AcDbEntity
  8
DAMAN
100
AcDbLine
 10
0.125
 20
0.5625
 30
0.0
 11
-1.40625
 21
0.5625
 31
0.0
  0
LINE
  5
759
330
73D
100
AcDbEntity
  8
DAMAN
100
AcDbLine
 10
0.125
 20
5.4375
 30
0.0
 11
-1.40625
 21
5.4375
 31
0.0
  0
LINE
  5
75A
330
73D
100
AcDbEntity
  8
DAMAN
100
AcDbLine
 10
-0.5625
 20
5.21875
 30
0.0
 11
-1.3125
 21
5.21875
 31
0.0
  0
LINE
  5
75B
330
73D
100
AcDbEntity
  8
DAMAN
100
AcDbLine
 10
-1.28125
 20
5.1875
 30
0.0
 11
-0.5625
 21
5.1875
 31
0.0
  0
LINE
  5
75C
330
73D
100
AcDbEntity
  8
DAMAN
100
AcDbLine
 10
-0.5625
 20
5.65625
 30
0.0
 11
-1.3125
 21
5.65625
 31
0.0
  0
LINE
  5
75D
330
73D
100
AcDbEntity
  8
DAMAN
100
AcDbLine
 10
-0.5625
 20
5.6875
 30
0.0
 11
-1.28125
 21
5.6875
 31
0.0
  0
LINE
  5
75E
330
73D
100
AcDbEntity
  8
DAMAN
100
AcDbLine
 10
-1.3125
 20
5.65625
 30
0.0
 11
-1.3125
 21
5.21875
 31
0.0
  0
LINE
  5
75F
330
73D
100
AcDbEntity
  8
DAMAN
100
AcDbLine
 10
-1.28125
 20
5.6875
 30
0.0
 11
-1.3125
 21
5.65625
 31
0.0
  0
LINE
  5
760
330
73D
100
AcDbEntity
  8
DAMAN
100
AcDbLine
 10
-1.3125
 20
5.21875
 30
0.0
 11
-1.28125
 21
5.1875
 31
0.0
  0
ARC
  5
761
330
73D
100
AcDbEntity
  8
DAMAN
100
AcDbCircle
 10
-0.4062499999999966
 20
5.4375
 30
0.0
 40
0.4062499999999964
100
AcDbArc
 50
327.7957724960277
 51
32.20422750397212
  0
LINE
  5
762
330
73D
100
AcDbEntity
  8
DAMAN
100
AcDbLine
 10
-0.3125
 20
5.96875
 30
0.0
 11
-0.3125
 21
4.90625
 31
0.0
  0
LINE
  5
763
330
73D
100
AcDbEntity
  8
DAMAN
100
AcDbLine
 10
-0.0000000000000004
 20
5.796320930001622
 30
0.0
 11
0.0000000000000004
 21
5.078679069998377
 31
0.0
  0
ARC
  5
764
330
73D
100
AcDbEntity
  8
DAMAN
100
AcDbCircle
 10
-0.1250000000000004
 20
5.762259526419163
 30
0.0
 40
0.1250000000000008
100
AcDbArc
 50
299.9999999999996
 51
59.99999999999973
  0
LINE
  5
765
330
73D
100
AcDbEntity
  8
DAMAN
100
AcDbLine
 10
-0.0428346394726904
 20
5.870512701892217
 30
0.0
 11
-0.0000000000000004
 21
5.796320930001622
 31
0.0
  0
LINE
  5
766
330
73D
100
AcDbEntity
  8
DAMAN
100
AcDbLine
 10
-0.3125
 20
5.870512701892217
 30
0.0
 11
-0.0428346394726904
 21
5.870512701892217
 31
0.0
  0
LINE
  5
767
330
73D
100
AcDbEntity
  8
DAMAN
100
AcDbLine
 10
-0.375
 20
5.96875
 30
0.0
 11
-0.3125
 21
5.96875
 31
0.0
  0
LINE
  5
768
330
73D
100
AcDbEntity
  8
DAMAN
100
AcDbLine
 10
-0.3125
 20
5.65400635094611
 30
0.0
 11
-0.0625000000000462
 21
5.65400635094611
 31
0.0
  0
ARC
  5
769
330
73D
100
AcDbEntity
  8
DAMAN
100
AcDbCircle
 10
-0.1250000000000004
 20
5.112740473580834
 30
0.0
 40
0.1250000000000008
100
AcDbArc
 50
300.0000000000003
 51
60.00000000000041
  0
LINE
  5
76A
330
73D
100
AcDbEntity
  8
DAMAN
100
AcDbLine
 10
-0.3125
 20
5.22099364905389
 30
0.0
 11
-0.0624999999999894
 21
5.22099364905389
 31
0.0
  0
LINE
  5
76B
330
73D
100
AcDbEntity
  8
DAMAN
100
AcDbLine
 10
-0.0428346394726904
 20
5.00448729810778
 30
0.0
 11
-0.3125
 21
5.00448729810778
 31
0.0
  0
LINE
  5
76C
330
73D
100
AcDbEntity
  8
DAMAN
100
AcDbLine
 10
-0.3125
 20
4.90625
 30
0.0
 11
-0.375
 21
4.90625
 31
0.0
  0
LINE
  5
76D
330
73D
100
AcDbEntity
  8
DAMAN
100
AcDbLine
 10
-0.0428346394726904
 20
5.00448729810778
 30
0.0
 11
0.0000000000000004
 21
5.078679069998377
 31
0.0
  0
CIRCLE
  5
76E
330
73D
100
AcDbEntity
  8
DAMAN
100
AcDbCircle
 10
0.5
 20
5.4375
 30
0.0
 40
0.53125
  0
CIRCLE
  5
76F
330
73D
100
AcDbEntity
  8
DAMAN
100
AcDbCircle
 10
0.5
 20
0.5625
 30
0.0
 40
0.53125
  0
LWPOLYLINE
  5
770
330
73D
100
AcDbEntity
  8
DAMAN
100
AcDbPolyline
 90
        6
 70
     1
 43
0.0
 10
0.875
 20
5.654006350946108
 10
0.5
 20
5.870512701892218
 10
0.125
 20
5.654006350946108
 10
0.125
 20
5.220993649053889
 10
0.4999999999999997
 20
5.00448729810778
 10
0.8749999999999998
 20
5.220993649053888
  0
CIRCLE
  5
778
330
73D
100
AcDbEntity
  8
DAMAN
100
AcDbCircle
 10
0.5
 20
5.4375
 30
0.0
 40
0.375
  0
CIRCLE
  5
779
330
73D
100
AcDbEntity
  8
DAMAN
100
AcDbCircle
 10
0.5
 20
0.5625
 30
0.0
 40
0.375
  0
LWPOLYLINE
  5
77A
330
73D
100
AcDbEntity
  8
DAMAN
100
AcDbPolyline
 90
        6
 70
     1
 43
0.0
 10
0.875
 20
0.7790063509461094
 10
0.5
 20
0.9955127018922196
 10
0.125
 20
0.7790063509461094
 10
0.125
 20
0.3459936490538906
 10
0.4999999999999997
 20
0.1294872981077804
 10
0.8749999999999998
 20
0.3459936490538897
  0
ENDBLK
  5
782
330
73D
100
AcDbEntity
  8
0
100
AcDbBlockEnd
  0
BLOCK
  5
784
330
783
100
AcDbEntity
  8
0
100
AcDbBlockBegin
  2
08SAET
 70
     0
 10
0.0
 20
0.0
 30
0.0
  3
08SAET
  1

  0
CIRCLE
  5
785
330
783
100
AcDbEntity
  8
DAMAN
100
AcDbCircle
 10
0.0
 20
0.0
 30
0.0
 40
0.375
  0
CIRCLE
  5
786
330
783
100
AcDbEntity
  8
DAMAN
100
AcDbCircle
 10
-0.0000000000000391
 20
-0.00000000000004
 30
0.0
 40
0.3125
  0
CIRCLE
  5
787
330
783
100
AcDbEntity
  8
DAMAN
  6
HIDDEN
100
AcDbCircle
 10
-0.0000000000000391
 20
-0.00000000000004
 30
0.0
 40
0.3439999999999999
  0
INSERT
  5
788
330
783
100
AcDbEntity
  8
DAMAN
100
AcDbBlockReference
  2
100CROSS
 10
0.0
 20
0.0
 30
0.0
 41
0.88
 42
0.88
  0
CIRCLE
  5
789
330
783
100
AcDbEntity
  8
DAMAN
100
AcDbCircle
 10
0.0
 20
0.0
 30
0.0
 40
0.594
  0
ENDBLK
  5
78A
330
783
100
AcDbEntity
  8
0
100
AcDbBlockEnd
  0
BLOCK
  5
78C
330
78B
100
AcDbEntity
  8
0
100
AcDbBlockBegin
  2
600MKST
 70
     0
 10
0.0
 20
0.0
 30
0.0
  3
600MKST
  1

  0
LINE
  5
78D
330
78B
100
AcDbEntity
  8
DAMAN
100
AcDbLine
 10
-1.625
 20
-0.5625
 30
0.0
 11
-1.625
 21
-0.375
 31
0.0
  0
LINE
  5
78E
330
78B
100
AcDbEntity
  8
DAMAN
100
AcDbLine
 10
-1.625
 20
-0.375
 30
0.0
 11
-0.4375
 21
-0.375
 31
0.0
  0
LINE
  5
78F
330
78B
100
AcDbEntity
  8
DAMAN
100
AcDbLine
 10
-0.1875
 20
-0.125
 30
0.0
 11
-0.1875
 21
1.0625
 31
0.0
  0
LINE
  5
790
330
78B
100
AcDbEntity
  8
DAMAN
100
AcDbLine
 10
-0.1875
 20
1.0625
 30
0.0
 11
0.0
 21
1.0625
 31
0.0
  0
LINE
  5
791
330
78B
100
AcDbEntity
  8
DAMAN
100
AcDbLine
 10
0.0
 20
1.0625
 30
0.0
 11
0.0
 21
-0.125
 31
0.0
  0
LINE
  5
792
330
78B
100
AcDbEntity
  8
DAMAN
100
AcDbLine
 10
-0.4375
 20
-0.5625
 30
0.0
 11
-1.625
 21
-0.5625
 31
0.0
  0
ARC
  5
793
330
78B
100
AcDbEntity
  8
DAMAN
100
AcDbCircle
 10
-0.4375
 20
-0.125
 30
0.0
 40
0.25
100
AcDbArc
 50
270.0
 51
0.0
  0
ARC
  5
794
330
78B
100
AcDbEntity
  8
DAMAN
100
AcDbCircle
 10
-0.4375
 20
-0.125
 30
0.0
 40
0.4375
100
AcDbArc
 50
270.0
 51
0.0
  0
LINE
  5
795
330
78B
100
AcDbEntity
  8
DAMAN
100
AcDbLine
 10
-1.59375
 20
-0.375
 30
0.0
 11
-1.59375
 21
-0.3125
 31
0.0
  0
LINE
  5
796
330
78B
100
AcDbEntity
  8
DAMAN
100
AcDbLine
 10
-1.59375
 20
-0.3125
 30
0.0
 11
-0.53125
 21
-0.3125
 31
0.0
  0
LINE
  5
797
330
78B
100
AcDbEntity
  8
DAMAN
100
AcDbLine
 10
-0.53125
 20
-0.3125
 30
0.0
 11
-0.53125
 21
-0.375
 31
0.0
  0
LINE
  5
798
330
78B
100
AcDbEntity
  8
DAMAN
100
AcDbLine
 10
-1.495512701892218
 20
-0.3125
 30
0.0
 11
-1.495512701892218
 21
-0.0428346394726904
 31
0.0
  0
LINE
  5
799
330
78B
100
AcDbEntity
  8
DAMAN
100
AcDbLine
 10
-1.421320930001622
 20
-0.0000000000000004
 30
0.0
 11
-0.7036790699983779
 21
0.0000000000000004
 31
0.0
  0
LINE
  5
79A
330
78B
100
AcDbEntity
  8
DAMAN
100
AcDbLine
 10
-0.6294872981077813
 20
-0.0428346394726904
 30
0.0
 11
-0.6294872981077813
 21
-0.3125
 31
0.0
  0
LINE
  5
79B
330
78B
100
AcDbEntity
  8
DAMAN
100
AcDbLine
 10
-1.27900635094611
 20
-0.3125
 30
0.0
 11
-1.27900635094611
 21
-0.0625000000000462
 31
0.0
  0
LINE
  5
79C
330
78B
100
AcDbEntity
  8
DAMAN
100
AcDbLine
 10
-0.8459936490538915
 20
-0.3125
 30
0.0
 11
-0.8459936490538915
 21
-0.0624999999999894
 31
0.0
  0
ARC
  5
79D
330
78B
100
AcDbEntity
  8
DAMAN
100
AcDbCircle
 10
-1.062500000000001
 20
-0.4062499999999966
 30
0.0
 40
0.4062499999999964
100
AcDbArc
 50
57.79577249602763
 51
122.2042275039721
  0
ARC
  5
79E
330
78B
100
AcDbEntity
  8
DAMAN
100
AcDbCircle
 10
-0.7377404735808355
 20
-0.1250000000000004
 30
0.0
 40
0.1250000000000008
100
AcDbArc
 50
30.00000000000031
 51
150.0000000000003
  0
ARC
  5
79F
330
78B
100
AcDbEntity
  8
DAMAN
100
AcDbCircle
 10
-1.387259526419164
 20
-0.1250000000000004
 30
0.0
 40
0.1250000000000008
100
AcDbArc
 50
29.9999999999996
 51
149.9999999999997
  0
LINE
  5
7A0
330
78B
100
AcDbEntity
  8
DAMAN
100
AcDbLine
 10
-1.495512701892218
 20
-0.0428346394726904
 30
0.0
 11
-1.421320930001622
 21
-0.0000000000000004
 31
0.0
  0
LINE
  5
7A1
330
78B
100
AcDbEntity
  8
DAMAN
100
AcDbLine
 10
-0.6294872981077813
 20
-0.0428346394726904
 30
0.0
 11
-0.7036790699983779
 21
0.0000000000000004
 31
0.0
  0
LINE
  5
7A2
330
78B
100
AcDbEntity
  8
DAMAN
100
AcDbLine
 10
-1.3125
 20
-0.5625
 30
0.0
 11
-1.3125
 21
-1.28125
 31
0.0
  0
LINE
  5
7A3
330
78B
100
AcDbEntity
  8
DAMAN
100
AcDbLine
 10
-1.3125
 20
-1.28125
 30
0.0
 11
-1.28125
 21
-1.3125
 31
0.0
  0
LINE
  5
7A4
330
78B
100
AcDbEntity
  8
DAMAN
100
AcDbLine
 10
-1.28125
 20
-1.3125
 30
0.0
 11
-0.84375
 21
-1.3125
 31
0.0
  0
LINE
  5
7A5
330
78B
100
AcDbEntity
  8
DAMAN
100
AcDbLine
 10
-0.84375
 20
-1.3125
 30
0.0
 11
-0.8125
 21
-1.28125
 31
0.0
  0
LINE
  5
7A6
330
78B
100
AcDbEntity
  8
DAMAN
100
AcDbLine
 10
-0.8125
 20
-1.28125
 30
0.0
 11
-0.8125
 21
-0.5625
 31
0.0
  0
LINE
  5
7A7
330
78B
100
AcDbEntity
  8
DAMAN
100
AcDbLine
 10
-1.28125
 20
-0.5625
 30
0.0
 11
-1.28125
 21
-1.3125
 31
0.0
  0
LINE
  5
7A8
330
78B
100
AcDbEntity
  8
DAMAN
100
AcDbLine
 10
-0.84375
 20
-0.5625
 30
0.0
 11
-0.84375
 21
-1.3125
 31
0.0
  0
LINE
  5
7A9
330
78B
100
AcDbEntity
  8
DAMAN
100
AcDbLine
 10
-1.0625
 20
0.125
 30
0.0
 11
-1.0625
 21
-1.40625
 31
0.0
  0
LINE
  5
7AA
330
78B
100
AcDbEntity
  8
DAMAN
100
AcDbLine
 10
-0.5196653605273092
 20
0.9330127018922189
 30
0.0
 11
-0.5625
 21
0.8588209300016222
 31
0.0
  0
LINE
  5
7AB
330
78B
100
AcDbEntity
  8
DAMAN
100
AcDbLine
 10
-0.5196653605273092
 20
0.0669872981077813
 30
0.0
 11
-0.5624999999999984
 21
0.1411790699983761
 31
0.0
  0
ARC
  5
7AC
330
78B
100
AcDbEntity
  8
DAMAN
100
AcDbCircle
 10
-0.4374999999999984
 20
0.1752404735808355
 30
0.0
 40
0.1250000000000008
100
AcDbArc
 50
119.9999999999996
 51
239.9999999999996
  0
ARC
  5
7AD
330
78B
100
AcDbEntity
  8
DAMAN
100
AcDbCircle
 10
-0.4374999999999984
 20
0.8247595264191645
 30
0.0
 40
0.1250000000000008
100
AcDbArc
 50
120.0000000000003
 51
240.0000000000004
  0
ARC
  5
7AE
330
78B
100
AcDbEntity
  8
DAMAN
100
AcDbCircle
 10
-0.1562500000000035
 20
0.4999999999999984
 30
0.0
 40
0.4062499999999964
100
AcDbArc
 50
147.7957724960276
 51
212.204227503972
  0
LINE
  5
7AF
330
78B
100
AcDbEntity
  8
DAMAN
100
AcDbLine
 10
-0.25
 20
0.7165063509461085
 30
0.0
 11
-0.5000000000000107
 21
0.7165063509461085
 31
0.0
  0
LINE
  5
7B0
330
78B
100
AcDbEntity
  8
DAMAN
100
AcDbLine
 10
-0.25
 20
0.2834936490538897
 30
0.0
 11
-0.4999999999999539
 21
0.2834936490538897
 31
0.0
  0
LINE
  5
7B1
330
78B
100
AcDbEntity
  8
DAMAN
100
AcDbLine
 10
-0.5196653605273092
 20
0.9330127018922189
 30
0.0
 11
-0.25
 21
0.9330127018922189
 31
0.0
  0
LINE
  5
7B2
330
78B
100
AcDbEntity
  8
DAMAN
100
AcDbLine
 10
-0.5624999999999984
 20
0.1411790699983761
 30
0.0
 11
-0.5625
 21
0.8588209300016222
 31
0.0
  0
LINE
  5
7B3
330
78B
100
AcDbEntity
  8
DAMAN
100
AcDbLine
 10
-0.25
 20
0.0669872981077813
 30
0.0
 11
-0.5196653605273092
 21
0.0669872981077813
 31
0.0
  0
LINE
  5
7B4
330
78B
100
AcDbEntity
  8
DAMAN
100
AcDbLine
 10
-0.25
 20
1.03125
 30
0.0
 11
-0.1875
 21
1.03125
 31
0.0
  0
LINE
  5
7B5
330
78B
100
AcDbEntity
  8
DAMAN
100
AcDbLine
 10
-0.25
 20
-0.03125
 30
0.0
 11
-0.25
 21
1.03125
 31
0.0
  0
LINE
  5
7B6
330
78B
100
AcDbEntity
  8
DAMAN
100
AcDbLine
 10
-0.1875
 20
-0.03125
 30
0.0
 11
-0.25
 21
-0.03125
 31
0.0
  0
ENDBLK
  5
7B7
330
78B
100
AcDbEntity
  8
0
100
AcDbBlockEnd
  0
BLOCK
  5
7B9
330
7B8
100
AcDbEntity
  8
0
100
AcDbBlockBegin
  2
125NPTFT
 70
     0
 10
0.0
 20
0.0
 30
0.0
  3
125NPTFT
  1

  0
CIRCLE
  5
7BA
330
7B8
100
AcDbEntity
  8
DAMAN
100
AcDbCircle
 10
0.00000000000004
 20
0.0000000000003997
 30
0.0
 40
0.8440000000000001
  0
CIRCLE
  5
7BB
330
7B8
100
AcDbEntity
  8
DAMAN
100
AcDbCircle
 10
0.00000000000004
 20
0.0000000000003997
 30
0.0
 40
0.7265000000000002
  0
INSERT
  5
7BC
330
7B8
100
AcDbEntity
  8
DAMAN
100
AcDbBlockReference
  2
100CROSS
 10
0.00000000000004
 20
0.0000000000003997
 30
0.0
 41
1.399999999999999
 42
1.399999999999999
  0
CIRCLE
  5
7BD
330
7B8
100
AcDbEntity
  8
DAMAN
100
AcDbCircle
 10
0.0
 20
0.0
 30
0.0
 40
0.78125
  0
ENDBLK
  5
7BE
330
7B8
100
AcDbEntity
  8
0
100
AcDbBlockEnd
  0
BLOCK
  5
7C0
330
7BF
100
AcDbEntity
  8
0
100
AcDbBlockBegin
  2
050NPTFT
 70
     0
 10
0.0
 20
0.0
 30
0.0
  3
050NPTFT
  1

  0
INSERT
  5
7C2
330
7BF
100
AcDbEntity
  8
DAMAN
100
AcDbBlockReference
  2
500NPTFT
 10
0.0
 20
0.0
 30
0.0
  0
ENDBLK
  5
7C3
330
7BF
100
AcDbEntity
  8
0
100
AcDbBlockEnd
  0
BLOCK
  5
7C4
330
7C1
100
AcDbEntity
  8
0
100
AcDbBlockBegin
  2
500NPTFT
 70
     0
 10
0.0
 20
0.0
 30
0.0
  3
500NPTFT
  1

  0
INSERT
  5
7C5
330
7C1
100
AcDbEntity
  8
DAMAN
 62
     5
100
AcDbBlockReference
  2
100CROSS
 10
0.0
 20
0.0
 30
0.0
 41
0.84
 42
0.84
  0
CIRCLE
  5
7C6
330
7C1
100
AcDbEntity
  8
DAMAN
 62
     5
100
AcDbCircle
 10
-0.0000000000003979
 20
-0.0000000000000497
 30
0.0
 40
0.3846266739788397
  0
CIRCLE
  5
7C7
330
7C1
100
AcDbEntity
  8
DAMAN
 62
     5
100
AcDbCircle
 10
0.0
 20
0.0
 30
0.0
 40
0.3439999999999999
  0
CIRCLE
  5
7C8
330
7C1
100
AcDbEntity
  8
DAMAN
 62
     5
100
AcDbCircle
 10
0.0
 20
0.0
 30
0.0
 40
0.4295000000000001
  0
ENDBLK
  5
7C9
330
7C1
100
AcDbEntity
  8
0
100
AcDbBlockEnd
  0
BLOCK
  5
7CB
330
7CA
100
AcDbEntity
  8
0
100
AcDbBlockBegin
  2
20SAET
 70
     0
 10
0.0
 20
0.0
 30
0.0
  3
20SAET
  1

  0
INSERT
  5
7CC
330
7CA
100
AcDbEntity
  8
DAMAN
100
AcDbBlockReference
  2
100CROSS
 10
0.0
 20
0.0
 30
0.0
 41
1.7
 42
1.7
  0
CIRCLE
  5
7CD
330
7CA
100
AcDbEntity
  8
DAMAN
100
AcDbCircle
 10
0.0
 20
0.0
 30
0.0
 40
0.8125
  0
CIRCLE
  5
7CE
330
7CA
100
AcDbEntity
  8
DAMAN
100
AcDbCircle
 10
0.0
 20
0.0
 30
0.0
 40
1.125
  0
CIRCLE
  5
7CF
330
7CA
100
AcDbEntity
  8
DAMAN
100
AcDbCircle
 10
0.0
 20
0.0
 30
0.0
 40
0.75
  0
ENDBLK
  5
7D0
330
7CA
100
AcDbEntity
  8
0
100
AcDbBlockEnd
  0
BLOCK
  5
7D2
330
7D1
100
AcDbEntity
  8
0
100
AcDbBlockBegin
  2
125BSPPT
 70
     0
 10
0.0
 20
0.0
 30
0.0
  3
125BSPPT
  1

  0
CIRCLE
  5
7D3
330
7D1
100
AcDbEntity
  8
DAMAN
100
AcDbCircle
 10
0.0
 20
0.0
 30
0.0
 40
0.703
  0
CIRCLE
  5
7D4
330
7D1
100
AcDbEntity
  8
DAMAN
100
AcDbCircle
 10
0.0
 20
0.0
 30
0.0
 40
0.7700000000000001
  0
CIRCLE
  5
7D5
330
7D1
100
AcDbEntity
  8
DAMAN
  6
HIDDEN
100
AcDbCircle
 10
0.0
 20
0.0
 30
0.0
 40
0.825
  0
CIRCLE
  5
7D6
330
7D1
100
AcDbEntity
  8
DAMAN
100
AcDbCircle
 10
0.0
 20
0.0
 30
0.0
 40
1.125
  0
INSERT
  5
7D7
330
7D1
100
AcDbEntity
  8
DAMAN
100
AcDbBlockReference
  2
100CROSS
 10
0.0000000000000586
 20
0.0000000000005995
 30
0.0
 41
2.099999999999999
 42
2.099999999999999
  0
ENDBLK
  5
7D8
330
7D1
100
AcDbEntity
  8
0
100
AcDbBlockEnd
  0
BLOCK
  5
7DA
330
7D9
100
AcDbEntity
  8
0
100
AcDbBlockBegin
  2
0500BSPPT
 70
     0
 10
0.0
 20
0.0
 30
0.0
  3
0500BSPPT
  1

  0
CIRCLE
  5
7DB
330
7D9
100
AcDbEntity
  8
DAMAN
100
AcDbCircle
 10
-0.0000000000000391
 20
-0.0000000000000391
 30
0.0
 40
0.3795
  0
INSERT
  5
7DC
330
7D9
100
AcDbEntity
  8
DAMAN
100
AcDbBlockReference
  2
100CROSS
 10
-0.0000000000000391
 20
-0.0000000000000391
 30
0.0
 41
1.199999999999999
 42
1.199999999999999
  0
CIRCLE
  5
7DD
330
7D9
100
AcDbEntity
  8
DAMAN
100
AcDbCircle
 10
-0.0000000000000391
 20
-0.0000000000000391
 30
0.0
 40
0.605
  0
CIRCLE
  5
7DE
330
7D9
100
AcDbEntity
  8
DAMAN
  6
HIDDEN
100
AcDbCircle
 10
-0.0000000000000391
 20
-0.0000000000000391
 30
0.0
 40
0.4125
  0
CIRCLE
  5
7DF
330
7D9
100
AcDbEntity
  8
DAMAN
100
AcDbCircle
 10
-0.0000000000000142
 20
-0.000000000000016
 30
0.0
 40
0.4175
  0
ENDBLK
  5
7E0
330
7D9
100
AcDbEntity
  8
0
100
AcDbBlockEnd
  0
BLOCK
  5
7E2
330
7E1
100
AcDbEntity
  8
0
100
AcDbBlockBegin
  2
M42T
 70
     0
 10
0.0
 20
0.0
 30
0.0
  3
M42T
  1

  0
CIRCLE
  5
7E3
330
7E1
100
AcDbEntity
  8
DAMAN
100
AcDbCircle
 10
0.0
 20
0.0
 30
0.0
 40
1.179999999999999
  0
CIRCLE
  5
7E4
330
7E1
100
AcDbEntity
  8
DAMAN
100
AcDbCircle
 10
0.0
 20
0.0
 30
0.0
 40
1.023499999999998
  0
CIRCLE
  5
7E5
330
7E1
100
AcDbEntity
  8
DAMAN
100
AcDbCircle
 10
0.0
 20
0.0
 30
0.0
 40
0.8740000000000001
  0
CIRCLE
  5
7E6
330
7E1
100
AcDbEntity
  8
DAMAN
  6
HIDDEN
100
AcDbCircle
 10
0.0
 20
0.0
 30
0.0
 40
0.8265
  0
CIRCLE
  5
7E7
330
7E1
100
AcDbEntity
  8
DAMAN
100
AcDbCircle
 10
0.0
 20
0.0
 30
0.0
 40
0.7900000000000002
  0
CIRCLE
  5
7E8
330
7E1
100
AcDbEntity
  8
DAMAN
100
AcDbCircle
 10
0.0
 20
0.0
 30
0.0
 40
0.625
  0
INSERT
  5
7E9
330
7E1
100
AcDbEntity
  8
DAMAN
100
AcDbBlockReference
  2
100CROSS
 10
0.0
 20
0.0
 30
0.0
 41
1.75
 42
1.75
  0
ENDBLK
  5
7EA
330
7E1
100
AcDbEntity
  8
0
100
AcDbBlockEnd
  0
BLOCK
  5
7EC
330
7EB
100
AcDbEntity
  8
0
100
AcDbBlockBegin
  2
M10T
 70
     0
 10
0.0
 20
0.0
 30
0.0
  3
M10T
  1

  0
INSERT
  5
7ED
330
7EB
100
AcDbEntity
  8
DAMAN
100
AcDbBlockReference
  2
100CROSS
 10
0.0
 20
0.0
 30
0.0
 41
0.59
 42
0.59
 43
0.59
  0
CIRCLE
  5
7EE
330
7EB
100
AcDbEntity
  8
DAMAN
100
AcDbCircle
 10
0.0
 20
0.0
 30
0.0
 40
0.3145
  0
CIRCLE
  5
7EF
330
7EB
100
AcDbEntity
  8
DAMAN
100
AcDbCircle
 10
0.0
 20
0.0
 30
0.0
 40
0.3935
  0
CIRCLE
  5
7F0
330
7EB
100
AcDbEntity
  8
DAMAN
100
AcDbCircle
 10
0.0
 20
0.0
 30
0.0
 40
0.2185
  0
CIRCLE
  5
7F1
330
7EB
100
AcDbEntity
  8
DAMAN
  6
HIDDEN
100
AcDbCircle
 10
0.0
 20
0.0
 30
0.0
 40
0.19685
  0
CIRCLE
  5
7F2
330
7EB
100
AcDbEntity
  8
DAMAN
100
AcDbCircle
 10
0.0
 20
0.0
 30
0.0
 40
0.1775
  0
ENDBLK
  5
7F3
330
7EB
100
AcDbEntity
  8
0
100
AcDbBlockEnd
  0
BLOCK
  5
7F5
330
7F4
100
AcDbEntity
  8
0
100
AcDbBlockBegin
  2
04SAET
 70
     0
 10
0.0
 20
0.0
 30
0.0
  3
04SAET
  1

  0
CIRCLE
  5
7F6
330
7F4
100
AcDbEntity
  8
DAMAN
100
AcDbCircle
 10
0.0
 20
0.0
 30
0.0
 40
0.4375
  0
INSERT
  5
7F7
330
7F4
100
AcDbEntity
  8
DAMAN
100
AcDbBlockReference
  2
100CROSS
 10
0.0
 20
0.0
 30
0.0
 41
0.8
 42
0.8
  0
CIRCLE
  5
7F8
330
7F4
100
AcDbEntity
  8
DAMAN
  6
HIDDEN
100
AcDbCircle
 10
-0.0000000000003997
 20
-0.0000000000000409
 30
0.0
 40
0.21875
  0
CIRCLE
  5
7F9
330
7F4
100
AcDbEntity
  8
DAMAN
100
AcDbCircle
 10
0.0
 20
0.0
 30
0.0
 40
0.1875
  0
CIRCLE
  5
7FA
330
7F4
100
AcDbEntity
  8
DAMAN
100
AcDbCircle
 10
0.0
 20
0.0
 30
0.0
 40
0.2435
  0
ENDBLK
  5
7FB
330
7F4
100
AcDbEntity
  8
0
100
AcDbBlockEnd
  0
BLOCK
  5
7FD
330
7FC
100
AcDbEntity
  8
0
100
AcDbBlockBegin
  2
025BSPPT
 70
     0
 10
0.0
 20
0.0
 30
0.0
  3
025BSPPT
  1

  0
CIRCLE
  5
7FE
330
7FC
100
AcDbEntity
  8
DAMAN
100
AcDbCircle
 10
0.0
 20
0.0
 30
0.0
 40
0.425
  0
CIRCLE
  5
7FF
330
7FC
100
AcDbEntity
  8
DAMAN
100
AcDbCircle
 10
0.0
 20
0.0
 30
0.0
 40
0.225
  0
CIRCLE
  5
800
330
7FC
100
AcDbEntity
  8
DAMAN
100
AcDbCircle
 10
0.0
 20
0.0
 30
0.0
 40
0.26
  0
INSERT
  5
801
330
7FC
100
AcDbEntity
  8
DAMAN
100
AcDbBlockReference
  2
100CROSS
 10
-0.000000000000048
 20
-0.0000000000000639
 30
0.0
 41
0.7480000000000003
 42
0.7480000000000003
  0
ENDBLK
  5
802
330
7FC
100
AcDbEntity
  8
0
100
AcDbBlockEnd
  0
BLOCK
  5
804
330
803
100
AcDbEntity
  8
0
100
AcDbBlockBegin
  2
C162T
 70
     0
 10
0.0
 20
0.0
 30
0.0
  3
C162T
  1

  0
CIRCLE
  5
805
330
803
100
AcDbEntity
  8
DAMAN
100
AcDbCircle
 10
0.0
 20
0.0
 30
0.0
 40
0.375
  0
CIRCLE
  5
806
330
803
100
AcDbEntity
  8
DAMAN
100
AcDbCircle
 10
0.0
 20
0.0
 30
0.0
 40
0.5635
  0
CIRCLE
  5
807
330
803
100
AcDbEntity
  8
DAMAN
100
AcDbCircle
 10
0.0
 20
0.0
 30
0.0
 40
0.617
  0
CIRCLE
  5
808
330
803
100
AcDbEntity
  8
DAMAN
100
AcDbCircle
 10
0.0
 20
0.0
 30
0.0
 40
0.7005
  0
CIRCLE
  5
809
330
803
100
AcDbEntity
  8
DAMAN
100
AcDbCircle
 10
0.0
 20
0.0
 30
0.0
 40
0.875
  0
CIRCLE
  5
80A
330
803
100
AcDbEntity
  8
DAMAN
  6
HIDDEN
100
AcDbCircle
 10
0.0
 20
0.0
 30
0.0
 40
0.6559999999999999
  0
INSERT
  5
80B
330
803
100
AcDbEntity
  8
DAMAN
100
AcDbBlockReference
  2
100CROSS
 10
-0.0000000000000266
 20
-0.0000000000000266
 30
0.0
 41
1.32
 42
1.32
 43
1.5
  0
ENDBLK
  5
80C
330
803
100
AcDbEntity
  8
0
100
AcDbBlockEnd
  0
ENDSEC
  0
SECTION
  2
ENTITIES
  0
LINE
  5
80D
330
6DE
100
AcDbEntity
  8
DAMAN
  6
HIDDEN
100
AcDbLine
 10
4.740200456353602
 20
9.21330076943841
 30
0.0
 11
4.740200456353602
 21
15.46330076943841
 31
0.0
  0
LINE
  5
80E
330
6DE
100
AcDbEntity
  8
DAMAN
100
AcDbLine
 10
4.740200456353602
 20
15.46330076943841
 30
0.0
 11
9.490200456353603
 21
15.46330076943841
 31
0.0
  0
LINE
  5
80F
330
6DE
100
AcDbEntity
  8
DAMAN
100
AcDbLine
 10
9.490200456353603
 20
9.21330076943841
 30
0.0
 11
9.490200456353603
 21
15.46330076943841
 31
0.0
  0
LINE
  5
810
330
6DE
100
AcDbEntity
  8
DAMAN
100
AcDbLine
 10
4.740200456353602
 20
9.21330076943841
 30
0.0
 11
9.490200456353603
 21
9.21330076943841
 31
0.0
  0
LINE
  5
811
330
6DE
100
AcDbEntity
  8
DAMAN
100
AcDbLine
 10
12.1152004563536
 20
9.21330076943841
 30
0.0
 11
12.1152004563536
 21
15.46330076943841
 31
0.0
  0
LINE
  5
812
330
6DE
100
AcDbEntity
  8
DAMAN
100
AcDbLine
 10
21.7402004563536
 20
9.21330076943841
 30
0.0
 11
21.7402004563536
 21
15.46330076943841
 31
0.0
  0
LINE
  5
813
330
6DE
100
AcDbEntity
  8
DAMAN
100
AcDbLine
 10
12.1152004563536
 20
15.46330076943841
 30
0.0
 11
21.7402004563536
 21
15.46330076943841
 31
0.0
  0
LINE
  5
814
330
6DE
100
AcDbEntity
  8
DAMAN
100
AcDbLine
 10
12.1152004563536
 20
9.21330076943841
 30
0.0
 11
21.7402004563536
 21
9.21330076943841
 31
0.0
  0
INSERT
  5
815
330
6DE
100
AcDbEntity
  8
DAMAN
100
AcDbBlockReference
  2
600MKT
 10
4.742700456353603
 20
9.33830076943841
 30
0.0
  0
INSERT
  5
816
330
6DE
100
AcDbEntity
  8
DAMAN
100
AcDbBlockReference
  2
600MKST
 10
12.1152004563536
 20
3.463300769438411
 30
0.0
  0
LINE
  5
817
330
6DE
100
AcDbEntity
  8
DAMAN
100
AcDbLine
 10
12.1152004563536
 20
9.33830076943841
 30
0.0
 11
10.49020045635359
 21
9.33830076943841
 31
0.0
  0
LINE
  5
818
330
6DE
100
AcDbEntity
  8
DAMAN
100
AcDbLine
 10
10.49020045635359
 20
9.33830076943841
 30
0.0
 11
10.49020045635359
 21
15.33830076943841
 31
0.0
  0
LINE
  5
819
330
6DE
100
AcDbEntity
  8
DAMAN
100
AcDbLine
 10
10.49020045635359
 20
15.33830076943841
 30
0.0
 11
12.1152004563536
 21
15.33830076943841
 31
0.0
  0
LINE
  5
81A
330
6DE
100
AcDbEntity
  8
DAMAN
100
AcDbLine
 10
12.1152004563536
 20
15.33830076943841
 30
0.0
 11
12.1152004563536
 21
9.33830076943841
 31
0.0
  0
LINE
  5
81B
330
6DE
100
AcDbEntity
  8
DAMAN
100
AcDbLine
 10
11.9277004563536
 20
15.33830076943841
 30
0.0
 11
11.9277004563536
 21
9.33830076943841
 31
0.0
  0
LINE
  5
81C
330
6DE
100
AcDbEntity
  8
DAMAN
100
AcDbLine
 10
11.9277004563536
 20
14.24455076943841
 30
0.0
 11
11.86520045635359
 21
14.24455076943841
 31
0.0
  0
LINE
  5
81D
330
6DE
100
AcDbEntity
  8
DAMAN
100
AcDbLine
 10
11.86520045635359
 20
14.24455076943841
 30
0.0
 11
11.86520045635359
 21
15.30705076943841
 31
0.0
  0
LINE
  5
81E
330
6DE
100
AcDbEntity
  8
DAMAN
100
AcDbLine
 10
11.86520045635359
 20
15.30705076943841
 30
0.0
 11
11.9277004563536
 21
15.30705076943841
 31
0.0
  0
LINE
  5
81F
330
6DE
100
AcDbEntity
  8
DAMAN
100
AcDbLine
 10
11.86520045635359
 20
14.34278806754619
 30
0.0
 11
11.59553509582629
 21
14.34278806754619
 31
0.0
  0
LINE
  5
820
330
6DE
100
AcDbEntity
  8
DAMAN
100
AcDbLine
 10
11.55270045635359
 20
14.41697983943678
 30
0.0
 11
11.55270045635359
 21
15.13462169944002
 31
0.0
  0
LINE
  5
821
330
6DE
100
AcDbEntity
  8
DAMAN
100
AcDbLine
 10
11.59553509582629
 20
15.20881347133062
 30
0.0
 11
11.86520045635359
 21
15.20881347133062
 31
0.0
  0
LINE
  5
822
330
6DE
100
AcDbEntity
  8
DAMAN
100
AcDbLine
 10
11.86520045635359
 20
14.5592944184923
 30
0.0
 11
11.61520045635364
 21
14.5592944184923
 31
0.0
  0
LINE
  5
823
330
6DE
100
AcDbEntity
  8
DAMAN
100
AcDbLine
 10
11.86520045635359
 20
14.99230712038452
 30
0.0
 11
11.61520045635358
 21
14.99230712038452
 31
0.0
  0
ARC
  5
824
330
6DE
100
AcDbEntity
  8
DAMAN
100
AcDbCircle
 10
11.9589504563536
 20
14.77580076943841
 30
0.0
 40
0.4062499999999964
100
AcDbArc
 50
147.7957724960276
 51
212.204227503972
  0
ARC
  5
825
330
6DE
100
AcDbEntity
  8
DAMAN
100
AcDbCircle
 10
11.6777004563536
 20
15.10056029585756
 30
0.0
 40
0.1250000000000008
100
AcDbArc
 50
120.0000000000003
 51
240.0000000000004
  0
ARC
  5
826
330
6DE
100
AcDbEntity
  8
DAMAN
100
AcDbCircle
 10
11.6777004563536
 20
14.45104124301924
 30
0.0
 40
0.1250000000000008
100
AcDbArc
 50
119.9999999999996
 51
239.9999999999996
  0
LINE
  5
827
330
6DE
100
AcDbEntity
  8
DAMAN
100
AcDbLine
 10
11.59553509582629
 20
14.34278806754619
 30
0.0
 11
11.55270045635359
 21
14.41697983943678
 31
0.0
  0
LINE
  5
828
330
6DE
100
AcDbEntity
  8
DAMAN
100
AcDbLine
 10
11.59553509582629
 20
15.20881347133062
 30
0.0
 11
11.55270045635359
 21
15.13462169944002
 31
0.0
  0
ARC
  5
829
330
6DE
100
AcDbEntity
  8
DAMAN
100
AcDbCircle
 10
11.9589504563536
 20
9.90080076943841
 30
0.0
 40
0.4062499999999964
100
AcDbArc
 50
147.7957724960276
 51
212.204227503972
  0
LINE
  5
82A
330
6DE
100
AcDbEntity
  8
DAMAN
100
AcDbLine
 10
11.86520045635359
 20
9.36955076943841
 30
0.0
 11
11.86520045635359
 21
10.43205076943841
 31
0.0
  0
LINE
  5
82B
330
6DE
100
AcDbEntity
  8
DAMAN
100
AcDbLine
 10
11.55270045635359
 20
9.541979839436788
 30
0.0
 11
11.55270045635359
 21
10.25962169944003
 31
0.0
  0
ARC
  5
82C
330
6DE
100
AcDbEntity
  8
DAMAN
100
AcDbCircle
 10
11.6777004563536
 20
9.576041243019247
 30
0.0
 40
0.1250000000000008
100
AcDbArc
 50
119.9999999999996
 51
239.9999999999996
  0
LINE
  5
82D
330
6DE
100
AcDbEntity
  8
DAMAN
100
AcDbLine
 10
11.59553509582629
 20
9.467788067546191
 30
0.0
 11
11.55270045635359
 21
9.541979839436788
 31
0.0
  0
LINE
  5
82E
330
6DE
100
AcDbEntity
  8
DAMAN
100
AcDbLine
 10
11.86520045635359
 20
9.467788067546191
 30
0.0
 11
11.59553509582629
 21
9.467788067546191
 31
0.0
  0
LINE
  5
82F
330
6DE
100
AcDbEntity
  8
DAMAN
100
AcDbLine
 10
11.9277004563536
 20
9.36955076943841
 30
0.0
 11
11.86520045635359
 21
9.36955076943841
 31
0.0
  0
LINE
  5
830
330
6DE
100
AcDbEntity
  8
DAMAN
100
AcDbLine
 10
11.86520045635359
 20
9.684294418492301
 30
0.0
 11
11.61520045635364
 21
9.684294418492301
 31
0.0
  0
ARC
  5
831
330
6DE
100
AcDbEntity
  8
DAMAN
100
AcDbCircle
 10
11.6777004563536
 20
10.22556029585756
 30
0.0
 40
0.1250000000000008
100
AcDbArc
 50
120.0000000000003
 51
240.0000000000004
  0
LINE
  5
832
330
6DE
100
AcDbEntity
  8
DAMAN
100
AcDbLine
 10
11.86520045635359
 20
10.11730712038451
 30
0.0
 11
11.61520045635358
 21
10.11730712038451
 31
0.0
  0
LINE
  5
833
330
6DE
100
AcDbEntity
  8
DAMAN
100
AcDbLine
 10
11.59553509582629
 20
10.33381347133061
 30
0.0
 11
11.86520045635359
 21
10.33381347133061
 31
0.0
  0
LINE
  5
834
330
6DE
100
AcDbEntity
  8
DAMAN
100
AcDbLine
 10
11.86520045635359
 20
10.43205076943841
 30
0.0
 11
11.9277004563536
 21
10.43205076943841
 31
0.0
  0
LINE
  5
835
330
6DE
100
AcDbEntity
  8
DAMAN
100
AcDbLine
 10
11.59553509582629
 20
10.33381347133061
 30
0.0
 11
11.55270045635359
 21
10.25962169944003
 31
0.0
  0
CIRCLE
  5
836
330
6DE
100
AcDbEntity
  8
DAMAN
100
AcDbCircle
 10
11.0527004563536
 20
9.90080076943841
 30
0.0
 40
0.53125
  0
CIRCLE
  5
837
330
6DE
100
AcDbEntity
  8
DAMAN
100
AcDbCircle
 10
11.0527004563536
 20
14.77580076943841
 30
0.0
 40
0.53125
  0
LWPOLYLINE
  5
838
330
6DE
100
AcDbEntity
  8
DAMAN
100
AcDbPolyline
 90
        6
 70
     1
 43
0.0
 10
10.6777004563536
 20
9.684294418492303
 10
11.0527004563536
 20
9.467788067546191
 10
11.42770045635359
 20
9.684294418492303
 10
11.42770045635359
 20
10.11730712038451
 10
11.0527004563536
 20
10.33381347133063
 10
10.6777004563536
 20
10.11730712038451
  0
CIRCLE
  5
840
330
6DE
100
AcDbEntity
  8
DAMAN
100
AcDbCircle
 10
11.0527004563536
 20
9.90080076943841
 30
0.0
 40
0.375
  0
CIRCLE
  5
841
330
6DE
100
AcDbEntity
  8
DAMAN
100
AcDbCircle
 10
11.0527004563536
 20
14.77580076943841
 30
0.0
 40
0.375
  0
LWPOLYLINE
  5
842
330
6DE
100
AcDbEntity
  8
DAMAN
100
AcDbPolyline
 90
        6
 70
     1
 43
0.0
 10
10.6777004563536
 20
14.5592944184923
 10
11.0527004563536
 20
14.34278806754619
 10
11.42770045635359
 20
14.5592944184923
 10
11.42770045635359
 20
14.99230712038452
 10
11.0527004563536
 20
15.20881347133063
 10
10.6777004563536
 20
14.99230712038452
  0
LINE
  5
84A
330
6DE
100
AcDbEntity
  8
DAMAN
100
AcDbLine
 10
9.490200456353603
 20
9.33830076943841
 30
0.0
 11
9.490200456353603
 21
15.33830076943841
 31
0.0
  0
LINE
  5
84B
330
6DE
100
AcDbEntity
  8
DAMAN
100
AcDbLine
 10
12.1152004563536
 20
8.21330076943841
 30
0.0
 11
21.7402004563536
 21
8.21330076943841
 31
0.0
  0
LINE
  5
84C
330
6DE
100
AcDbEntity
  8
DAMAN
100
AcDbLine
 10
12.1152004563536
 20
3.463300769438411
 30
0.0
 11
21.7402004563536
 21
3.463300769438411
 31
0.0
  0
LINE
  5
84D
330
6DE
100
AcDbEntity
  8
DAMAN
100
AcDbLine
 10
12.1152004563536
 20
8.21330076943841
 30
0.0
 11
12.1152004563536
 21
3.463300769438411
 31
0.0
  0
LINE
  5
84E
330
6DE
100
AcDbEntity
  8
DAMAN
100
AcDbLine
 10
21.7402004563536
 20
8.21330076943841
 30
0.0
 11
21.7402004563536
 21
3.463300769438411
 31
0.0
  0
INSERT
  5
84F
330
6DE
100
AcDbEntity
  8
APIPE
100
AcDbBlockReference
  2
100NPTFT
 10
7.115200456353602
 20
11.4033007694384
 30
0.0
  0
INSERT
  5
850
330
6DE
100
AcDbEntity
  8
APIPE
100
AcDbBlockReference
  2
050NPTFT
 10
12.990200456354
 20
5.83830076943846
 30
0.0
  0
INSERT
  5
851
330
6DE
100
AcDbEntity
  8
ASAE
100
AcDbBlockReference
  2
16SAET
 10
7.115200456353566
 20
11.4033007694388
 30
0.0
  0
INSERT
  5
852
330
6DE
100
AcDbEntity
  8
ASAE
100
AcDbBlockReference
  2
08SAET
 10
12.99020045635396
 20
5.83830076943886
 30
0.0
  0
INSERT
  5
853
330
6DE
100
AcDbEntity
  8
ABSPP
100
AcDbBlockReference
  2
100BSPPT
 10
7.115200456353536
 20
11.40330076943878
 30
0.0
  0
INSERT
  5
854
330
6DE
100
AcDbEntity
  8
ABSPP
100
AcDbBlockReference
  2
0500BSPPT
 10
12.99020045635392
 20
5.83830076943884
 30
0.0
  0
INSERT
  5
855
330
6DE
100
AcDbEntity
  8
AISO
100
AcDbBlockReference
  2
M33T
 10
7.115200456353508
 20
11.40330076943876
 30
0.0
  0
INSERT
  5
856
330
6DE
100
AcDbEntity
  8
AISO
100
AcDbBlockReference
  2
M14T
 10
12.9902004563539
 20
5.8383007694388
 30
0.0
 41
1.094
 42
1.094
 43
1.094
  0
TEXT
  5
857
330
6DE
100
AcDbEntity
  8
DAMAN
100
AcDbText
 10
7.752188960988402
 20
10.50325789256291
 30
0.0
 40
0.2
  1
P
 50
270.0
100
AcDbText
  0
TEXT
  5
858
330
6DE
100
AcDbEntity
  8
DAMAN
100
AcDbText
 10
8.104632503115915
 20
14.99710799263195
 30
0.0
 40
0.2
  1
T
 50
270.0
100
AcDbText
  0
TEXT
  5
859
330
6DE
100
AcDbEntity
  8
DAMAN
100
AcDbText
 10
17.19966476958757
 20
5.591877060351817
 30
0.0
 40
0.2
  1
GA
100
AcDbText
  0
INSERT
  5
85A
330
6DE
100
AcDbEntity
  8
APIPE
100
AcDbBlockReference
  2
125NPTFT
 10
7.115200456353602
 20
14.1633007694384
 30
0.0
  0
INSERT
  5
85B
330
6DE
100
AcDbEntity
  8
ASAE
100
AcDbBlockReference
  2
20SAET
 10
7.115200456353566
 20
14.1633007694388
 30
0.0
  0
INSERT
  5
85C
330
6DE
100
AcDbEntity
  8
AISO
100
AcDbBlockReference
  2
M42T
 10
7.115200456353566
 20
14.1633007694388
 30
0.0
  0
INSERT
  5
85D
330
6DE
100
AcDbEntity
  8
ABSPP
100
AcDbBlockReference
  2
125BSPPT
 10
7.115200456353566
 20
14.1633007694388
 30
0.0
  0
INSERT
  5
85E
330
6DE
100
AcDbEntity
  8
ASAE
100
AcDbBlockReference
  2
16SAET
 10
26.74020045635356
 20
11.4033007694388
 30
0.0
 41
-1.0
  0
INSERT
  5
85F
330
6DE
100
AcDbEntity
  8
ABSPP
100
AcDbBlockReference
  2
125BSPPT
 10
26.74020045635356
 20
14.1633007694388
 30
0.0
 41
-1.0
  0
LINE
  5
860
330
6DE
100
AcDbEntity
  8
DAMAN
  6
HIDDEN
100
AcDbLine
 10
29.1152004563536
 20
9.21330076943841
 30
0.0
 11
29.1152004563536
 21
15.46330076943841
 31
0.0
  0
INSERT
  5
861
330
6DE
100
AcDbEntity
  8
DAMAN
100
AcDbBlockReference
  2
600MKT
 10
29.1127004563536
 20
9.33830076943841
 30
0.0
 41
-1.0
  0
LINE
  5
862
330
6DE
100
AcDbEntity
  8
DAMAN
100
AcDbLine
 10
24.3652004563536
 20
9.21330076943841
 30
0.0
 11
24.3652004563536
 21
15.46330076943841
 31
0.0
  0
LINE
  5
863
330
6DE
100
AcDbEntity
  8
DAMAN
100
AcDbLine
 10
24.3652004563536
 20
9.33830076943841
 30
0.0
 11
24.3652004563536
 21
15.33830076943841
 31
0.0
  0
LINE
  5
864
330
6DE
100
AcDbEntity
  8
DAMAN
100
AcDbLine
 10
29.1152004563536
 20
9.21330076943841
 30
0.0
 11
24.3652004563536
 21
9.21330076943841
 31
0.0
  0
INSERT
  5
865
330
6DE
100
AcDbEntity
  8
APIPE
100
AcDbBlockReference
  2
100NPTFT
 10
26.7402004563536
 20
11.4033007694384
 30
0.0
 41
-1.0
  0
INSERT
  5
866
330
6DE
100
AcDbEntity
  8
AISO
100
AcDbBlockReference
  2
M33T
 10
26.74020045635362
 20
11.40330076943876
 30
0.0
 41
-1.0
  0
INSERT
  5
867
330
6DE
100
AcDbEntity
  8
ABSPP
100
AcDbBlockReference
  2
100BSPPT
 10
26.74020045635359
 20
11.40330076943878
 30
0.0
 41
-1.0
  0
LINE
  5
868
330
6DE
100
AcDbEntity
  8
DAMAN
100
AcDbLine
 10
29.1152004563536
 20
15.46330076943841
 30
0.0
 11
24.3652004563536
 21
15.46330076943841
 31
0.0
  0
INSERT
  5
869
330
6DE
100
AcDbEntity
  8
AISO
100
AcDbBlockReference
  2
M42T
 10
26.74020045635356
 20
14.1633007694388
 30
0.0
 41
-1.0
  0
INSERT
  5
86A
330
6DE
100
AcDbEntity
  8
ASAE
100
AcDbBlockReference
  2
20SAET
 10
26.74020045635356
 20
14.1633007694388
 30
0.0
 41
-1.0
  0
INSERT
  5
86B
330
6DE
100
AcDbEntity
  8
APIPE
100
AcDbBlockReference
  2
125NPTFT
 10
26.7402004563536
 20
14.1633007694384
 30
0.0
 41
-1.0
  0
INSERT
  5
86C
330
6DE
100
AcDbEntity
  8
DAMAN
100
AcDbBlockReference
  2
600MKST
 10
21.7402004563536
 20
3.463300769438411
 30
0.0
 41
-1.0
  0
LINE
  5
86D
330
6DE
100
AcDbEntity
  8
DAMAN
100
AcDbLine
 10
21.9277004563536
 20
15.33830076943841
 30
0.0
 11
21.9277004563536
 21
9.33830076943841
 31
0.0
  0
LINE
  5
86E
330
6DE
100
AcDbEntity
  8
DAMAN
100
AcDbLine
 10
21.7402004563536
 20
9.21330076943841
 30
0.0
 11
21.7402004563536
 21
15.46330076943841
 31
0.0
  0
LINE
  5
86F
330
6DE
100
AcDbEntity
  8
DAMAN
100
AcDbLine
 10
23.3652004563536
 20
9.33830076943841
 30
0.0
 11
23.3652004563536
 21
15.33830076943841
 31
0.0
  0
LINE
  5
870
330
6DE
100
AcDbEntity
  8
DAMAN
100
AcDbLine
 10
21.7402004563536
 20
9.33830076943841
 30
0.0
 11
23.3652004563536
 21
9.33830076943841
 31
0.0
  0
CIRCLE
  5
871
330
6DE
100
AcDbEntity
  8
DAMAN
100
AcDbCircle
 10
22.8027004563536
 20
9.90080076943841
 30
0.0
 40
0.375
  0
LWPOLYLINE
  5
872
330
6DE
100
AcDbEntity
  8
DAMAN
100
AcDbPolyline
 90
        6
 70
     1
 43
0.0
 10
23.1777004563536
 20
9.684294418492303
 10
22.8027004563536
 20
9.467788067546191
 10
22.4277004563536
 20
9.684294418492303
 10
22.4277004563536
 20
10.11730712038451
 10
22.8027004563536
 20
10.33381347133063
 10
23.1777004563536
 20
10.11730712038451
  0
CIRCLE
  5
87A
330
6DE
100
AcDbEntity
  8
DAMAN
100
AcDbCircle
 10
22.8027004563536
 20
9.90080076943841
 30
0.0
 40
0.53125
  0
ARC
  5
87B
330
6DE
100
AcDbEntity
  8
DAMAN
100
AcDbCircle
 10
21.8964504563536
 20
9.90080076943841
 30
0.0
 40
0.4062499999999964
100
AcDbArc
 50
327.7957724960277
 51
32.20422750397233
  0
LINE
  5
87C
330
6DE
100
AcDbEntity
  8
DAMAN
100
AcDbLine
 10
21.9902004563536
 20
9.36955076943841
 30
0.0
 11
21.9902004563536
 21
10.43205076943841
 31
0.0
  0
LINE
  5
87D
330
6DE
100
AcDbEntity
  8
DAMAN
100
AcDbLine
 10
22.3027004563536
 20
9.541979839436788
 30
0.0
 11
22.3027004563536
 21
10.25962169944003
 31
0.0
  0
LINE
  5
87E
330
6DE
100
AcDbEntity
  8
DAMAN
100
AcDbLine
 10
22.25986581688091
 20
9.467788067546191
 30
0.0
 11
22.3027004563536
 21
9.541979839436788
 31
0.0
  0
ARC
  5
87F
330
6DE
100
AcDbEntity
  8
DAMAN
100
AcDbCircle
 10
22.1777004563536
 20
9.576041243019247
 30
0.0
 40
0.1250000000000008
100
AcDbArc
 50
300.0000000000003
 51
60.00000000000034
  0
LINE
  5
880
330
6DE
100
AcDbEntity
  8
DAMAN
100
AcDbLine
 10
21.9902004563536
 20
9.684294418492301
 30
0.0
 11
22.24020045635354
 21
9.684294418492301
 31
0.0
  0
LINE
  5
881
330
6DE
100
AcDbEntity
  8
DAMAN
100
AcDbLine
 10
21.9902004563536
 20
9.467788067546191
 30
0.0
 11
22.25986581688091
 21
9.467788067546191
 31
0.0
  0
LINE
  5
882
330
6DE
100
AcDbEntity
  8
DAMAN
100
AcDbLine
 10
21.9277004563536
 20
9.36955076943841
 30
0.0
 11
21.9902004563536
 21
9.36955076943841
 31
0.0
  0
LINE
  5
883
330
6DE
100
AcDbEntity
  8
DAMAN
100
AcDbLine
 10
22.25986581688091
 20
10.33381347133061
 30
0.0
 11
22.3027004563536
 21
10.25962169944003
 31
0.0
  0
ARC
  5
884
330
6DE
100
AcDbEntity
  8
DAMAN
100
AcDbCircle
 10
22.1777004563536
 20
10.22556029585756
 30
0.0
 40
0.1250000000000008
100
AcDbArc
 50
299.9999999999995
 51
59.9999999999997
  0
LINE
  5
885
330
6DE
100
AcDbEntity
  8
DAMAN
100
AcDbLine
 10
22.25986581688091
 20
10.33381347133061
 30
0.0
 11
21.9902004563536
 21
10.33381347133061
 31
0.0
  0
LINE
  5
886
330
6DE
100
AcDbEntity
  8
DAMAN
100
AcDbLine
 10
21.9902004563536
 20
10.11730712038451
 30
0.0
 11
22.24020045635361
 21
10.11730712038451
 31
0.0
  0
LINE
  5
887
330
6DE
100
AcDbEntity
  8
DAMAN
100
AcDbLine
 10
21.9902004563536
 20
10.43205076943841
 30
0.0
 11
21.9277004563536
 21
10.43205076943841
 31
0.0
  0
LINE
  5
888
330
6DE
100
AcDbEntity
  8
DAMAN
100
AcDbLine
 10
23.3652004563536
 20
15.33830076943841
 30
0.0
 11
21.7402004563536
 21
15.33830076943841
 31
0.0
  0
LWPOLYLINE
  5
889
330
6DE
100
AcDbEntity
  8
DAMAN
100
AcDbPolyline
 90
        6
 70
     1
 43
0.0
 10
23.1777004563536
 20
14.5592944184923
 10
22.8027004563536
 20
14.34278806754619
 10
22.4277004563536
 20
14.5592944184923
 10
22.4277004563536
 20
14.99230712038452
 10
22.8027004563536
 20
15.20881347133063
 10
23.1777004563536
 20
14.99230712038452
  0
CIRCLE
  5
891
330
6DE
100
AcDbEntity
  8
DAMAN
100
AcDbCircle
 10
22.8027004563536
 20
14.77580076943841
 30
0.0
 40
0.375
  0
CIRCLE
  5
892
330
6DE
100
AcDbEntity
  8
DAMAN
100
AcDbCircle
 10
22.8027004563536
 20
14.77580076943841
 30
0.0
 40
0.53125
  0
ARC
  5
893
330
6DE
100
AcDbEntity
  8
DAMAN
100
AcDbCircle
 10
22.1777004563536
 20
15.10056029585756
 30
0.0
 40
0.1250000000000008
100
AcDbArc
 50
299.9999999999995
 51
59.9999999999997
  0
LINE
  5
894
330
6DE
100
AcDbEntity
  8
DAMAN
100
AcDbLine
 10
21.9902004563536
 20
14.24455076943841
 30
0.0
 11
21.9902004563536
 21
15.30705076943841
 31
0.0
  0
LINE
  5
895
330
6DE
100
AcDbEntity
  8
DAMAN
100
AcDbLine
 10
22.3027004563536
 20
14.41697983943678
 30
0.0
 11
22.3027004563536
 21
15.13462169944002
 31
0.0
  0
LINE
  5
896
330
6DE
100
AcDbEntity
  8
DAMAN
100
AcDbLine
 10
22.25986581688091
 20
14.34278806754619
 30
0.0
 11
22.3027004563536
 21
14.41697983943678
 31
0.0
  0
ARC
  5
897
330
6DE
100
AcDbEntity
  8
DAMAN
100
AcDbCircle
 10
22.1777004563536
 20
14.45104124301924
 30
0.0
 40
0.1250000000000008
100
AcDbArc
 50
300.0000000000003
 51
60.00000000000034
  0
ARC
  5
898
330
6DE
100
AcDbEntity
  8
DAMAN
100
AcDbCircle
 10
21.8964504563536
 20
14.77580076943841
 30
0.0
 40
0.4062499999999964
100
AcDbArc
 50
327.7957724960277
 51
32.20422750397233
  0
LINE
  5
899
330
6DE
100
AcDbEntity
  8
DAMAN
100
AcDbLine
 10
21.9902004563536
 20
14.99230712038452
 30
0.0
 11
22.24020045635361
 21
14.99230712038452
 31
0.0
  0
LINE
  5
89A
330
6DE
100
AcDbEntity
  8
DAMAN
100
AcDbLine
 10
21.9902004563536
 20
14.5592944184923
 30
0.0
 11
22.24020045635354
 21
14.5592944184923
 31
0.0
  0
LINE
  5
89B
330
6DE
100
AcDbEntity
  8
DAMAN
100
AcDbLine
 10
21.9902004563536
 20
14.34278806754619
 30
0.0
 11
22.25986581688091
 21
14.34278806754619
 31
0.0
  0
LINE
  5
89C
330
6DE
100
AcDbEntity
  8
DAMAN
100
AcDbLine
 10
21.9277004563536
 20
14.24455076943841
 30
0.0
 11
21.9902004563536
 21
14.24455076943841
 31
0.0
  0
LINE
  5
89D
330
6DE
100
AcDbEntity
  8
DAMAN
100
AcDbLine
 10
22.25986581688091
 20
15.20881347133062
 30
0.0
 11
22.3027004563536
 21
15.13462169944002
 31
0.0
  0
LINE
  5
89E
330
6DE
100
AcDbEntity
  8
DAMAN
100
AcDbLine
 10
22.25986581688091
 20
15.20881347133062
 30
0.0
 11
21.9902004563536
 21
15.20881347133062
 31
0.0
  0
LINE
  5
89F
330
6DE
100
AcDbEntity
  8
DAMAN
100
AcDbLine
 10
21.9902004563536
 20
15.30705076943841
 30
0.0
 11
21.9277004563536
 21
15.30705076943841
 31
0.0
  0
INSERT
  5
8A0
330
6DE
100
AcDbEntity
  8
ABSPP
100
AcDbBlockReference
  2
0500BSPPT
 10
14.80270045635394
 20
4.523300769438839
 30
0.0
  0
INSERT
  5
8A1
330
6DE
100
AcDbEntity
  8
AISO
100
AcDbBlockReference
  2
M14T
 10
14.8027004563539
 20
4.523300769438801
 30
0.0
 41
1.094
 42
1.094
 43
1.094
  0
INSERT
  5
8A2
330
6DE
100
AcDbEntity
  8
APIPE
100
AcDbBlockReference
  2
050NPTFT
 10
14.802700456354
 20
4.523300769438462
 30
0.0
  0
INSERT
  5
8A3
330
6DE
100
AcDbEntity
  8
ABSPP
100
AcDbBlockReference
  2
0500BSPPT
 10
14.8027004563536
 20
7.150800769438849
 30
0.0
  0
INSERT
  5
8A4
330
6DE
100
AcDbEntity
  8
APIPE
100
AcDbBlockReference
  2
050NPTFT
 10
14.80270045635366
 20
7.150800769438472
 30
0.0
  0
INSERT
  5
8A5
330
6DE
100
AcDbEntity
  8
AISO
100
AcDbBlockReference
  2
M14T
 10
14.80270045635355
 20
7.15080076943881
 30
0.0
 41
1.094
 42
1.094
 43
1.094
  0
TEXT
  5
8A6
330
6DE
100
AcDbEntity
  8
DAMAN
100
AcDbText
 10
15.76431030505899
 20
5.165966585222655
 30
0.0
 40
0.2
  1
A
100
AcDbText
  0
TEXT
  5
8A7
330
6DE
100
AcDbEntity
  8
DAMAN
100
AcDbText
 10
15.76431039261733
 20
7.796597282002364
 30
0.0
 40
0.2
  1
B
100
AcDbText
  0
TEXT
  5
8A8
330
6DE
100
AcDbEntity
  8
DAMAN
100
AcDbText
 10
25.90232086834427
 20
10.60677022780784
 30
0.0
 40
0.2
  1
P
 50
90.0
100
AcDbText
  0
TEXT
  5
8A9
330
6DE
100
AcDbEntity
  8
DAMAN
100
AcDbText
 10
25.89895644013553
 20
15.13037016330478
 30
0.0
 40
0.2
  1
T
 50
90.0
100
AcDbText
  0
TEXT
  5
8AA
330
6DE
100
AcDbEntity
  8
DAMAN
100
AcDbText
 10
14.34701124792312
 20
5.737424328630324
 30
0.0
 40
0.2
  1
DAMAN ****
100
AcDbText
  0
INSERT
  5
8AB
330
6DE
100
AcDbEntity
  8
APIPE
100
AcDbBlockReference
  2
050NPTFT
 10
18.80270045635399
 20
4.523300769438462
 30
0.0
  0
INSERT
  5
8AC
330
6DE
100
AcDbEntity
  8
AISO
100
AcDbBlockReference
  2
M14T
 10
18.80270045635389
 20
4.523300769438801
 30
0.0
 41
1.094
 42
1.094
 43
1.094
  0
INSERT
  5
8AD
330
6DE
100
AcDbEntity
  8
ABSPP
100
AcDbBlockReference
  2
0500BSPPT
 10
18.80270045635392
 20
4.523300769438839
 30
0.0
  0
TEXT
  5
8AE
330
6DE
100
AcDbEntity
  8
DAMAN
100
AcDbText
 10
19.76431030505899
 20
5.165966585222655
 30
0.0
 40
0.2
  1
A
100
AcDbText
  0
INSERT
  5
8AF
330
6DE
100
AcDbEntity
  8
ABSPP
100
AcDbBlockReference
  2
0500BSPPT
 10
18.8027004563536
 20
7.150800769438849
 30
0.0
  0
INSERT
  5
8B0
330
6DE
100
AcDbEntity
  8
APIPE
100
AcDbBlockReference
  2
050NPTFT
 10
18.80270045635366
 20
7.150800769438472
 30
0.0
  0
INSERT
  5
8B1
330
6DE
100
AcDbEntity
  8
AISO
100
AcDbBlockReference
  2
M14T
 10
18.80270045635356
 20
7.15080076943881
 30
0.0
 41
1.094
 42
1.094
 43
1.094
  0
INSERT
  5
8B2
330
6DE
100
AcDbEntity
  8
APIPE
100
AcDbBlockReference
  2
025NPTFT
 10
16.7402004563536
 20
5.213300769438411
 30
0.0
  0
INSERT
  5
8B3
330
6DE
100
AcDbEntity
  8
ASAE
100
AcDbBlockReference
  2
06SAET
 10
16.74020045635356
 20
5.21330076943881
 30
0.0
  0
TEXT
  5
8B4
330
6DE
100
AcDbEntity
  8
DAMAN
100
AcDbText
 10
13.37061313256542
 20
6.401466741552161
 30
0.0
 40
0.2
  1
Y
100
AcDbText
  0
INSERT
  5
8B5
330
6DE
100
AcDbEntity
  8
ASAE
100
AcDbBlockReference
  2
08SAET
 10
20.86520045635356
 20
5.83830076943881
 30
0.0
  0
INSERT
  5
8B6
330
6DE
100
AcDbEntity
  8
APIPE
100
AcDbBlockReference
  2
050NPTFT
 10
20.8652004563536
 20
5.838300769438411
 30
0.0
  0
INSERT
  5
8B7
330
6DE
100
AcDbEntity
  8
AISO
100
AcDbBlockReference
  2
M14T
 10
20.86520045635349
 20
5.838300769438751
 30
0.0
 41
1.094
 42
1.094
 43
1.094
  0
TEXT
  5
8B8
330
6DE
100
AcDbEntity
  8
DAMAN
100
AcDbText
 10
21.24561313256503
 20
6.401466741552113
 30
0.0
 40
0.2
  1
Y
100
AcDbText
  0
INSERT
  5
8B9
330
6DE
100
AcDbEntity
  8
ABSPP
100
AcDbBlockReference
  2
0500BSPPT
 10
20.86520045635353
 20
5.83830076943879
 30
0.0
  0
LINE
  5
8BA
330
6DE
100
AcDbEntity
  8
DAMAN
100
AcDbLine
 10
12.1152004563536
 20
16.4633007694384
 30
0.0
 11
21.7402004563536
 21
16.4633007694384
 31
0.0
  0
LINE
  5
8BB
330
6DE
100
AcDbEntity
  8
DAMAN
100
AcDbLine
 10
12.1152004563536
 20
16.4633007694384
 30
0.0
 11
12.1152004563536
 21
21.21330076943841
 31
0.0
  0
LINE
  5
8BC
330
6DE
100
AcDbEntity
  8
DAMAN
100
AcDbLine
 10
12.1152004563536
 20
21.21330076943841
 30
0.0
 11
21.7402004563536
 21
21.21330076943841
 31
0.0
  0
INSERT
  5
8BD
330
6DE
100
AcDbEntity
  8
DAMAN
100
AcDbBlockReference
  2
600MKST
 10
12.1152004563536
 20
21.21330076943841
 30
0.0
 41
-1.0
 50
180.0
  0
INSERT
  5
8BE
330
6DE
100
AcDbEntity
  8
DAMAN
100
AcDbBlockReference
  2
600MKST
 10
21.7402004563536
 20
21.21330076943841
 30
0.0
 50
180.0
  0
LINE
  5
8BF
330
6DE
100
AcDbEntity
  8
DAMAN
100
AcDbLine
 10
21.7402004563536
 20
16.4633007694384
 30
0.0
 11
21.7402004563536
 21
21.21330076943841
 31
0.0
  0
CIRCLE
  5
8C0
330
6DE
100
AcDbEntity
  8
DAMAN
100
AcDbCircle
 10
15.74020045635358
 20
13.33730076943841
 30
0.0
 40
0.3439999999999999
  0
CIRCLE
  5
8C1
330
6DE
100
AcDbEntity
  8
DAMAN
100
AcDbCircle
 10
15.74020045635358
 20
12.08830076943841
 30
0.0
 40
0.3439999999999999
  0
INSERT
  5
8C2
330
6DE
100
AcDbEntity
  8
DAMAN
100
AcDbBlockReference
  2
100CROSS
 10
15.74020045635358
 20
13.33730076943841
 30
0.0
 41
0.5625
 42
0.5625
  0
INSERT
  5
8C3
330
6DE
100
AcDbEntity
  8
DAMAN
100
AcDbBlockReference
  2
100CROSS
 10
15.74020045635358
 20
12.08830076943841
 30
0.0
 41
0.5625
 42
0.5625
  0
INSERT
  5
8C4
330
6DE
100
AcDbEntity
  8
DAMAN
100
AcDbBlockReference
  2
100CROSS
 10
13.48970045635359
 20
12.08730076943841
 30
0.0
 41
0.25
 42
0.25
  0
CIRCLE
  5
8C5
330
6DE
100
AcDbEntity
  8
DAMAN
100
AcDbCircle
 10
13.48920045635359
 20
12.08755076943841
 30
0.0
 40
0.125
  0
CIRCLE
  5
8C6
330
6DE
100
AcDbEntity
  8
DAMAN
100
AcDbCircle
 10
13.48970045635359
 20
12.08730076943841
 30
0.0
 40
0.1055
  0
CIRCLE
  5
8C7
330
6DE
100
AcDbEntity
  8
DAMAN
100
AcDbCircle
 10
14.11420045635359
 20
11.46230076943841
 30
0.0
 40
0.3439999999999999
  0
INSERT
  5
8C8
330
6DE
100
AcDbEntity
  8
DAMAN
100
AcDbBlockReference
  2
100CROSS
 10
14.11420045635359
 20
11.46230076943841
 30
0.0
 41
0.5625
 42
0.5625
  0
CIRCLE
  5
8C9
330
6DE
100
AcDbEntity
  8
DAMAN
100
AcDbCircle
 10
14.05220045635359
 20
10.58830076943841
 30
0.0
 40
0.125
  0
INSERT
  5
8CA
330
6DE
100
AcDbEntity
  8
DAMAN
100
AcDbBlockReference
  2
100CROSS
 10
14.05220045635359
 20
10.58830076943841
 30
0.0
 41
0.375
 42
0.375
  0
TEXT
  5
8CB
330
6DE
100
AcDbEntity
  8
DAMAN
100
AcDbText
 10
14.17720045635359
 20
10.77505076943841
 30
0.0
 40
0.12
  1
Y
100
AcDbText
  0
TEXT
  5
8CC
330
6DE
100
AcDbEntity
  8
DAMAN
100
AcDbText
 10
14.42720045635359
 20
11.86880076943841
 30
0.0
 40
0.12
  1
B
100
AcDbText
  0
CIRCLE
  5
8CD
330
6DE
100
AcDbEntity
  8
DAMAN
100
AcDbCircle
 10
13.55220045635359
 20
13.33730076943841
 30
0.0
 40
0.0845
  0
CIRCLE
  5
8CE
330
6DE
100
AcDbEntity
  8
DAMAN
100
AcDbCircle
 10
13.55220045635359
 20
14.05630076943841
 30
0.0
 40
0.1875
  0
CIRCLE
  5
8CF
330
6DE
100
AcDbEntity
  8
DAMAN
100
AcDbCircle
 10
13.55220045635359
 20
14.05630076943841
 30
0.0
 40
0.15625
  0
INSERT
  5
8D0
330
6DE
100
AcDbEntity
  8
DAMAN
100
AcDbBlockReference
  2
100CROSS
 10
13.55220045635359
 20
14.05630076943841
 30
0.0
 41
0.375
 42
0.375
  0
INSERT
  5
8D1
330
6DE
100
AcDbEntity
  8
DAMAN
100
AcDbBlockReference
  2
100CROSS
 10
13.55220045635359
 20
13.33730076943841
 30
0.0
 41
0.25
 42
0.25
  0
CIRCLE
  5
8D2
330
6DE
100
AcDbEntity
  8
DAMAN
100
AcDbCircle
 10
14.11420045635359
 20
12.71230076943841
 30
0.0
 40
0.3439999999999999
  0
INSERT
  5
8D3
330
6DE
100
AcDbEntity
  8
DAMAN
100
AcDbBlockReference
  2
100CROSS
 10
14.11420045635359
 20
12.71230076943841
 30
0.0
 41
0.5625
 42
0.5625
  0
TEXT
  5
8D4
330
6DE
100
AcDbEntity
  8
DAMAN
100
AcDbText
 10
14.39595045635359
 20
13.11880076943841
 30
0.0
 40
0.12
  1
A
100
AcDbText
  0
INSERT
  5
8D5
330
6DE
100
AcDbEntity
  8
DAMAN
100
AcDbBlockReference
  2
100CROSS
 10
16.30220045635359
 20
10.05630076943841
 30
0.0
 41
0.375
 42
0.375
  0
CIRCLE
  5
8D6
330
6DE
100
AcDbEntity
  8
DAMAN
100
AcDbCircle
 10
16.30220045635359
 20
10.05630076943841
 30
0.0
 40
0.1875
  0
CIRCLE
  5
8D7
330
6DE
100
AcDbEntity
  8
DAMAN
100
AcDbCircle
 10
16.30220045635359
 20
10.05630076943841
 30
0.0
 40
0.15625
  0
INSERT
  5
8D8
330
6DE
100
AcDbEntity
  8
DAMAN
100
AcDbBlockReference
  2
100CROSS
 10
16.30220045635359
 20
11.0413007694384
 30
0.0
 41
0.25
 42
0.25
  0
CIRCLE
  5
8D9
330
6DE
100
AcDbEntity
  8
DAMAN
100
AcDbCircle
 10
16.30220045635359
 20
11.0413007694384
 30
0.0
 40
0.0845
  0
INSERT
  5
8DA
330
6DE
100
AcDbEntity
  8
DAMAN
100
AcDbBlockReference
  2
100CROSS
 10
16.30220045635359
 20
14.05630076943841
 30
0.0
 41
0.375
 42
0.375
  0
INSERT
  5
8DB
330
6DE
100
AcDbEntity
  8
DAMAN
100
AcDbBlockReference
  2
100CROSS
 10
16.36470045635358
 20
12.71230076943841
 30
0.0
 41
0.25
 42
0.25
  0
TEXT
  5
8DC
330
6DE
100
AcDbEntity
  8
DAMAN
100
AcDbText
 10
15.95845045635359
 20
12.55630076943841
 30
0.0
 40
0.12
  1
P
100
AcDbText
  0
CIRCLE
  5
8DD
330
6DE
100
AcDbEntity
  8
DAMAN
100
AcDbCircle
 10
16.36420045635357
 20
12.71255076943841
 30
0.0
 40
0.125
  0
CIRCLE
  5
8DE
330
6DE
100
AcDbEntity
  8
DAMAN
100
AcDbCircle
 10
16.36470045635358
 20
12.71230076943841
 30
0.0
 40
0.1055
  0
TEXT
  5
8DF
330
6DE
100
AcDbEntity
  8
DAMAN
100
AcDbText
 10
15.98970045635359
 20
13.80630076943841
 30
0.0
 40
0.12
  1
T
100
AcDbText
  0
CIRCLE
  5
8E0
330
6DE
100
AcDbEntity
  8
DAMAN
100
AcDbCircle
 10
16.30220045635359
 20
14.05630076943841
 30
0.0
 40
0.1875
  0
CIRCLE
  5
8E1
330
6DE
100
AcDbEntity
  8
DAMAN
100
AcDbCircle
 10
16.30220045635359
 20
14.05630076943841
 30
0.0
 40
0.15625
  0
INSERT
  5
8E8
330
6DE
100
AcDbEntity
  8
ABSPP
100
AcDbBlockReference
  2
025BSPPT
 10
16.3027004563536
 20
6.713300769438411
 30
0.0
  0
INSERT
  5
8E9
330
6DE
100
AcDbEntity
  8
AISO
100
AcDbBlockReference
  2
M10T
 10
16.3027004563536
 20
6.713300769438411
 30
0.0
  0
CIRCLE
  5
8EA
330
6DE
100
AcDbEntity
  8
DAMAN
100
AcDbCircle
 10
19.74020045635359
 20
13.33730076943841
 30
0.0
 40
0.3439999999999999
  0
CIRCLE
  5
8EB
330
6DE
100
AcDbEntity
  8
DAMAN
100
AcDbCircle
 10
19.74020045635359
 20
12.08830076943841
 30
0.0
 40
0.3439999999999999
  0
INSERT
  5
8EC
330
6DE
100
AcDbEntity
  8
DAMAN
100
AcDbBlockReference
  2
100CROSS
 10
19.74020045635359
 20
13.33730076943841
 30
0.0
 41
0.5625
 42
0.5625
  0
INSERT
  5
8ED
330
6DE
100
AcDbEntity
  8
DAMAN
100
AcDbBlockReference
  2
100CROSS
 10
19.74020045635359
 20
12.08830076943841
 30
0.0
 41
0.5625
 42
0.5625
  0
INSERT
  5
8EE
330
6DE
100
AcDbEntity
  8
DAMAN
100
AcDbBlockReference
  2
100CROSS
 10
17.48970045635358
 20
12.08730076943841
 30
0.0
 41
0.25
 42
0.25
  0
CIRCLE
  5
8EF
330
6DE
100
AcDbEntity
  8
DAMAN
100
AcDbCircle
 10
17.55220045635359
 20
10.05630076943841
 30
0.0
 40
0.1875
  0
CIRCLE
  5
8F0
330
6DE
100
AcDbEntity
  8
DAMAN
100
AcDbCircle
 10
17.55220045635359
 20
10.05630076943841
 30
0.0
 40
0.15625
  0
INSERT
  5
8F1
330
6DE
100
AcDbEntity
  8
DAMAN
100
AcDbBlockReference
  2
100CROSS
 10
17.55220045635359
 20
10.05630076943841
 30
0.0
 41
0.375
 42
0.375
  0
CIRCLE
  5
8F2
330
6DE
100
AcDbEntity
  8
DAMAN
100
AcDbCircle
 10
17.48920045635359
 20
12.08755076943841
 30
0.0
 40
0.125
  0
CIRCLE
  5
8F3
330
6DE
100
AcDbEntity
  8
DAMAN
100
AcDbCircle
 10
17.48970045635358
 20
12.08730076943841
 30
0.0
 40
0.1055
  0
CIRCLE
  5
8F4
330
6DE
100
AcDbEntity
  8
DAMAN
100
AcDbCircle
 10
18.11420045635357
 20
11.46230076943841
 30
0.0
 40
0.3439999999999999
  0
INSERT
  5
8F5
330
6DE
100
AcDbEntity
  8
DAMAN
100
AcDbBlockReference
  2
100CROSS
 10
18.11420045635357
 20
11.46230076943841
 30
0.0
 41
0.5625
 42
0.5625
  0
CIRCLE
  5
8F6
330
6DE
100
AcDbEntity
  8
DAMAN
100
AcDbCircle
 10
18.05220045635358
 20
10.58830076943841
 30
0.0
 40
0.125
  0
INSERT
  5
8F7
330
6DE
100
AcDbEntity
  8
DAMAN
100
AcDbBlockReference
  2
100CROSS
 10
18.05220045635358
 20
10.58830076943841
 30
0.0
 41
0.375
 42
0.375
  0
TEXT
  5
8F8
330
6DE
100
AcDbEntity
  8
DAMAN
100
AcDbText
 10
18.17720045635358
 20
10.77505076943841
 30
0.0
 40
0.12
  1
Y
100
AcDbText
  0
TEXT
  5
8F9
330
6DE
100
AcDbEntity
  8
DAMAN
100
AcDbText
 10
18.42720045635358
 20
11.86880076943841
 30
0.0
 40
0.12
  1
B
100
AcDbText
  0
CIRCLE
  5
8FA
330
6DE
100
AcDbEntity
  8
DAMAN
100
AcDbCircle
 10
17.55220045635359
 20
13.33730076943841
 30
0.0
 40
0.0845
  0
CIRCLE
  5
8FB
330
6DE
100
AcDbEntity
  8
DAMAN
100
AcDbCircle
 10
17.55220045635359
 20
14.05630076943841
 30
0.0
 40
0.1875
  0
CIRCLE
  5
8FC
330
6DE
100
AcDbEntity
  8
DAMAN
100
AcDbCircle
 10
17.55220045635359
 20
14.05630076943841
 30
0.0
 40
0.15625
  0
INSERT
  5
8FD
330
6DE
100
AcDbEntity
  8
DAMAN
100
AcDbBlockReference
  2
100CROSS
 10
17.55220045635359
 20
14.05630076943841
 30
0.0
 41
0.375
 42
0.375
  0
INSERT
  5
8FE
330
6DE
100
AcDbEntity
  8
DAMAN
100
AcDbBlockReference
  2
100CROSS
 10
17.55220045635359
 20
13.33730076943841
 30
0.0
 41
0.25
 42
0.25
  0
CIRCLE
  5
8FF
330
6DE
100
AcDbEntity
  8
DAMAN
100
AcDbCircle
 10
18.11420045635357
 20
12.71230076943841
 30
0.0
 40
0.3439999999999999
  0
INSERT
  5
900
330
6DE
100
AcDbEntity
  8
DAMAN
100
AcDbBlockReference
  2
100CROSS
 10
18.11420045635357
 20
12.71230076943841
 30
0.0
 41
0.5625
 42
0.5625
  0
TEXT
  5
901
330
6DE
100
AcDbEntity
  8
DAMAN
100
AcDbText
 10
18.39595045635358
 20
13.11880076943841
 30
0.0
 40
0.12
  1
A
100
AcDbText
  0
INSERT
  5
902
330
6DE
100
AcDbEntity
  8
DAMAN
100
AcDbBlockReference
  2
100CROSS
 10
20.30220045635358
 20
10.05630076943841
 30
0.0
 41
0.375
 42
0.375
  0
CIRCLE
  5
903
330
6DE
100
AcDbEntity
  8
DAMAN
100
AcDbCircle
 10
20.30220045635358
 20
10.05630076943841
 30
0.0
 40
0.1875
  0
CIRCLE
  5
904
330
6DE
100
AcDbEntity
  8
DAMAN
100
AcDbCircle
 10
20.30220045635358
 20
10.05630076943841
 30
0.0
 40
0.15625
  0
INSERT
  5
905
330
6DE
100
AcDbEntity
  8
DAMAN
100
AcDbBlockReference
  2
100CROSS
 10
20.30220045635358
 20
11.0413007694384
 30
0.0
 41
0.25
 42
0.25
  0
CIRCLE
  5
906
330
6DE
100
AcDbEntity
  8
DAMAN
100
AcDbCircle
 10
20.30220045635358
 20
11.0413007694384
 30
0.0
 40
0.0845
  0
INSERT
  5
907
330
6DE
100
AcDbEntity
  8
DAMAN
100
AcDbBlockReference
  2
100CROSS
 10
20.30220045635358
 20
14.05630076943841
 30
0.0
 41
0.375
 42
0.375
  0
INSERT
  5
908
330
6DE
100
AcDbEntity
  8
DAMAN
100
AcDbBlockReference
  2
100CROSS
 10
20.36470045635358
 20
12.71230076943841
 30
0.0
 41
0.25
 42
0.25
  0
TEXT
  5
909
330
6DE
100
AcDbEntity
  8
DAMAN
100
AcDbText
 10
19.95845045635358
 20
12.55630076943841
 30
0.0
 40
0.12
  1
P
100
AcDbText
  0
CIRCLE
  5
90A
330
6DE
100
AcDbEntity
  8
DAMAN
100
AcDbCircle
 10
20.36420045635359
 20
12.71255076943841
 30
0.0
 40
0.125
  0
CIRCLE
  5
90B
330
6DE
100
AcDbEntity
  8
DAMAN
100
AcDbCircle
 10
20.36470045635358
 20
12.71230076943841
 30
0.0
 40
0.1055
  0
TEXT
  5
90C
330
6DE
100
AcDbEntity
  8
DAMAN
100
AcDbText
 10
19.98970045635358
 20
13.80630076943841
 30
0.0
 40
0.12
  1
T
100
AcDbText
  0
CIRCLE
  5
90D
330
6DE
100
AcDbEntity
  8
DAMAN
100
AcDbCircle
 10
20.30220045635358
 20
14.05630076943841
 30
0.0
 40
0.1875
  0
CIRCLE
  5
90E
330
6DE
100
AcDbEntity
  8
DAMAN
100
AcDbCircle
 10
20.30220045635358
 20
14.05630076943841
 30
0.0
 40
0.15625
  0
INSERT
  5
90F
330
6DE
100
AcDbEntity
  8
DAMAN
100
AcDbBlockReference
  2
100CROSS
 10
13.55220045635359
 20
10.05630076943841
 30
0.0
 41
0.375
 42
0.375
  0
CIRCLE
  5
910
330
6DE
100
AcDbEntity
  8
DAMAN
100
AcDbCircle
 10
13.55220045635359
 20
10.05630076943841
 30
0.0
 40
0.15625
  0
CIRCLE
  5
911
330
6DE
100
AcDbEntity
  8
DAMAN
100
AcDbCircle
 10
13.55220045635359
 20
10.05630076943841
 30
0.0
 40
0.1875
  0
INSERT
  5
913
330
6DE
100
AcDbEntity
  8
APIPE
100
AcDbBlockReference
  2
025NPTFT
 10
16.30270045635359
 20
6.713300769438403
 30
0.0
  0
INSERT
  5
915
330
6DE
100
AcDbEntity
  8
APIPE
100
AcDbBlockReference
  2
025NPTFT
 10
20.30270045635359
 20
6.713300769438403
 30
0.0
  0
INSERT
  5
917
330
6DE
100
AcDbEntity
  8
DAMAN
100
AcDbBlockReference
  2
C162T
 10
16.9277004563536
 20
20.27580076943841
 30
0.0
  0
INSERT
  5
918
330
6DE
100
AcDbEntity
  8
ASAE
100
AcDbBlockReference
  2
16SAET
 10
14.80270045635358
 20
7.150800769438832
 30
0.0
  0
INSERT
  5
919
330
6DE
100
AcDbEntity
  8
ASAE
100
AcDbBlockReference
  2
16SAET
 10
14.80270045635396
 20
4.52330076943886
 30
0.0
  0
INSERT
  5
91A
330
6DE
100
AcDbEntity
  8
ASAE
100
AcDbBlockReference
  2
16SAET
 10
18.80270045635392
 20
4.52330076943882
 30
0.0
  0
INSERT
  5
91B
330
6DE
100
AcDbEntity
  8
ASAE
100
AcDbBlockReference
  2
16SAET
 10
18.80270045635359
 20
7.150800769438832
 30
0.0
  0
TEXT
  5
91C
330
6DE
100
AcDbEntity
  8
DAMAN
100
AcDbText
 10
19.76431039261734
 20
7.796597282002364
 30
0.0
 40
0.2
  1
B
100
AcDbText
  0
INSERT
  5
91F
330
6DE
100
AcDbEntity
  8
DAMAN
100
AcDbBlockReference
  2
100CROSS
 10
8.990200456353587
 20
12.3383007694384
 30
0.0
 41
0.4999875
 42
0.4999875
 43
1.333299999999999
  0
CIRCLE
  5
920
330
6DE
100
AcDbEntity
  8
DAMAN
100
AcDbCircle
 10
8.990200456353587
 20
12.3383007694384
 30
0.0
 40
0.208328125
  0
CIRCLE
  5
921
330
6DE
100
AcDbEntity
  8
DAMAN
100
AcDbCircle
 10
8.990200456353587
 20
12.3383007694384
 30
0.0
 40
0.24999375
  0
INSERT
  5
922
330
6DE
100
AcDbEntity
  8
DAMAN
100
AcDbBlockReference
  2
100CROSS
 10
24.86520045635359
 20
12.3383007694384
 30
0.0
 41
0.4999875
 42
0.4999875
 43
1.333299999999999
  0
CIRCLE
  5
923
330
6DE
100
AcDbEntity
  8
DAMAN
100
AcDbCircle
 10
24.86520045635359
 20
12.3383007694384
 30
0.0
 40
0.208328125
  0
CIRCLE
  5
924
330
6DE
100
AcDbEntity
  8
DAMAN
100
AcDbCircle
 10
24.86520045635359
 20
12.3383007694384
 30
0.0
 40
0.24999375
  0
ENDSEC
  0
SECTION
  2
OBJECTS
  0
DICTIONARY
  5
6CC
330
0
100
AcDbDictionary
  3
ACAD_GROUP
350
6CD
  3
ACAD_LAYOUT
350
6D9
  3
ACAD_MLINESTYLE
350
6D6
  3
ACAD_PLOTSETTINGS
350
6D8
  3
ACAD_PLOTSTYLENAME
350
6CE
  3
ACDBHEADERROUNDTRIPXREC
350
94B
  0
DICTIONARY
  5
96D
330
6DE
100
AcDbDictionary
280
     1
  3
ACAD_LAYOUTSELFREF
360
96E
  0
DICTIONARY
  5
96B
330
6DA
100
AcDbDictionary
280
     1
  3
ACAD_LAYOUTSELFREF
360
96C
  0
DICTIONARY
  5
6CD
102
{ACAD_REACTORS
330
6CC
102
}
330
6CC
100
AcDbDictionary
  0
DICTIONARY
  5
6D9
102
{ACAD_REACTORS
330
6CC
102
}
330
6CC
100
AcDbDictionary
  0
DICTIONARY
  5
6D6
102
{ACAD_REACTORS
330
6CC
102
}
330
6CC
100
AcDbDictionary
  3
STANDARD
350
6D7
  0
DICTIONARY
  5
6D8
102
{ACAD_REACTORS
330
6CC
102
}
330
6CC
100
AcDbDictionary
  0
ACDBDICTIONARYWDFLT
  5
6CE
102
{ACAD_REACTORS
330
6CC
102
}
330
6CC
100
AcDbDictionary
281
     1
  3
Normal
350
6CF
100
AcDbDictionaryWithDefault
340
6CF
  0
DICTIONARY
  5
94B
102
{ACAD_REACTORS
330
6CC
102
}
330
6CC
100
AcDbDictionary
  3
CEPSNTYPE
350
955
  3
FINGERPRINTGUID
350
956
  3
HYPERLINKBASE
350
94E
  3
INSUNITS
350
954
  3
LAYOUTDICT
350
950
  3
LWETCUNION
350
953
  3
PLOTSETDICT
350
951
  3
PLOTSTYLNAMDICT
350
952
  3
PSVPSCALE
350
958
  3
PUCSBASE
350
95B
  3
PUCSORGBACK
350
961
  3
PUCSORGBOTTOM
350
95D
  3
PUCSORGFRONT
350
960
  3
PUCSORGLEFT
350
95E
  3
PUCSORGRIGHT
350
95F
  3
PUCSORGTOP
350
95C
  3
PUCSORTHOREF
350
959
  3
PUCSORTHOVIEW
350
95A
  3
STYLESHEET
350
94F
  3
TSTACKALIGN
350
94C
  3
TSTACKSIZE
350
94D
  3
UCSBASE
350
964
  3
UCSORGBACK
350
96A
  3
UCSORGBOTTOM
350
966
  3
UCSORGFRONT
350
969
  3
UCSORGLEFT
350
967
  3
UCSORGRIGHT
350
968
  3
UCSORGTOP
350
965
  3
UCSORTHOREF
350
962
  3
UCSORTHOVIEW
350
963
  3
VERSIONGUID
350
957
  0
XRECORD
  5
96E
102
{ACAD_REACTORS
330
96D
102
}
330
96D
100
AcDbXrecord
340
6DE
  0
XRECORD
  5
96C
102
{ACAD_REACTORS
330
96B
102
}
330
96B
100
AcDbXrecord
340
6DA
  0
MLINESTYLE
  5
6D7
102
{ACAD_REACTORS
330
6D6
102
}
330
6D6
100
AcDbMlineStyle
  2
STANDARD
 70
     0
  3

 62
   256
 51
90.0
 52
90.0
 71
     2
 49
0.5
 62
   256
  6
BYLAYER
 49
-0.5
 62
   256
  6
BYLAYER
  0
ACDBPLACEHOLDER
  5
6CF
102
{ACAD_REACTORS
330
6CE
102
}
330
6CE
100
AcDbPlaceHolder
280
     0
  0
XRECORD
  5
955
102
{ACAD_REACTORS
330
94B
102
}
330
94B
100
AcDbXrecord
 90
        0
  0
XRECORD
  5
956
102
{ACAD_REACTORS
330
94B
102
}
330
94B
100
AcDbXrecord
  1
{2585D7D8-720C-4431-BF0E-3EE34C0617AB}
  0
XRECORD
  5
94E
102
{ACAD_REACTORS
330
94B
102
}
330
94B
100
AcDbXrecord
  1

  0
XRECORD
  5
954
102
{ACAD_REACTORS
330
94B
102
}
330
94B
100
AcDbXrecord
 90
        0
  0
XRECORD
  5
950
102
{ACAD_REACTORS
330
94B
102
}
330
94B
100
AcDbXrecord
340
6D9
  0
XRECORD
  5
953
102
{ACAD_REACTORS
330
94B
102
}
330
94B
100
AcDbXrecord
 90
    10781
  0
XRECORD
  5
951
102
{ACAD_REACTORS
330
94B
102
}
330
94B
100
AcDbXrecord
340
6D8
  0
XRECORD
  5
952
102
{ACAD_REACTORS
330
94B
102
}
330
94B
100
AcDbXrecord
340
6CE
  0
XRECORD
  5
958
102
{ACAD_REACTORS
330
94B
102
}
330
94B
100
AcDbXrecord
 40
0.0
  0
XRECORD
  5
95B
102
{ACAD_REACTORS
330
94B
102
}
330
94B
100
AcDbXrecord
340
0
  0
XRECORD
  5
961
102
{ACAD_REACTORS
330
94B
102
}
330
94B
100
AcDbXrecord
 10
0.0
 20
0.0
 30
0.0
  0
XRECORD
  5
95D
102
{ACAD_REACTORS
330
94B
102
}
330
94B
100
AcDbXrecord
 10
0.0
 20
0.0
 30
0.0
  0
XRECORD
  5
960
102
{ACAD_REACTORS
330
94B
102
}
330
94B
100
AcDbXrecord
 10
0.0
 20
0.0
 30
0.0
  0
XRECORD
  5
95E
102
{ACAD_REACTORS
330
94B
102
}
330
94B
100
AcDbXrecord
 10
0.0
 20
0.0
 30
0.0
  0
XRECORD
  5
95F
102
{ACAD_REACTORS
330
94B
102
}
330
94B
100
AcDbXrecord
 10
0.0
 20
0.0
 30
0.0
  0
XRECORD
  5
95C
102
{ACAD_REACTORS
330
94B
102
}
330
94B
100
AcDbXrecord
 10
0.0
 20
0.0
 30
0.0
  0
XRECORD
  5
959
102
{ACAD_REACTORS
330
94B
102
}
330
94B
100
AcDbXrecord
340
0
  0
XRECORD
  5
95A
102
{ACAD_REACTORS
330
94B
102
}
330
94B
100
AcDbXrecord
 70
     0
  0
XRECORD
  5
94F
102
{ACAD_REACTORS
330
94B
102
}
330
94B
100
AcDbXrecord
  1

  0
XRECORD
  5
94C
102
{ACAD_REACTORS
330
94B
102
}
330
94B
100
AcDbXrecord
 90
        1
  0
XRECORD
  5
94D
102
{ACAD_REACTORS
330
94B
102
}
330
94B
100
AcDbXrecord
 90
       70
  0
XRECORD
  5
964
102
{ACAD_REACTORS
330
94B
102
}
330
94B
100
AcDbXrecord
340
0
  0
XRECORD
  5
96A
102
{ACAD_REACTORS
330
94B
102
}
330
94B
100
AcDbXrecord
 10
0.0
 20
0.0
 30
0.0
  0
XRECORD
  5
966
102
{ACAD_REACTORS
330
94B
102
}
330
94B
100
AcDbXrecord
 10
0.0
 20
0.0
 30
0.0
  0
XRECORD
  5
969
102
{ACAD_REACTORS
330
94B
102
}
330
94B
100
AcDbXrecord
 10
0.0
 20
0.0
 30
0.0
  0
XRECORD
  5
967
102
{ACAD_REACTORS
330
94B
102
}
330
94B
100
AcDbXrecord
 10
0.0
 20
0.0
 30
0.0
  0
XRECORD
  5
968
102
{ACAD_REACTORS
330
94B
102
}
330
94B
100
AcDbXrecord
 10
0.0
 20
0.0
 30
0.0
  0
XRECORD
  5
965
102
{ACAD_REACTORS
330
94B
102
}
330
94B
100
AcDbXrecord
 10
0.0
 20
0.0
 30
0.0
  0
XRECORD
  5
962
102
{ACAD_REACTORS
330
94B
102
}
330
94B
100
AcDbXrecord
340
0
  0
XRECORD
  5
963
102
{ACAD_REACTORS
330
94B
102
}
330
94B
100
AcDbXrecord
 70
     0
  0
XRECORD
  5
957
102
{ACAD_REACTORS
330
94B
102
}
330
94B
100
AcDbXrecord
  1
{704B37BC-EF51-4BC6-8E24-E93942161ACC}
  0
ENDSEC
  0
EOF
