  0
SECTION
  2
HEADER
  9
$ACADVER
  1
AC1014
  9
$ACADMAINTVER
 70
     9
  9
$DWGCODEPAGE
  3
ANSI_1252
  9
$INSBASE
 10
0.0
 20
0.0
 30
0.0
  9
$EXTMIN
 10
1.967461927518556
 20
2.217861070071649
 30
-0.0015258207003583
  9
$EXTMAX
 10
32.40681281796751
 20
19.12620533628412
 30
0.0000000349246037
  9
$LIMMIN
 10
0.0
 20
0.0
  9
$LIMMAX
 10
12.0
 20
9.0
  9
$ORTHOMODE
 70
     0
  9
$REGENMODE
 70
     1
  9
$FILLMODE
 70
     1
  9
$QTEXTMODE
 70
     0
  9
$MIRRTEXT
 70
     1
  9
$DRAGMODE
 70
     2
  9
$LTSCALE
 40
1.0
  9
$OSMODE
 70
    37
  9
$ATTMODE
 70
     1
  9
$TEXTSIZE
 40
0.2
  9
$TRACEWID
 40
0.05
  9
$TEXTSTYLE
  7
STANDARD
  9
$CLAYER
  8
0
  9
$CELTYPE
  6
CONTINUOUS
  9
$CECOLOR
 62
   256
  9
$CELTSCALE
 40
1.0
  9
$DELOBJ
 70
     1
  9
$DISPSILH
 70
     0
  9
$DIMSCALE
 40
1.0
  9
$DIMASZ
 40
0.18
  9
$DIMEXO
 40
0.0625
  9
$DIMDLI
 40
0.38
  9
$DIMRND
 40
0.0
  9
$DIMDLE
 40
0.0
  9
$DIMEXE
 40
0.18
  9
$DIMTP
 40
0.0
  9
$DIMTM
 40
0.0
  9
$DIMTXT
 40
0.18
  9
$DIMCEN
 40
0.09
  9
$DIMTSZ
 40
0.0
  9
$DIMTOL
 70
     0
  9
$DIMLIM
 70
     0
  9
$DIMTIH
 70
     1
  9
$DIMTOH
 70
     1
  9
$DIMSE1
 70
     0
  9
$DIMSE2
 70
     0
  9
$DIMTAD
 70
     0
  9
$DIMZIN
 70
     0
  9
$DIMBLK
  1

  9
$DIMASO
 70
     1
  9
$DIMSHO
 70
     1
  9
$DIMPOST
  1

  9
$DIMAPOST
  1

  9
$DIMALT
 70
     0
  9
$DIMALTD
 70
     2
  9
$DIMALTF
 40
25.4
  9
$DIMLFAC
 40
1.0
  9
$DIMTOFL
 70
     0
  9
$DIMTVP
 40
0.0
  9
$DIMTIX
 70
     0
  9
$DIMSOXD
 70
     0
  9
$DIMSAH
 70
     0
  9
$DIMBLK1
  1

  9
$DIMBLK2
  1

  9
$DIMSTYLE
  2
STANDARD
  9
$DIMCLRD
 70
     0
  9
$DIMCLRE
 70
     0
  9
$DIMCLRT
 70
     0
  9
$DIMTFAC
 40
1.0
  9
$DIMGAP
 40
0.09
  9
$DIMJUST
 70
     0
  9
$DIMSD1
 70
     0
  9
$DIMSD2
 70
     0
  9
$DIMTOLJ
 70
     1
  9
$DIMTZIN
 70
     0
  9
$DIMALTZ
 70
     0
  9
$DIMALTTZ
 70
     0
  9
$DIMFIT
 70
     3
  9
$DIMUPT
 70
     0
  9
$DIMUNIT
 70
     2
  9
$DIMDEC
 70
     4
  9
$DIMTDEC
 70
     4
  9
$DIMALTU
 70
     2
  9
$DIMALTTD
 70
     2
  9
$DIMTXSTY
  7
STANDARD
  9
$DIMAUNIT
 70
     0
  9
$LUNITS
 70
     2
  9
$LUPREC
 70
     4
  9
$SKETCHINC
 40
0.1
  9
$FILLETRAD
 40
0.0
  9
$AUNITS
 70
     0
  9
$AUPREC
 70
     0
  9
$MENU
  1
.
  9
$ELEVATION
 40
0.0
  9
$PELEVATION
 40
0.0
  9
$THICKNESS
 40
0.0
  9
$LIMCHECK
 70
     0
  9
$BLIPMODE
 70
     0
  9
$CHAMFERA
 40
0.0
  9
$CHAMFERB
 40
0.0
  9
$CHAMFERC
 40
0.0
  9
$CHAMFERD
 40
0.0
  9
$SKPOLY
 70
     0
  9
$TDCREATE
 40
2453447.632981041
  9
$TDUPDATE
 40
2453447.640134907
  9
$TDINDWG
 40
0.0071544097
  9
$TDUSRTIMER
 40
0.0071544097
  9
$USRTIMER
 70
     1
  9
$ANGBASE
 50
0.0
  9
$ANGDIR
 70
     0
  9
$PDMODE
 70
     0
  9
$PDSIZE
 40
0.0
  9
$PLINEWID
 40
0.0
  9
$COORDS
 70
     1
  9
$SPLFRAME
 70
     0
  9
$SPLINETYPE
 70
     6
  9
$SPLINESEGS
 70
     8
  9
$ATTDIA
 70
     0
  9
$ATTREQ
 70
     1
  9
$HANDLING
 70
-16383
  9
$HANDSEED
  5
37C
  9
$SURFTAB1
 70
     6
  9
$SURFTAB2
 70
     6
  9
$SURFTYPE
 70
     6
  9
$SURFU
 70
     6
  9
$SURFV
 70
     6
  9
$UCSNAME
  2

  9
$UCSORG
 10
0.0
 20
0.0
 30
0.0
  9
$UCSXDIR
 10
1.0
 20
0.0
 30
0.0
  9
$UCSYDIR
 10
0.0
 20
1.0
 30
0.0
  9
$PUCSNAME
  2

  9
$PUCSORG
 10
0.0
 20
0.0
 30
0.0
  9
$PUCSXDIR
 10
1.0
 20
0.0
 30
0.0
  9
$PUCSYDIR
 10
0.0
 20
1.0
 30
0.0
  9
$USERI1
 70
     0
  9
$USERI2
 70
     0
  9
$USERI3
 70
     0
  9
$USERI4
 70
     0
  9
$USERI5
 70
     0
  9
$USERR1
 40
0.0
  9
$USERR2
 40
0.0
  9
$USERR3
 40
0.0
  9
$USERR4
 40
0.0
  9
$USERR5
 40
0.0
  9
$WORLDVIEW
 70
     1
  9
$SHADEDGE
 70
     3
  9
$SHADEDIF
 70
    70
  9
$TILEMODE
 70
     1
  9
$MAXACTVP
 70
    64
  9
$PINSBASE
 10
0.0
 20
0.0
 30
0.0
  9
$PLIMCHECK
 70
     0
  9
$PEXTMIN
 10
1.000000000000000E+20
 20
1.000000000000000E+20
 30
1.000000000000000E+20
  9
$PEXTMAX
 10
-1.000000000000000E+20
 20
-1.000000000000000E+20
 30
-1.000000000000000E+20
  9
$PLIMMIN
 10
0.0
 20
0.0
  9
$PLIMMAX
 10
12.0
 20
9.0
  9
$UNITMODE
 70
     0
  9
$VISRETAIN
 70
     1
  9
$PLINEGEN
 70
     0
  9
$PSLTSCALE
 70
     1
  9
$TREEDEPTH
 70
  3020
  9
$PICKSTYLE
 70
     1
  9
$CMLSTYLE
  2
STANDARD
  9
$CMLJUST
 70
     0
  9
$CMLSCALE
 40
1.0
  9
$PROXYGRAPHICS
 70
     1
  9
$MEASUREMENT
 70
     0
  0
ENDSEC
  0
SECTION
  2
CLASSES
  0
CLASS
  1
ACDBDICTIONARYWDFLT
  2
AcDbDictionaryWithDefault
  3
AutoCAD 2000
 90
        0
280
     0
281
     0
  0
CLASS
  1
ACDBPLACEHOLDER
  2
AcDbPlaceHolder
  3
AutoCAD 2000
 90
        0
280
     0
281
     0
  0
CLASS
  1
LAYOUT
  2
AcDbLayout
  3
AutoCAD 2000
 90
        0
280
     0
281
     0
  0
CLASS
  1
LONG_TRANSACTION
  2
AcDbLongTransaction
  3
AutoCAD 2000
 90
        0
280
     0
281
     0
  0
CLASS
  1
LWPOLYLINE
  2
AcDbPolyline
  3
AutoCAD 2000
 90
        0
280
     0
281
     1
  0
CLASS
  1
HATCH
  2
AcDbHatch
  3
AutoCAD 2000
 90
        0
280
     0
281
     1
  0
CLASS
  1
XRECORD
  2
AcDbXrecord
  3
AutoCAD 2000
 90
        0
280
     0
281
     0
  0
ENDSEC
  0
SECTION
  2
TABLES
  0
TABLE
  2
VPORT
  5
8
330
0
100
AcDbSymbolTable
 70
     4
  0
VPORT
  5
357
330
8
100
AcDbSymbolTableRecord
100
AcDbViewportTableRecord
  2
*ACTIVE
 70
     0
 10
0.0
 20
0.0
 11
1.0
 21
1.0
 12
17.18713737274303
 22
10.67203320317788
 13
0.0
 23
0.0
 14
1.0
 24
1.0
 15
0.0
 25
0.0
 16
0.0
 26
0.0
 36
1.0
 17
0.0
 27
0.0
 37
0.0
 40
18.59191342030473
 41
1.647569444444444
 42
50.0
 43
0.0
 44
0.0
 50
0.0
 51
0.0
 71
     0
 72
   100
 73
     1
 74
     1
 75
     0
 76
     0
 77
     0
 78
     0
  0
ENDTAB
  0
TABLE
  2
LTYPE
  5
5
330
0
100
AcDbSymbolTable
 70
    12
  0
LTYPE
  5
13
330
5
100
AcDbSymbolTableRecord
100
AcDbLinetypeTableRecord
  2
BYBLOCK
 70
     0
  3

 72
    65
 73
     0
 40
0.0
  0
LTYPE
  5
14
330
5
100
AcDbSymbolTableRecord
100
AcDbLinetypeTableRecord
  2
BYLAYER
 70
     0
  3

 72
    65
 73
     0
 40
0.0
  0
LTYPE
  5
15
330
5
100
AcDbSymbolTableRecord
100
AcDbLinetypeTableRecord
  2
CONTINUOUS
 70
     0
  3
Solid line
 72
    65
 73
     0
 40
0.0
  0
LTYPE
  5
22
330
5
100
AcDbSymbolTableRecord
100
AcDbLinetypeTableRecord
  2
DASHED
 70
     0
  3
__ __ __ __ __ __ __ __ __ __ __ __ __ __ __
 72
    65
 73
     2
 40
0.4096300000000001
 49
0.153611
 74
     0
 49
-0.076806
 74
     0
  0
LTYPE
  5
23
330
5
100
AcDbSymbolTableRecord
100
AcDbLinetypeTableRecord
  2
DOT
 70
     0
  3
...............................................
 72
    65
 73
     2
 40
0.076806
 49
0.0
 74
     0
 49
-0.076806
 74
     0
  0
LTYPE
  5
24
330
5
100
AcDbSymbolTableRecord
100
AcDbLinetypeTableRecord
  2
DASHDOT
 70
     0
  3
__ . __ . __ . __ . __ . __ . __ . __ . __ . __
 72
    65
 73
     4
 40
0.307222
 49
0.153611
 74
     0
 49
-0.076806
 74
     0
 49
0.0
 74
     0
 49
-0.076806
 74
     0
  0
LTYPE
  5
25
330
5
100
AcDbSymbolTableRecord
100
AcDbLinetypeTableRecord
  2
CENTER
 70
     0
  3
____ _ ____ _ ____ _ ____ _ ____ _ ____ _ ____
 72
    65
 73
     4
 40
0.614444
 49
0.384028
 74
     0
 49
-0.076806
 74
     0
 49
0.076806
 74
     0
 49
-0.076806
 74
     0
  0
LTYPE
  5
26
330
5
100
AcDbSymbolTableRecord
100
AcDbLinetypeTableRecord
  2
PHANTOM
 70
     0
  3
_____ _ _ _____ _ _ _____ _ _ _____ _ _ ____
 72
    65
 73
     6
 40
0.7680560000000001
 49
0.384028
 74
     0
 49
-0.076806
 74
     0
 49
0.076806
 74
     0
 49
-0.076806
 74
     0
 49
0.076806
 74
     0
 49
-0.076806
 74
     0
  0
LTYPE
  5
27
330
5
100
AcDbSymbolTableRecord
100
AcDbLinetypeTableRecord
  2
HIDDEN
 70
     0
  3
_ _ _ _ _ _ _ _ _ _ _ _ _ _ _ _ _ _ _ _ _ _ _
 72
    65
 73
     2
 40
0.307222
 49
0.204815
 74
     0
 49
-0.102407
 74
     0
  0
LTYPE
  5
28
330
5
100
AcDbSymbolTableRecord
100
AcDbLinetypeTableRecord
  2
BORDER
 70
     0
  3
__ __ . __ __ . __ __ . __ __ . __ __ . __ __
 72
    65
 73
     6
 40
0.5377290000000001
 49
0.076806
 74
     0
 49
-0.076806
 74
     0
 49
0.153611
 74
     0
 49
-0.076806
 74
     0
 49
0.0
 74
     0
 49
-0.076806
 74
     0
  0
LTYPE
  5
29
330
5
100
AcDbSymbolTableRecord
100
AcDbLinetypeTableRecord
  2
DIVIDE
 70
     0
  3
__ . . __ . . __ . . __ . . __ . . __ . . __
 72
    65
 73
     6
 40
-0.076806
 49
-0.076806
 74
     0
 49
-0.076806
 74
     0
 49
0.0
 74
     0
 49
-0.076806
 74
     0
 49
0.0
 74
     0
 49
-0.076806
 74
     0
  0
LTYPE
  5
2A
330
5
100
AcDbSymbolTableRecord
100
AcDbLinetypeTableRecord
  2
POINT31
 70
     0
  3
+                                          +
 72
    65
 73
     0
 40
0.0
  0
LTYPE
  5
2B
330
5
100
AcDbSymbolTableRecord
100
AcDbLinetypeTableRecord
  2
POINT63
 70
     0
  3
*                                          *
 72
    65
 73
     0
 40
0.0
  0
LTYPE
  5
2C
330
5
100
AcDbSymbolTableRecord
100
AcDbLinetypeTableRecord
  2
DBLDASH
 70
     0
  3
-- -- -- -- -- -- -- -- -- -- -- -- -- -- --
 72
    65
 73
     4
 40
0.268864
 49
0.076806
 74
     0
 49
-0.076806
 74
     0
 49
0.076806
 74
     0
 49
-0.076806
 74
     0
  0
ENDTAB
  0
TABLE
  2
LAYER
  5
2
330
0
100
AcDbSymbolTable
 70
     2
  0
LAYER
  5
10
330
2
100
AcDbSymbolTableRecord
100
AcDbLayerTableRecord
  2
0
 70
     0
 62
     5
  6
CONTINUOUS
  0
LAYER
  5
2B2
330
2
100
AcDbSymbolTableRecord
100
AcDbLayerTableRecord
  2
DAMAN
 70
     0
 62
     5
  6
CONTINUOUS
  0
ENDTAB
  0
TABLE
  2
STYLE
  5
3
330
0
100
AcDbSymbolTable
 70
     1
  0
STYLE
  5
11
330
3
100
AcDbSymbolTableRecord
100
AcDbTextStyleTableRecord
  2
STANDARD
 70
     0
 40
0.0
 41
1.0
 50
0.0
 71
     0
 42
0.2
  3
txt
  4

  0
ENDTAB
  0
TABLE
  2
VIEW
  5
6
330
0
100
AcDbSymbolTable
 70
     0
  0
ENDTAB
  0
TABLE
  2
UCS
  5
7
330
0
100
AcDbSymbolTable
 70
     0
  0
ENDTAB
  0
TABLE
  2
APPID
  5
9
330
0
100
AcDbSymbolTable
 70
     1
  0
APPID
  5
12
330
9
100
AcDbSymbolTableRecord
100
AcDbRegAppTableRecord
  2
ACAD
 70
     0
  0
ENDTAB
  0
TABLE
  2
DIMSTYLE
  5
A
330
0
100
AcDbSymbolTable
 70
     1
  0
DIMSTYLE
105
21C
330
A
100
AcDbSymbolTableRecord
100
AcDbDimStyleTableRecord
  2
STANDARD
 70
     0
  3

  4

  5

  6

  7

 40
1.0
 41
0.18
 42
0.0625
 43
0.38
 44
0.18
 45
0.0
 46
0.0
 47
0.0
 48
0.0
140
0.18
141
0.09
142
0.0
143
25.4
144
1.0
145
0.0
146
1.0
147
0.09
 71
     0
 72
     0
 73
     1
 74
     1
 75
     0
 76
     0
 77
     0
 78
     0
170
     0
171
     2
172
     0
173
     0
174
     0
175
     0
176
     0
177
     0
178
     0
270
     2
271
     4
272
     4
273
     2
274
     2
340
11
275
     0
280
     0
281
     0
282
     0
283
     1
284
     0
285
     0
286
     0
287
     3
288
     0
  0
ENDTAB
  0
TABLE
  2
BLOCK_RECORD
  5
1
330
0
100
AcDbSymbolTable
 70
    10
  0
BLOCK_RECORD
  5
1E
102
{ACAD_XDICTIONARY
360
37A
102
}
330
1
100
AcDbSymbolTableRecord
100
AcDbBlockTableRecord
  2
*MODEL_SPACE
  0
BLOCK_RECORD
  5
1A
102
{ACAD_XDICTIONARY
360
378
102
}
330
1
100
AcDbSymbolTableRecord
100
AcDbBlockTableRecord
  2
*PAPER_SPACE
  0
BLOCK_RECORD
  5
26B
330
1
100
AcDbSymbolTableRecord
100
AcDbBlockTableRecord
  2
100CROSS
  0
BLOCK_RECORD
  5
26F
330
1
100
AcDbSymbolTableRecord
100
AcDbBlockTableRecord
  2
050CROSS
  0
BLOCK_RECORD
  5
278
330
1
100
AcDbSymbolTableRecord
100
AcDbBlockTableRecord
  2
700MKT
  0
BLOCK_RECORD
  5
2B3
330
1
100
AcDbSymbolTableRecord
100
AcDbBlockTableRecord
  2
A$C34C4372B
  0
BLOCK_RECORD
  5
2C2
330
1
100
AcDbSymbolTableRecord
100
AcDbBlockTableRecord
  2
700MKCT
  0
BLOCK_RECORD
  5
2EC
330
1
100
AcDbSymbolTableRecord
100
AcDbBlockTableRecord
  2
A$C38F71B80
  0
BLOCK_RECORD
  5
2F7
330
1
100
AcDbSymbolTableRecord
100
AcDbBlockTableRecord
  2
600MKS
  0
ENDTAB
  0
ENDSEC
  0
SECTION
  2
BLOCKS
  0
BLOCK
  5
1F
330
1E
100
AcDbEntity
  8
0
100
AcDbBlockBegin
  2
*MODEL_SPACE
 70
     0
 10
0.0
 20
0.0
 30
0.0
  3
*MODEL_SPACE
  1

  0
ENDBLK
  5
20
330
1E
100
AcDbEntity
  8
0
100
AcDbBlockEnd
  0
BLOCK
  5
1B
330
1A
100
AcDbEntity
 67
     1
  8
0
100
AcDbBlockBegin
  2
*PAPER_SPACE
 70
     0
 10
0.0
 20
0.0
 30
0.0
  3
*PAPER_SPACE
  1

  0
ENDBLK
  5
1C
330
1A
100
AcDbEntity
 67
     1
  8
0
100
AcDbBlockEnd
  0
BLOCK
  5
26D
330
26B
100
AcDbEntity
  8
0
100
AcDbBlockBegin
  2
100CROSS
 70
     0
 10
5.625
 20
4.59375
 30
0.0
  3
100CROSS
  1

  0
INSERT
  5
26C
330
26B
100
AcDbEntity
  8
0
100
AcDbBlockReference
  2
050CROSS
 10
5.625
 20
4.59375
 30
0.0
  0
ENDBLK
  5
26E
330
26B
100
AcDbEntity
  8
0
100
AcDbBlockEnd
  0
BLOCK
  5
276
330
26F
100
AcDbEntity
  8
0
100
AcDbBlockBegin
  2
050CROSS
 70
     0
 10
5.0
 20
5.0
 30
0.0
  3
050CROSS
  1

  0
LINE
  5
270
330
26F
100
AcDbEntity
  8
0
100
AcDbLine
 10
5.0
 20
5.28125
 30
0.0
 11
5.0
 21
5.78125
 31
0.0
  0
LINE
  5
271
330
26F
100
AcDbEntity
  8
0
100
AcDbLine
 10
5.0
 20
4.875
 30
0.0
 11
5.0
 21
5.125
 31
0.0
  0
LINE
  5
272
330
26F
100
AcDbEntity
  8
0
100
AcDbLine
 10
5.0
 20
4.15625
 30
0.0
 11
5.0
 21
4.71875
 31
0.0
  0
LINE
  5
273
330
26F
100
AcDbEntity
  8
0
100
AcDbLine
 10
5.25
 20
5.0
 30
0.0
 11
5.8125
 21
5.0
 31
0.0
  0
LINE
  5
274
330
26F
100
AcDbEntity
  8
0
100
AcDbLine
 10
4.90625
 20
5.0
 30
0.0
 11
5.09375
 21
5.0
 31
0.0
  0
LINE
  5
275
330
26F
100
AcDbEntity
  8
0
100
AcDbLine
 10
4.1875
 20
5.0
 30
0.0
 11
4.75
 21
5.0
 31
0.0
  0
ENDBLK
  5
277
330
26F
100
AcDbEntity
  8
0
100
AcDbBlockEnd
  0
BLOCK
  5
2B0
330
278
100
AcDbEntity
  8
0
100
AcDbBlockBegin
  2
700MKT
 70
     0
 10
0.0
 20
0.0
 30
0.0
  3
700MKT
  1

  0
LINE
  5
279
330
278
100
AcDbEntity
  8
DAMAN
100
AcDbLine
 10
-1.0625
 20
6.3125
 30
0.0
 11
0.5625
 21
6.3125
 31
0.0
  0
LINE
  5
27A
330
278
100
AcDbEntity
  8
DAMAN
100
AcDbLine
 10
0.5625
 20
6.3125
 30
0.0
 11
0.5625
 21
-0.6875
 31
0.0
  0
LINE
  5
27B
330
278
100
AcDbEntity
  8
DAMAN
100
AcDbLine
 10
0.5625
 20
-0.6875
 30
0.0
 11
-1.0625
 21
-0.6875
 31
0.0
  0
LINE
  5
27C
330
278
100
AcDbEntity
  8
DAMAN
100
AcDbLine
 10
-1.0625
 20
-0.6875
 30
0.0
 11
-1.0625
 21
6.3125
 31
0.0
  0
LINE
  5
27D
330
278
100
AcDbEntity
  8
DAMAN
100
AcDbLine
 10
-0.875
 20
-0.6875
 30
0.0
 11
-0.875
 21
6.3125
 31
0.0
  0
LINE
  5
27E
330
278
100
AcDbEntity
  8
DAMAN
100
AcDbLine
 10
-0.875
 20
0.53125
 30
0.0
 11
-0.8125
 21
0.53125
 31
0.0
  0
LINE
  5
27F
330
278
100
AcDbEntity
  8
DAMAN
100
AcDbLine
 10
-0.8125
 20
0.53125
 30
0.0
 11
-0.8125
 21
-0.53125
 31
0.0
  0
LINE
  5
280
330
278
100
AcDbEntity
  8
DAMAN
100
AcDbLine
 10
-0.8125
 20
-0.53125
 30
0.0
 11
-0.875
 21
-0.53125
 31
0.0
  0
LINE
  5
281
330
278
100
AcDbEntity
  8
DAMAN
100
AcDbLine
 10
-0.8125
 20
0.4330130000000001
 30
0.0
 11
-0.5428350000000001
 21
0.4330130000000001
 31
0.0
  0
LINE
  5
282
330
278
100
AcDbEntity
  8
DAMAN
100
AcDbLine
 10
-0.5
 20
0.358821
 30
0.0
 11
-0.5
 21
-0.358821
 31
0.0
  0
LINE
  5
283
330
278
100
AcDbEntity
  8
DAMAN
100
AcDbLine
 10
-0.5428350000000001
 20
-0.4330130000000001
 30
0.0
 11
-0.8125
 21
-0.4330130000000001
 31
0.0
  0
LINE
  5
284
330
278
100
AcDbEntity
  8
DAMAN
100
AcDbLine
 10
-0.8125
 20
0.216506
 30
0.0
 11
-0.5625
 21
0.216506
 31
0.0
  0
LINE
  5
285
330
278
100
AcDbEntity
  8
DAMAN
100
AcDbLine
 10
-0.8125
 20
-0.216506
 30
0.0
 11
-0.5625
 21
-0.216506
 31
0.0
  0
ARC
  5
286
330
278
100
AcDbEntity
  8
DAMAN
100
AcDbCircle
 10
-0.90625
 20
0.0
 30
0.0
 40
0.40625
100
AcDbArc
 50
327.7957719999999
 51
32.204228
  0
ARC
  5
287
330
278
100
AcDbEntity
  8
DAMAN
100
AcDbCircle
 10
-0.625
 20
-0.32476
 30
0.0
 40
0.125
100
AcDbArc
 50
300.0
 51
60.0
  0
ARC
  5
288
330
278
100
AcDbEntity
  8
DAMAN
100
AcDbCircle
 10
-0.625
 20
0.32476
 30
0.0
 40
0.125
100
AcDbArc
 50
300.0
 51
60.0
  0
LINE
  5
289
330
278
100
AcDbEntity
  8
DAMAN
100
AcDbLine
 10
-0.5428350000000001
 20
0.4330130000000001
 30
0.0
 11
-0.5
 21
0.358821
 31
0.0
  0
LINE
  5
28A
330
278
100
AcDbEntity
  8
DAMAN
100
AcDbLine
 10
-0.5428350000000001
 20
-0.4330130000000001
 30
0.0
 11
-0.5
 21
-0.358821
 31
0.0
  0
LINE
  5
28B
330
278
100
AcDbEntity
  8
DAMAN
100
AcDbLine
 10
-1.0625
 20
0.25
 30
0.0
 11
-1.78125
 21
0.25
 31
0.0
  0
LINE
  5
28C
330
278
100
AcDbEntity
  8
DAMAN
100
AcDbLine
 10
-1.78125
 20
0.25
 30
0.0
 11
-1.8125
 21
0.21875
 31
0.0
  0
LINE
  5
28D
330
278
100
AcDbEntity
  8
DAMAN
100
AcDbLine
 10
-1.8125
 20
0.21875
 30
0.0
 11
-1.8125
 21
-0.21875
 31
0.0
  0
LINE
  5
28E
330
278
100
AcDbEntity
  8
DAMAN
100
AcDbLine
 10
-1.8125
 20
-0.21875
 30
0.0
 11
-1.78125
 21
-0.25
 31
0.0
  0
LINE
  5
28F
330
278
100
AcDbEntity
  8
DAMAN
100
AcDbLine
 10
-1.78125
 20
-0.25
 30
0.0
 11
-1.0625
 21
-0.25
 31
0.0
  0
LINE
  5
290
330
278
100
AcDbEntity
  8
DAMAN
100
AcDbLine
 10
-1.0625
 20
0.21875
 30
0.0
 11
-1.8125
 21
0.21875
 31
0.0
  0
LINE
  5
291
330
278
100
AcDbEntity
  8
DAMAN
100
AcDbLine
 10
-1.0625
 20
-0.21875
 30
0.0
 11
-1.8125
 21
-0.21875
 31
0.0
  0
LINE
  5
292
330
278
100
AcDbEntity
  8
DAMAN
100
AcDbLine
 10
-0.375
 20
0.0
 30
0.0
 11
-1.90625
 21
0.0
 31
0.0
  0
LINE
  5
293
330
278
100
AcDbEntity
  8
DAMAN
100
AcDbLine
 10
-0.375
 20
5.625
 30
0.0
 11
-1.90625
 21
5.625
 31
0.0
  0
LINE
  5
294
330
278
100
AcDbEntity
  8
DAMAN
100
AcDbLine
 10
-1.0625
 20
5.40625
 30
0.0
 11
-1.8125
 21
5.40625
 31
0.0
  0
LINE
  5
295
330
278
100
AcDbEntity
  8
DAMAN
100
AcDbLine
 10
-1.78125
 20
5.375
 30
0.0
 11
-1.0625
 21
5.375
 31
0.0
  0
LINE
  5
296
330
278
100
AcDbEntity
  8
DAMAN
100
AcDbLine
 10
-1.0625
 20
5.84375
 30
0.0
 11
-1.8125
 21
5.84375
 31
0.0
  0
LINE
  5
297
330
278
100
AcDbEntity
  8
DAMAN
100
AcDbLine
 10
-1.0625
 20
5.875
 30
0.0
 11
-1.78125
 21
5.875
 31
0.0
  0
LINE
  5
298
330
278
100
AcDbEntity
  8
DAMAN
100
AcDbLine
 10
-1.8125
 20
5.84375
 30
0.0
 11
-1.8125
 21
5.40625
 31
0.0
  0
LINE
  5
299
330
278
100
AcDbEntity
  8
DAMAN
100
AcDbLine
 10
-1.78125
 20
5.875
 30
0.0
 11
-1.8125
 21
5.84375
 31
0.0
  0
LINE
  5
29A
330
278
100
AcDbEntity
  8
DAMAN
100
AcDbLine
 10
-1.8125
 20
5.40625
 30
0.0
 11
-1.78125
 21
5.375
 31
0.0
  0
ARC
  5
29B
330
278
100
AcDbEntity
  8
DAMAN
100
AcDbCircle
 10
-0.90625
 20
5.625
 30
0.0
 40
0.40625
100
AcDbArc
 50
327.7957719999999
 51
32.204228
  0
LINE
  5
29C
330
278
100
AcDbEntity
  8
DAMAN
100
AcDbLine
 10
-0.8125
 20
6.15625
 30
0.0
 11
-0.8125
 21
5.09375
 31
0.0
  0
LINE
  5
29D
330
278
100
AcDbEntity
  8
DAMAN
100
AcDbLine
 10
-0.5
 20
5.983820999999999
 30
0.0
 11
-0.5
 21
5.266179
 31
0.0
  0
ARC
  5
29E
330
278
100
AcDbEntity
  8
DAMAN
100
AcDbCircle
 10
-0.625
 20
5.949759999999999
 30
0.0
 40
0.125
100
AcDbArc
 50
300.0
 51
60.0
  0
LINE
  5
29F
330
278
100
AcDbEntity
  8
DAMAN
100
AcDbLine
 10
-0.5428350000000001
 20
6.058012999999999
 30
0.0
 11
-0.5
 21
5.983820999999999
 31
0.0
  0
LINE
  5
2A0
330
278
100
AcDbEntity
  8
DAMAN
100
AcDbLine
 10
-0.8125
 20
6.058012999999999
 30
0.0
 11
-0.5428350000000001
 21
6.058012999999999
 31
0.0
  0
LINE
  5
2A1
330
278
100
AcDbEntity
  8
DAMAN
100
AcDbLine
 10
-0.875
 20
6.15625
 30
0.0
 11
-0.8125
 21
6.15625
 31
0.0
  0
LINE
  5
2A2
330
278
100
AcDbEntity
  8
DAMAN
100
AcDbLine
 10
-0.8125
 20
5.841505999999999
 30
0.0
 11
-0.5625
 21
5.841505999999999
 31
0.0
  0
ARC
  5
2A3
330
278
100
AcDbEntity
  8
DAMAN
100
AcDbCircle
 10
-0.625
 20
5.30024
 30
0.0
 40
0.125
100
AcDbArc
 50
300.0
 51
60.0
  0
LINE
  5
2A4
330
278
100
AcDbEntity
  8
DAMAN
100
AcDbLine
 10
-0.8125
 20
5.408494
 30
0.0
 11
-0.5625
 21
5.408494
 31
0.0
  0
LINE
  5
2A5
330
278
100
AcDbEntity
  8
DAMAN
100
AcDbLine
 10
-0.5428350000000001
 20
5.191987
 30
0.0
 11
-0.8125
 21
5.191987
 31
0.0
  0
LINE
  5
2A6
330
278
100
AcDbEntity
  8
DAMAN
100
AcDbLine
 10
-0.8125
 20
5.09375
 30
0.0
 11
-0.875
 21
5.09375
 31
0.0
  0
LINE
  5
2A7
330
278
100
AcDbEntity
  8
DAMAN
100
AcDbLine
 10
-0.5428350000000001
 20
5.191987
 30
0.0
 11
-0.5
 21
5.266179
 31
0.0
  0
CIRCLE
  5
2A8
330
278
100
AcDbEntity
  8
DAMAN
100
AcDbCircle
 10
0.0
 20
5.625
 30
0.0
 40
0.53125
  0
CIRCLE
  5
2A9
330
278
100
AcDbEntity
  8
DAMAN
100
AcDbCircle
 10
0.0
 20
0.0
 30
0.0
 40
0.53125
  0
LWPOLYLINE
  5
2AA
330
278
100
AcDbEntity
  8
DAMAN
100
AcDbPolyline
 90
        6
 70
     1
 43
0.0
 10
0.375
 20
5.841505999999999
 10
0.0
 20
6.058012999999999
 10
-0.375
 20
5.841505999999999
 10
-0.375
 20
5.408494
 10
0.0
 20
5.191987
 10
0.375
 20
5.408494
  0
CIRCLE
  5
2AB
330
278
100
AcDbEntity
  8
DAMAN
100
AcDbCircle
 10
0.0
 20
5.625
 30
0.0
 40
0.375
  0
CIRCLE
  5
2AC
330
278
100
AcDbEntity
  8
DAMAN
100
AcDbCircle
 10
0.0
 20
0.0
 30
0.0
 40
0.375
  0
LWPOLYLINE
  5
2AD
330
278
100
AcDbEntity
  8
DAMAN
100
AcDbPolyline
 90
        6
 70
     1
 43
0.0
 10
0.375
 20
0.216506
 10
0.0
 20
0.4330130000000001
 10
-0.375
 20
0.216506
 10
-0.375
 20
-0.216506
 10
0.0
 20
-0.4330130000000001
 10
0.375
 20
-0.216506
  0
INSERT
  5
2AE
330
278
100
AcDbEntity
  8
DAMAN
100
AcDbBlockReference
  2
100CROSS
 10
0.0
 20
5.625
 30
0.0
 41
0.8
 42
0.8
  0
INSERT
  5
2AF
330
278
100
AcDbEntity
  8
DAMAN
100
AcDbBlockReference
  2
100CROSS
 10
0.0
 20
0.0
 30
0.0
 41
0.8
 42
0.8
  0
ENDBLK
  5
2B1
330
278
100
AcDbEntity
  8
0
100
AcDbBlockEnd
  0
BLOCK
  5
2B6
330
2B3
100
AcDbEntity
  8
0
100
AcDbBlockBegin
  2
A$C34C4372B
 70
     0
 10
0.0
 20
0.0
 30
0.0
  3
A$C34C4372B
  1

  0
INSERT
  5
2B4
330
2B3
100
AcDbEntity
  8
DAMAN
100
AcDbBlockReference
  2
700MKT
 10
0.5
 20
-6.312000000000001
 30
0.0
  0
LINE
  5
2B5
330
2B3
100
AcDbEntity
  8
DAMAN
  6
DASHED
100
AcDbLine
 10
0.0
 20
0.0
 30
0.0
 11
0.0
 21
-7.0
 31
0.0
  0
ENDBLK
  5
2B7
330
2B3
100
AcDbEntity
  8
0
100
AcDbBlockEnd
  0
BLOCK
  5
2EA
330
2C2
100
AcDbEntity
  8
0
100
AcDbBlockBegin
  2
700MKCT
 70
     0
 10
0.0
 20
0.0
 30
0.0
  3
700MKCT
  1

  0
LINE
  5
2C3
330
2C2
100
AcDbEntity
  8
DAMAN
100
AcDbLine
 10
-1.0625
 20
6.3125
 30
0.0
 11
0.5625
 21
6.3125
 31
0.0
  0
LINE
  5
2C4
330
2C2
100
AcDbEntity
  8
DAMAN
100
AcDbLine
 10
0.5625
 20
6.3125
 30
0.0
 11
0.5625
 21
-0.6875
 31
0.0
  0
LINE
  5
2C5
330
2C2
100
AcDbEntity
  8
DAMAN
100
AcDbLine
 10
0.5625
 20
-0.6875
 30
0.0
 11
-1.0625
 21
-0.6875
 31
0.0
  0
LINE
  5
2C6
330
2C2
100
AcDbEntity
  8
DAMAN
100
AcDbLine
 10
-1.0625
 20
-0.6875
 30
0.0
 11
-1.0625
 21
6.3125
 31
0.0
  0
LINE
  5
2C7
330
2C2
100
AcDbEntity
  8
DAMAN
100
AcDbLine
 10
-0.875
 20
-0.6875
 30
0.0
 11
-0.875
 21
6.3125
 31
0.0
  0
LINE
  5
2C8
330
2C2
100
AcDbEntity
  8
DAMAN
100
AcDbLine
 10
-0.875
 20
0.53125
 30
0.0
 11
-0.8125
 21
0.53125
 31
0.0
  0
LINE
  5
2C9
330
2C2
100
AcDbEntity
  8
DAMAN
100
AcDbLine
 10
-0.8125
 20
0.53125
 30
0.0
 11
-0.8125
 21
-0.53125
 31
0.0
  0
LINE
  5
2CA
330
2C2
100
AcDbEntity
  8
DAMAN
100
AcDbLine
 10
-0.8125
 20
-0.53125
 30
0.0
 11
-0.875
 21
-0.53125
 31
0.0
  0
LINE
  5
2CB
330
2C2
100
AcDbEntity
  8
DAMAN
100
AcDbLine
 10
-0.8125
 20
0.4330130000000001
 30
0.0
 11
-0.5428350000000001
 21
0.4330130000000001
 31
0.0
  0
LINE
  5
2CC
330
2C2
100
AcDbEntity
  8
DAMAN
100
AcDbLine
 10
-0.5
 20
0.358821
 30
0.0
 11
-0.5
 21
-0.358821
 31
0.0
  0
LINE
  5
2CD
330
2C2
100
AcDbEntity
  8
DAMAN
100
AcDbLine
 10
-0.5428350000000001
 20
-0.4330130000000001
 30
0.0
 11
-0.8125
 21
-0.4330130000000001
 31
0.0
  0
LINE
  5
2CE
330
2C2
100
AcDbEntity
  8
DAMAN
100
AcDbLine
 10
-0.8125
 20
0.216506
 30
0.0
 11
-0.5625
 21
0.216506
 31
0.0
  0
LINE
  5
2CF
330
2C2
100
AcDbEntity
  8
DAMAN
100
AcDbLine
 10
-0.8125
 20
-0.216506
 30
0.0
 11
-0.5625
 21
-0.216506
 31
0.0
  0
ARC
  5
2D0
330
2C2
100
AcDbEntity
  8
DAMAN
100
AcDbCircle
 10
-0.90625
 20
0.0
 30
0.0
 40
0.40625
100
AcDbArc
 50
327.7957719999999
 51
32.204228
  0
ARC
  5
2D1
330
2C2
100
AcDbEntity
  8
DAMAN
100
AcDbCircle
 10
-0.625
 20
-0.32476
 30
0.0
 40
0.125
100
AcDbArc
 50
300.0
 51
60.0
  0
ARC
  5
2D2
330
2C2
100
AcDbEntity
  8
DAMAN
100
AcDbCircle
 10
-0.625
 20
0.32476
 30
0.0
 40
0.125
100
AcDbArc
 50
300.0
 51
60.0
  0
LINE
  5
2D3
330
2C2
100
AcDbEntity
  8
DAMAN
100
AcDbLine
 10
-0.5428350000000001
 20
0.4330130000000001
 30
0.0
 11
-0.5
 21
0.358821
 31
0.0
  0
LINE
  5
2D4
330
2C2
100
AcDbEntity
  8
DAMAN
100
AcDbLine
 10
-0.5428350000000001
 20
-0.4330130000000001
 30
0.0
 11
-0.5
 21
-0.358821
 31
0.0
  0
ARC
  5
2D5
330
2C2
100
AcDbEntity
  8
DAMAN
100
AcDbCircle
 10
-0.90625
 20
5.625
 30
0.0
 40
0.40625
100
AcDbArc
 50
327.7957719999999
 51
32.204228
  0
LINE
  5
2D6
330
2C2
100
AcDbEntity
  8
DAMAN
100
AcDbLine
 10
-0.8125
 20
6.15625
 30
0.0
 11
-0.8125
 21
5.09375
 31
0.0
  0
LINE
  5
2D7
330
2C2
100
AcDbEntity
  8
DAMAN
100
AcDbLine
 10
-0.5
 20
5.983820999999999
 30
0.0
 11
-0.5
 21
5.266179
 31
0.0
  0
ARC
  5
2D8
330
2C2
100
AcDbEntity
  8
DAMAN
100
AcDbCircle
 10
-0.625
 20
5.949759999999999
 30
0.0
 40
0.125
100
AcDbArc
 50
300.0
 51
60.0
  0
LINE
  5
2D9
330
2C2
100
AcDbEntity
  8
DAMAN
100
AcDbLine
 10
-0.5428350000000001
 20
6.058012999999999
 30
0.0
 11
-0.5
 21
5.983820999999999
 31
0.0
  0
LINE
  5
2DA
330
2C2
100
AcDbEntity
  8
DAMAN
100
AcDbLine
 10
-0.8125
 20
6.058012999999999
 30
0.0
 11
-0.5428350000000001
 21
6.058012999999999
 31
0.0
  0
LINE
  5
2DB
330
2C2
100
AcDbEntity
  8
DAMAN
100
AcDbLine
 10
-0.875
 20
6.15625
 30
0.0
 11
-0.8125
 21
6.15625
 31
0.0
  0
LINE
  5
2DC
330
2C2
100
AcDbEntity
  8
DAMAN
100
AcDbLine
 10
-0.8125
 20
5.841505999999999
 30
0.0
 11
-0.5625
 21
5.841505999999999
 31
0.0
  0
ARC
  5
2DD
330
2C2
100
AcDbEntity
  8
DAMAN
100
AcDbCircle
 10
-0.625
 20
5.30024
 30
0.0
 40
0.125
100
AcDbArc
 50
300.0
 51
60.0
  0
LINE
  5
2DE
330
2C2
100
AcDbEntity
  8
DAMAN
100
AcDbLine
 10
-0.8125
 20
5.408494
 30
0.0
 11
-0.5625
 21
5.408494
 31
0.0
  0
LINE
  5
2DF
330
2C2
100
AcDbEntity
  8
DAMAN
100
AcDbLine
 10
-0.5428350000000001
 20
5.191987
 30
0.0
 11
-0.8125
 21
5.191987
 31
0.0
  0
LINE
  5
2E0
330
2C2
100
AcDbEntity
  8
DAMAN
100
AcDbLine
 10
-0.8125
 20
5.09375
 30
0.0
 11
-0.875
 21
5.09375
 31
0.0
  0
LINE
  5
2E1
330
2C2
100
AcDbEntity
  8
DAMAN
100
AcDbLine
 10
-0.5428350000000001
 20
5.191987
 30
0.0
 11
-0.5
 21
5.266179
 31
0.0
  0
CIRCLE
  5
2E2
330
2C2
100
AcDbEntity
  8
DAMAN
100
AcDbCircle
 10
0.0
 20
5.625
 30
0.0
 40
0.53125
  0
CIRCLE
  5
2E3
330
2C2
100
AcDbEntity
  8
DAMAN
100
AcDbCircle
 10
0.0
 20
0.0
 30
0.0
 40
0.53125
  0
LWPOLYLINE
  5
2E4
330
2C2
100
AcDbEntity
  8
DAMAN
100
AcDbPolyline
 90
        6
 70
     1
 43
0.0
 10
0.375
 20
5.841505999999999
 10
0.0
 20
6.058012999999999
 10
-0.375
 20
5.841505999999999
 10
-0.375
 20
5.408494
 10
0.0
 20
5.191987
 10
0.375
 20
5.408494
  0
CIRCLE
  5
2E5
330
2C2
100
AcDbEntity
  8
DAMAN
100
AcDbCircle
 10
0.0
 20
5.625
 30
0.0
 40
0.375
  0
CIRCLE
  5
2E6
330
2C2
100
AcDbEntity
  8
DAMAN
100
AcDbCircle
 10
0.0
 20
0.0
 30
0.0
 40
0.375
  0
LWPOLYLINE
  5
2E7
330
2C2
100
AcDbEntity
  8
DAMAN
100
AcDbPolyline
 90
        6
 70
     1
 43
0.0
 10
0.375
 20
0.216506
 10
0.0
 20
0.4330130000000001
 10
-0.375
 20
0.216506
 10
-0.375
 20
-0.216506
 10
0.0
 20
-0.4330130000000001
 10
0.375
 20
-0.216506
  0
INSERT
  5
2E8
330
2C2
100
AcDbEntity
  8
DAMAN
100
AcDbBlockReference
  2
100CROSS
 10
0.0
 20
5.625
 30
0.0
 41
0.8
 42
0.8
  0
INSERT
  5
2E9
330
2C2
100
AcDbEntity
  8
DAMAN
100
AcDbBlockReference
  2
100CROSS
 10
0.0
 20
0.0
 30
0.0
 41
0.8
 42
0.8
  0
ENDBLK
  5
2EB
330
2C2
100
AcDbEntity
  8
0
100
AcDbBlockEnd
  0
BLOCK
  5
2EE
330
2EC
100
AcDbEntity
  8
0
100
AcDbBlockBegin
  2
A$C38F71B80
 70
     0
 10
0.0
 20
0.0
 30
0.0
  3
A$C38F71B80
  1

  0
INSERT
  5
2ED
330
2EC
100
AcDbEntity
  8
DAMAN
100
AcDbBlockReference
  2
700MKCT
 10
-1.0625
 20
-0.6875
 30
0.0
 50
180.0
  0
ENDBLK
  5
2EF
330
2EC
100
AcDbEntity
  8
0
100
AcDbBlockEnd
  0
BLOCK
  5
322
330
2F7
100
AcDbEntity
  8
0
100
AcDbBlockBegin
  2
600MKS
 70
     0
 10
0.0
 20
0.0
 30
0.0
  3
600MKS
  1

  0
LINE
  5
2F8
330
2F7
100
AcDbEntity
  8
DAMAN
100
AcDbLine
 10
-1.625
 20
-0.5625
 30
0.0
 11
-1.625
 21
-0.375
 31
0.0
  0
LINE
  5
2F9
330
2F7
100
AcDbEntity
  8
DAMAN
100
AcDbLine
 10
-1.625
 20
-0.375
 30
0.0
 11
-0.4375
 21
-0.375
 31
0.0
  0
LINE
  5
2FA
330
2F7
100
AcDbEntity
  8
DAMAN
100
AcDbLine
 10
-0.1875
 20
-0.125
 30
0.0
 11
-0.1875
 21
1.0625
 31
0.0
  0
LINE
  5
2FB
330
2F7
100
AcDbEntity
  8
DAMAN
100
AcDbLine
 10
-0.1875
 20
1.0625
 30
0.0
 11
0.0
 21
1.0625
 31
0.0
  0
LINE
  5
2FC
330
2F7
100
AcDbEntity
  8
DAMAN
100
AcDbLine
 10
0.0
 20
1.0625
 30
0.0
 11
0.0
 21
-0.125
 31
0.0
  0
LINE
  5
2FD
330
2F7
100
AcDbEntity
  8
DAMAN
100
AcDbLine
 10
-0.4375
 20
-0.5625
 30
0.0
 11
-1.625
 21
-0.5625
 31
0.0
  0
ARC
  5
2FE
330
2F7
100
AcDbEntity
  8
DAMAN
100
AcDbCircle
 10
-0.4375
 20
-0.125
 30
0.0
 40
0.25
100
AcDbArc
 50
270.0
 51
0.0
  0
ARC
  5
2FF
330
2F7
100
AcDbEntity
  8
DAMAN
100
AcDbCircle
 10
-0.4375
 20
-0.125
 30
0.0
 40
0.4375
100
AcDbArc
 50
270.0
 51
0.0
  0
LINE
  5
300
330
2F7
100
AcDbEntity
  8
DAMAN
100
AcDbLine
 10
-1.59375
 20
-0.375
 30
0.0
 11
-1.59375
 21
-0.3125
 31
0.0
  0
LINE
  5
301
330
2F7
100
AcDbEntity
  8
DAMAN
100
AcDbLine
 10
-1.59375
 20
-0.3125
 30
0.0
 11
-0.53125
 21
-0.3125
 31
0.0
  0
LINE
  5
302
330
2F7
100
AcDbEntity
  8
DAMAN
100
AcDbLine
 10
-0.53125
 20
-0.3125
 30
0.0
 11
-0.53125
 21
-0.375
 31
0.0
  0
LINE
  5
303
330
2F7
100
AcDbEntity
  8
DAMAN
100
AcDbLine
 10
-1.495512999999999
 20
-0.3125
 30
0.0
 11
-1.495512999999999
 21
-0.042835
 31
0.0
  0
LINE
  5
304
330
2F7
100
AcDbEntity
  8
DAMAN
100
AcDbLine
 10
-1.421320999999999
 20
0.0
 30
0.0
 11
-0.703679
 21
0.0
 31
0.0
  0
LINE
  5
305
330
2F7
100
AcDbEntity
  8
DAMAN
100
AcDbLine
 10
-0.6294870000000001
 20
-0.042835
 30
0.0
 11
-0.6294870000000001
 21
-0.3125
 31
0.0
  0
LINE
  5
306
330
2F7
100
AcDbEntity
  8
DAMAN
100
AcDbLine
 10
-1.279005999999999
 20
-0.3125
 30
0.0
 11
-1.279005999999999
 21
-0.0625
 31
0.0
  0
LINE
  5
307
330
2F7
100
AcDbEntity
  8
DAMAN
100
AcDbLine
 10
-0.8459939999999999
 20
-0.3125
 30
0.0
 11
-0.8459939999999999
 21
-0.0625
 31
0.0
  0
ARC
  5
308
330
2F7
100
AcDbEntity
  8
DAMAN
100
AcDbCircle
 10
-1.0625
 20
-0.40625
 30
0.0
 40
0.40625
100
AcDbArc
 50
57.79577200000001
 51
122.2042279999999
  0
ARC
  5
309
330
2F7
100
AcDbEntity
  8
DAMAN
100
AcDbCircle
 10
-0.73774
 20
-0.125
 30
0.0
 40
0.125
100
AcDbArc
 50
30.0
 51
150.0
  0
ARC
  5
30A
330
2F7
100
AcDbEntity
  8
DAMAN
100
AcDbCircle
 10
-1.387259999999999
 20
-0.125
 30
0.0
 40
0.125
100
AcDbArc
 50
30.0
 51
150.0
  0
LINE
  5
30B
330
2F7
100
AcDbEntity
  8
DAMAN
100
AcDbLine
 10
-1.495512999999999
 20
-0.042835
 30
0.0
 11
-1.421320999999999
 21
0.0
 31
0.0
  0
LINE
  5
30C
330
2F7
100
AcDbEntity
  8
DAMAN
100
AcDbLine
 10
-0.6294870000000001
 20
-0.042835
 30
0.0
 11
-0.703679
 21
0.0
 31
0.0
  0
LINE
  5
30D
330
2F7
100
AcDbEntity
  8
DAMAN
100
AcDbLine
 10
-1.3125
 20
-0.5625
 30
0.0
 11
-1.3125
 21
-1.28125
 31
0.0
  0
LINE
  5
30E
330
2F7
100
AcDbEntity
  8
DAMAN
100
AcDbLine
 10
-1.3125
 20
-1.28125
 30
0.0
 11
-1.28125
 21
-1.3125
 31
0.0
  0
LINE
  5
30F
330
2F7
100
AcDbEntity
  8
DAMAN
100
AcDbLine
 10
-1.28125
 20
-1.3125
 30
0.0
 11
-0.84375
 21
-1.3125
 31
0.0
  0
LINE
  5
310
330
2F7
100
AcDbEntity
  8
DAMAN
100
AcDbLine
 10
-0.84375
 20
-1.3125
 30
0.0
 11
-0.8125
 21
-1.28125
 31
0.0
  0
LINE
  5
311
330
2F7
100
AcDbEntity
  8
DAMAN
100
AcDbLine
 10
-0.8125
 20
-1.28125
 30
0.0
 11
-0.8125
 21
-0.5625
 31
0.0
  0
LINE
  5
312
330
2F7
100
AcDbEntity
  8
DAMAN
100
AcDbLine
 10
-1.28125
 20
-0.5625
 30
0.0
 11
-1.28125
 21
-1.3125
 31
0.0
  0
LINE
  5
313
330
2F7
100
AcDbEntity
  8
DAMAN
100
AcDbLine
 10
-0.84375
 20
-0.5625
 30
0.0
 11
-0.84375
 21
-1.3125
 31
0.0
  0
LINE
  5
314
330
2F7
100
AcDbEntity
  8
DAMAN
100
AcDbLine
 10
-1.0625
 20
0.125
 30
0.0
 11
-1.0625
 21
-1.40625
 31
0.0
  0
LINE
  5
315
330
2F7
100
AcDbEntity
  8
DAMAN
100
AcDbLine
 10
-0.5196649999999999
 20
0.9330129999999998
 30
0.0
 11
-0.5625
 21
0.858821
 31
0.0
  0
LINE
  5
316
330
2F7
100
AcDbEntity
  8
DAMAN
100
AcDbLine
 10
-0.5196649999999999
 20
0.066987
 30
0.0
 11
-0.5625
 21
0.141179
 31
0.0
  0
ARC
  5
317
330
2F7
100
AcDbEntity
  8
DAMAN
100
AcDbCircle
 10
-0.4375
 20
0.17524
 30
0.0
 40
0.125
100
AcDbArc
 50
119.9999999999999
 51
239.9999999999999
  0
ARC
  5
318
330
2F7
100
AcDbEntity
  8
DAMAN
100
AcDbCircle
 10
-0.4375
 20
0.82476
 30
0.0
 40
0.125
100
AcDbArc
 50
119.9999999999999
 51
239.9999999999999
  0
ARC
  5
319
330
2F7
100
AcDbEntity
  8
DAMAN
100
AcDbCircle
 10
-0.15625
 20
0.5
 30
0.0
 40
0.40625
100
AcDbArc
 50
147.795772
 51
212.2042279999999
  0
LINE
  5
31A
330
2F7
100
AcDbEntity
  8
DAMAN
100
AcDbLine
 10
-0.25
 20
0.7165060000000001
 30
0.0
 11
-0.5
 21
0.7165060000000001
 31
0.0
  0
LINE
  5
31B
330
2F7
100
AcDbEntity
  8
DAMAN
100
AcDbLine
 10
-0.25
 20
0.283494
 30
0.0
 11
-0.5
 21
0.283494
 31
0.0
  0
LINE
  5
31C
330
2F7
100
AcDbEntity
  8
DAMAN
100
AcDbLine
 10
-0.5196649999999999
 20
0.9330129999999998
 30
0.0
 11
-0.25
 21
0.9330129999999998
 31
0.0
  0
LINE
  5
31D
330
2F7
100
AcDbEntity
  8
DAMAN
100
AcDbLine
 10
-0.5625
 20
0.141179
 30
0.0
 11
-0.5625
 21
0.858821
 31
0.0
  0
LINE
  5
31E
330
2F7
100
AcDbEntity
  8
DAMAN
100
AcDbLine
 10
-0.25
 20
0.066987
 30
0.0
 11
-0.5196649999999999
 21
0.066987
 31
0.0
  0
LINE
  5
31F
330
2F7
100
AcDbEntity
  8
DAMAN
100
AcDbLine
 10
-0.25
 20
1.03125
 30
0.0
 11
-0.1875
 21
1.03125
 31
0.0
  0
LINE
  5
320
330
2F7
100
AcDbEntity
  8
DAMAN
100
AcDbLine
 10
-0.25
 20
-0.03125
 30
0.0
 11
-0.25
 21
1.03125
 31
0.0
  0
LINE
  5
321
330
2F7
100
AcDbEntity
  8
DAMAN
100
AcDbLine
 10
-0.1875
 20
-0.03125
 30
0.0
 11
-0.25
 21
-0.03125
 31
0.0
  0
ENDBLK
  5
323
330
2F7
100
AcDbEntity
  8
0
100
AcDbBlockEnd
  0
ENDSEC
  0
SECTION
  2
ENTITIES
  0
LINE
  5
2F
330
1E
100
AcDbEntity
  8
0
  6
CONTINUOUS
 62
     5
100
AcDbLine
 10
31.0
 20
19.125
 30
0.0
 11
25.0
 21
19.125
 31
0.0
  0
LINE
  5
35
330
1E
100
AcDbEntity
  8
0
  6
CONTINUOUS
 62
     5
100
AcDbLine
 10
29.281
 20
17.457
 30
0.0
 11
29.281
 21
17.981
 31
0.0
  0
LINE
  5
36
330
1E
100
AcDbEntity
  8
0
  6
CONTINUOUS
 62
     5
100
AcDbLine
 10
27.375
 20
17.125
 30
0.0
 11
28.875
 21
17.125
 31
0.0
  0
LINE
  5
37
330
1E
100
AcDbEntity
  8
0
  6
CONTINUOUS
 62
     5
100
AcDbLine
 10
29.281
 20
16.269
 30
0.0
 11
29.281
 21
16.794
 31
0.0
  0
LINE
  5
38
330
1E
100
AcDbEntity
  8
0
  6
CONTINUOUS
 62
     5
100
AcDbLine
 10
28.125
 20
16.375
 30
0.0
 11
28.125
 21
17.875
 31
0.0
  0
CIRCLE
  5
39
330
1E
100
AcDbEntity
  8
0
  6
CONTINUOUS
 62
     5
100
AcDbCircle
 10
28.125
 20
17.125
 30
0.0
 40
0.625
  0
LINE
  5
3A
330
1E
100
AcDbEntity
  8
0
  6
CONTINUOUS
 62
     5
100
AcDbLine
 10
29.018
 20
17.719
 30
0.0
 11
29.54299999999999
 21
17.719
 31
0.0
  0
ARC
  5
3B
330
1E
100
AcDbEntity
  8
0
  6
CONTINUOUS
 62
     5
100
AcDbCircle
 10
29.281
 20
17.719
 30
0.0
 40
0.215
100
AcDbArc
 50
85.00000099999999
 51
5.0
  0
CIRCLE
  5
3C
330
1E
100
AcDbEntity
  8
0
  6
CONTINUOUS
 62
     5
100
AcDbCircle
 10
29.281
 20
17.719
 30
0.0
 40
0.184
  0
CIRCLE
  5
3D
330
1E
100
AcDbEntity
  8
0
  6
CONTINUOUS
 62
     5
100
AcDbCircle
 10
29.281
 20
17.719
 30
0.0
 40
0.219
  0
ARC
  5
3E
330
1E
100
AcDbEntity
  8
0
  6
CONTINUOUS
 62
     5
100
AcDbCircle
 10
29.281
 20
16.531
 30
0.0
 40
0.215
100
AcDbArc
 50
85.00000099999999
 51
5.0
  0
CIRCLE
  5
3F
330
1E
100
AcDbEntity
  8
0
  6
CONTINUOUS
 62
     5
100
AcDbCircle
 10
29.281
 20
16.531
 30
0.0
 40
0.184
  0
CIRCLE
  5
40
330
1E
100
AcDbEntity
  8
0
  6
CONTINUOUS
 62
     5
100
AcDbCircle
 10
29.281
 20
16.531
 30
0.0
 40
0.219
  0
LINE
  5
41
330
1E
100
AcDbEntity
  8
0
  6
CONTINUOUS
 62
     5
100
AcDbLine
 10
29.018
 20
16.531
 30
0.0
 11
29.54299999999999
 21
16.531
 31
0.0
  0
LINE
  5
42
330
1E
100
AcDbEntity
  8
0
  6
CONTINUOUS
 62
     5
100
AcDbLine
 10
29.219
 20
14.603
 30
0.0
 11
29.219
 21
15.053
 31
0.0
  0
LINE
  5
43
330
1E
100
AcDbEntity
  8
0
  6
CONTINUOUS
 62
     5
100
AcDbLine
 10
27.156
 20
14.603
 30
0.0
 11
27.156
 21
15.053
 31
0.0
  0
LINE
  5
44
330
1E
100
AcDbEntity
  8
0
  6
CONTINUOUS
 62
     5
100
AcDbLine
 10
27.587
 20
14.313
 30
0.0
 11
28.788
 21
14.313
 31
0.0
  0
LINE
  5
45
330
1E
100
AcDbEntity
  8
0
  6
CONTINUOUS
 62
     5
100
AcDbLine
 10
29.218
 20
13.573
 30
0.0
 11
29.218
 21
14.023
 31
0.0
  0
LINE
  5
46
330
1E
100
AcDbEntity
  8
0
  6
CONTINUOUS
 62
     5
100
AcDbLine
 10
27.156
 20
13.573
 30
0.0
 11
27.156
 21
14.023
 31
0.0
  0
LINE
  5
47
330
1E
100
AcDbEntity
  8
0
  6
CONTINUOUS
 62
     5
100
AcDbLine
 10
28.187
 20
13.71299999999999
 30
0.0
 11
28.187
 21
14.913
 31
0.0
  0
CIRCLE
  5
48
330
1E
100
AcDbEntity
  8
0
  6
CONTINUOUS
 62
     5
100
AcDbCircle
 10
28.187
 20
14.313
 30
0.0
 40
0.5
  0
LINE
  5
49
330
1E
100
AcDbEntity
  8
0
  6
CONTINUOUS
 62
     5
100
AcDbLine
 10
28.99399999999999
 20
14.828
 30
0.0
 11
29.44399999999999
 21
14.828
 31
0.0
  0
ARC
  5
4A
330
1E
100
AcDbEntity
  8
0
  6
CONTINUOUS
 62
     5
100
AcDbCircle
 10
29.219
 20
14.828
 30
0.0
 40
0.183
100
AcDbArc
 50
85.00000099999999
 51
5.0
  0
CIRCLE
  5
4B
330
1E
100
AcDbEntity
  8
0
  6
CONTINUOUS
 62
     5
100
AcDbCircle
 10
29.219
 20
14.828
 30
0.0
 40
0.156
  0
CIRCLE
  5
4C
330
1E
100
AcDbEntity
  8
0
  6
CONTINUOUS
 62
     5
100
AcDbCircle
 10
29.219
 20
14.828
 30
0.0
 40
0.188
  0
ARC
  5
4D
330
1E
100
AcDbEntity
  8
0
  6
CONTINUOUS
 62
     5
100
AcDbCircle
 10
29.218
 20
13.798
 30
0.0
 40
0.183
100
AcDbArc
 50
85.00000099999999
 51
5.0
  0
CIRCLE
  5
4E
330
1E
100
AcDbEntity
  8
0
  6
CONTINUOUS
 62
     5
100
AcDbCircle
 10
29.218
 20
13.798
 30
0.0
 40
0.156
  0
CIRCLE
  5
4F
330
1E
100
AcDbEntity
  8
0
  6
CONTINUOUS
 62
     5
100
AcDbCircle
 10
29.218
 20
13.798
 30
0.0
 40
0.188
  0
LINE
  5
50
330
1E
100
AcDbEntity
  8
0
  6
CONTINUOUS
 62
     5
100
AcDbLine
 10
28.993
 20
13.798
 30
0.0
 11
29.44399999999999
 21
13.798
 31
0.0
  0
TEXT
  5
51
330
1E
100
AcDbEntity
  8
0
 62
     5
100
AcDbText
 10
26.262917
 20
17.06656249999999
 30
0.0
 40
0.2125
  1
T
 50
90.0
 41
0.825
 72
     4
 11
26.156667
 21
17.125
 31
0.0
100
AcDbText
  0
TEXT
  5
52
330
1E
100
AcDbEntity
  8
0
 62
     5
100
AcDbText
 10
26.262917
 20
17.06656249999999
 30
0.0
 40
0.2125
  1
T
 50
90.0
 41
0.825
 72
     4
 11
26.156667
 21
17.125
 31
0.0
100
AcDbText
  0
LINE
  5
53
330
1E
100
AcDbEntity
  8
0
  6
CONTINUOUS
 62
     5
100
AcDbLine
 10
26.968
 20
17.457
 30
0.0
 11
26.968
 21
17.981
 31
0.0
  0
LINE
  5
54
330
1E
100
AcDbEntity
  8
0
  6
CONTINUOUS
 62
     5
100
AcDbLine
 10
26.968
 20
16.269
 30
0.0
 11
26.968
 21
16.794
 31
0.0
  0
TEXT
  5
55
330
1E
100
AcDbEntity
  8
0
 62
     5
100
AcDbText
 10
26.51291699999999
 20
14.2545625
 30
0.0
 40
0.2125
  1
P
 50
90.0
 41
0.825
 72
     4
 11
26.406667
 21
14.313
 31
0.0
100
AcDbText
  0
TEXT
  5
56
330
1E
100
AcDbEntity
  8
0
 62
     5
100
AcDbText
 10
26.51291699999999
 20
14.2545625
 30
0.0
 40
0.2125
  1
P
 50
90.0
 41
0.825
 72
     4
 11
26.406667
 21
14.313
 31
0.0
100
AcDbText
  0
LINE
  5
57
330
1E
100
AcDbEntity
  8
0
  6
CONTINUOUS
 62
     5
100
AcDbLine
 10
26.706
 20
17.719
 30
0.0
 11
27.231
 21
17.719
 31
0.0
  0
ARC
  5
58
330
1E
100
AcDbEntity
  8
0
  6
CONTINUOUS
 62
     5
100
AcDbCircle
 10
26.968
 20
17.719
 30
0.0
 40
0.215
100
AcDbArc
 50
85.00000099999999
 51
5.0
  0
CIRCLE
  5
59
330
1E
100
AcDbEntity
  8
0
  6
CONTINUOUS
 62
     5
100
AcDbCircle
 10
26.968
 20
17.719
 30
0.0
 40
0.184
  0
CIRCLE
  5
5A
330
1E
100
AcDbEntity
  8
0
  6
CONTINUOUS
 62
     5
100
AcDbCircle
 10
26.968
 20
17.719
 30
0.0
 40
0.219
  0
LINE
  5
5B
330
1E
100
AcDbEntity
  8
0
  6
CONTINUOUS
 62
     5
100
AcDbLine
 10
26.706
 20
16.531
 30
0.0
 11
27.231
 21
16.531
 31
0.0
  0
ARC
  5
5C
330
1E
100
AcDbEntity
  8
0
  6
CONTINUOUS
 62
     5
100
AcDbCircle
 10
26.968
 20
16.531
 30
0.0
 40
0.215
100
AcDbArc
 50
85.00000099999999
 51
5.0
  0
CIRCLE
  5
5D
330
1E
100
AcDbEntity
  8
0
  6
CONTINUOUS
 62
     5
100
AcDbCircle
 10
26.968
 20
16.531
 30
0.0
 40
0.184
  0
CIRCLE
  5
5E
330
1E
100
AcDbEntity
  8
0
  6
CONTINUOUS
 62
     5
100
AcDbCircle
 10
26.968
 20
16.531
 30
0.0
 40
0.219
  0
LINE
  5
5F
330
1E
100
AcDbEntity
  8
0
  6
CONTINUOUS
 62
     5
100
AcDbLine
 10
26.931
 20
14.828
 30
0.0
 11
27.381
 21
14.828
 31
0.0
  0
ARC
  5
60
330
1E
100
AcDbEntity
  8
0
  6
CONTINUOUS
 62
     5
100
AcDbCircle
 10
27.156
 20
14.828
 30
0.0
 40
0.183
100
AcDbArc
 50
85.00000099999999
 51
5.0
  0
CIRCLE
  5
61
330
1E
100
AcDbEntity
  8
0
  6
CONTINUOUS
 62
     5
100
AcDbCircle
 10
27.156
 20
14.828
 30
0.0
 40
0.156
  0
CIRCLE
  5
62
330
1E
100
AcDbEntity
  8
0
  6
CONTINUOUS
 62
     5
100
AcDbCircle
 10
27.156
 20
14.828
 30
0.0
 40
0.188
  0
LINE
  5
63
330
1E
100
AcDbEntity
  8
0
  6
CONTINUOUS
 62
     5
100
AcDbLine
 10
26.931
 20
13.798
 30
0.0
 11
27.381
 21
13.798
 31
0.0
  0
ARC
  5
64
330
1E
100
AcDbEntity
  8
0
  6
CONTINUOUS
 62
     5
100
AcDbCircle
 10
27.156
 20
13.798
 30
0.0
 40
0.183
100
AcDbArc
 50
85.00000099999999
 51
5.0
  0
CIRCLE
  5
65
330
1E
100
AcDbEntity
  8
0
  6
CONTINUOUS
 62
     5
100
AcDbCircle
 10
27.156
 20
13.798
 30
0.0
 40
0.156
  0
CIRCLE
  5
66
330
1E
100
AcDbEntity
  8
0
  6
CONTINUOUS
 62
     5
100
AcDbCircle
 10
27.156
 20
13.798
 30
0.0
 40
0.188
  0
LINE
  5
6C
330
1E
100
AcDbEntity
  8
0
  6
CONTINUOUS
 62
     5
100
AcDbLine
 10
25.0
 20
12.125
 30
0.0
 11
31.0
 21
12.125
 31
0.0
  0
LINE
  5
6D
330
1E
100
AcDbEntity
  8
0
  6
CONTINUOUS
 62
     5
100
AcDbLine
 10
22.5
 20
9.625
 30
0.0
 11
22.5
 21
3.625
 31
0.0
  0
LINE
  5
6F
330
1E
100
AcDbEntity
  8
0
  6
CONTINUOUS
 62
     5
100
AcDbLine
 10
22.5
 20
12.125
 30
0.0
 11
22.5
 21
19.125
 31
0.0
  0
LINE
  5
70
330
1E
100
AcDbEntity
  8
0
  6
CONTINUOUS
 62
     5
100
AcDbLine
 10
25.0
 20
19.125
 30
0.0
 11
25.0
 21
12.125
 31
0.0
  0
LINE
  5
71
330
1E
100
AcDbEntity
  8
0
  6
CONTINUOUS
 62
     5
100
AcDbLine
 10
20.695
 20
16.419
 30
0.0
 11
20.644
 21
16.444
 31
0.0
  0
LINE
  5
72
330
1E
100
AcDbEntity
  8
0
  6
CONTINUOUS
 62
     5
100
AcDbLine
 10
20.644
 20
16.444
 30
0.0
 11
20.588
 21
16.459
 31
0.0
  0
LINE
  5
73
330
1E
100
AcDbEntity
  8
0
  6
CONTINUOUS
 62
     5
100
AcDbLine
 10
20.588
 20
16.459
 30
0.0
 11
20.53199999999999
 21
16.465
 31
0.0
  0
LINE
  5
74
330
1E
100
AcDbEntity
  8
0
  6
CONTINUOUS
 62
     5
100
AcDbLine
 10
20.53199999999999
 20
16.465
 30
0.0
 11
20.475
 21
16.459
 31
0.0
  0
LINE
  5
75
330
1E
100
AcDbEntity
  8
0
  6
CONTINUOUS
 62
     5
100
AcDbLine
 10
20.475
 20
16.459
 30
0.0
 11
20.419
 21
16.444
 31
0.0
  0
LINE
  5
76
330
1E
100
AcDbEntity
  8
0
  6
CONTINUOUS
 62
     5
100
AcDbLine
 10
20.419
 20
16.444
 30
0.0
 11
20.36799999999999
 21
16.419
 31
0.0
  0
LINE
  5
77
330
1E
100
AcDbEntity
  8
0
  6
CONTINUOUS
 62
     5
100
AcDbLine
 10
20.84
 20
16.241
 30
0.0
 11
20.81599999999999
 21
16.295
 31
0.0
  0
LINE
  5
78
330
1E
100
AcDbEntity
  8
0
  6
CONTINUOUS
 62
     5
100
AcDbLine
 10
20.81599999999999
 20
16.295
 30
0.0
 11
20.783
 21
16.343
 31
0.0
  0
LINE
  5
79
330
1E
100
AcDbEntity
  8
0
  6
CONTINUOUS
 62
     5
100
AcDbLine
 10
20.28
 20
16.343
 30
0.0
 11
20.247
 21
16.295
 31
0.0
  0
LINE
  5
7A
330
1E
100
AcDbEntity
  8
0
  6
CONTINUOUS
 62
     5
100
AcDbLine
 10
20.247
 20
16.295
 30
0.0
 11
20.22299999999999
 21
16.241
 31
0.0
  0
LINE
  5
7B
330
1E
100
AcDbEntity
  8
0
  6
CONTINUOUS
 62
     5
100
AcDbLine
 10
20.783
 20
16.343
 30
0.0
 11
20.742
 21
16.385
 31
0.0
  0
LINE
  5
7C
330
1E
100
AcDbEntity
  8
0
  6
CONTINUOUS
 62
     5
100
AcDbLine
 10
20.742
 20
16.385
 30
0.0
 11
20.695
 21
16.419
 31
0.0
  0
LINE
  5
7D
330
1E
100
AcDbEntity
  8
0
  6
CONTINUOUS
 62
     5
100
AcDbLine
 10
20.36799999999999
 20
16.419
 30
0.0
 11
20.321
 21
16.385
 31
0.0
  0
LINE
  5
7E
330
1E
100
AcDbEntity
  8
0
  6
CONTINUOUS
 62
     5
100
AcDbLine
 10
20.321
 20
16.385
 30
0.0
 11
20.28
 21
16.343
 31
0.0
  0
LINE
  5
7F
330
1E
100
AcDbEntity
  8
0
  6
CONTINUOUS
 62
     5
100
AcDbLine
 10
20.86899999999999
 20
16.844
 30
0.0
 11
21.31899999999999
 21
16.844
 31
0.0
  0
ARC
  5
80
330
1E
100
AcDbEntity
  8
0
  6
CONTINUOUS
 62
     5
100
AcDbCircle
 10
21.094
 20
16.844
 30
0.0
 40
0.183
100
AcDbArc
 50
85.00000099999999
 51
5.0
  0
CIRCLE
  5
81
330
1E
100
AcDbEntity
  8
0
  6
CONTINUOUS
 62
     5
100
AcDbCircle
 10
21.094
 20
16.844
 30
0.0
 40
0.156
  0
CIRCLE
  5
82
330
1E
100
AcDbEntity
  8
0
  6
CONTINUOUS
 62
     5
100
AcDbCircle
 10
21.094
 20
16.844
 30
0.0
 40
0.188
  0
LINE
  5
83
330
1E
100
AcDbEntity
  8
0
  6
CONTINUOUS
 62
     5
100
AcDbLine
 10
20.855
 20
16.184
 30
0.0
 11
20.84
 21
16.241
 31
0.0
  0
LINE
  5
84
330
1E
100
AcDbEntity
  8
0
  6
CONTINUOUS
 62
     5
100
AcDbLine
 10
20.22299999999999
 20
16.241
 30
0.0
 11
20.20799999999999
 21
16.184
 31
0.0
  0
LINE
  5
85
330
1E
100
AcDbEntity
  8
0
  6
CONTINUOUS
 62
     5
100
AcDbLine
 10
20.138
 20
16.125
 30
0.0
 11
20.925
 21
16.125
 31
0.0
  0
LINE
  5
86
330
1E
100
AcDbEntity
  8
0
  6
CONTINUOUS
 62
     5
100
AcDbLine
 10
20.85999999999999
 20
16.125
 30
0.0
 11
20.855
 21
16.184
 31
0.0
  0
LINE
  5
87
330
1E
100
AcDbEntity
  8
0
  6
CONTINUOUS
 62
     5
100
AcDbLine
 10
20.20799999999999
 20
16.184
 30
0.0
 11
20.203
 21
16.125
 31
0.0
  0
LINE
  5
88
330
1E
100
AcDbEntity
  8
0
  6
CONTINUOUS
 62
     5
100
AcDbLine
 10
21.094
 20
16.619
 30
0.0
 11
21.094
 21
17.069
 31
0.0
  0
LINE
  5
89
330
1E
100
AcDbEntity
  8
0
  6
CONTINUOUS
 62
     5
100
AcDbLine
 10
18.11899999999999
 20
16.844
 30
0.0
 11
18.56899999999999
 21
16.844
 31
0.0
  0
ARC
  5
8A
330
1E
100
AcDbEntity
  8
0
  6
CONTINUOUS
 62
     5
100
AcDbCircle
 10
18.344
 20
16.844
 30
0.0
 40
0.183
100
AcDbArc
 50
85.00000099999999
 51
5.0
  0
CIRCLE
  5
8B
330
1E
100
AcDbEntity
  8
0
  6
CONTINUOUS
 62
     5
100
AcDbCircle
 10
18.344
 20
16.844
 30
0.0
 40
0.156
  0
CIRCLE
  5
8C
330
1E
100
AcDbEntity
  8
0
  6
CONTINUOUS
 62
     5
100
AcDbCircle
 10
18.344
 20
16.844
 30
0.0
 40
0.188
  0
LINE
  5
8D
330
1E
100
AcDbEntity
  8
0
  6
CONTINUOUS
 62
     5
100
AcDbLine
 10
18.23999999999999
 20
16.125
 30
0.0
 11
18.44699999999999
 21
16.125
 31
0.0
  0
LINE
  5
8E
330
1E
100
AcDbEntity
  8
0
  6
CONTINUOUS
 62
     5
100
AcDbLine
 10
18.344
 20
16.619
 30
0.0
 11
18.344
 21
17.069
 31
0.0
  0
LINE
  5
8F
330
1E
100
AcDbEntity
  8
0
  6
CONTINUOUS
 62
     5
100
AcDbLine
 10
20.22299999999999
 20
16.009
 30
0.0
 11
20.247
 21
15.955
 31
0.0
  0
LINE
  5
90
330
1E
100
AcDbEntity
  8
0
  6
CONTINUOUS
 62
     5
100
AcDbLine
 10
20.247
 20
15.955
 30
0.0
 11
20.28
 21
15.907
 31
0.0
  0
LINE
  5
91
330
1E
100
AcDbEntity
  8
0
  6
CONTINUOUS
 62
     5
100
AcDbLine
 10
20.28
 20
15.907
 30
0.0
 11
20.321
 21
15.865
 31
0.0
  0
LINE
  5
92
330
1E
100
AcDbEntity
  8
0
  6
CONTINUOUS
 62
     5
100
AcDbLine
 10
20.321
 20
15.865
 30
0.0
 11
20.36799999999999
 21
15.83099999999999
 31
0.0
  0
LINE
  5
93
330
1E
100
AcDbEntity
  8
0
  6
CONTINUOUS
 62
     5
100
AcDbLine
 10
20.36799999999999
 20
15.83099999999999
 30
0.0
 11
20.419
 21
15.806
 31
0.0
  0
LINE
  5
94
330
1E
100
AcDbEntity
  8
0
  6
CONTINUOUS
 62
     5
100
AcDbLine
 10
20.419
 20
15.806
 30
0.0
 11
20.475
 21
15.791
 31
0.0
  0
LINE
  5
95
330
1E
100
AcDbEntity
  8
0
  6
CONTINUOUS
 62
     5
100
AcDbLine
 10
20.475
 20
15.791
 30
0.0
 11
20.53199999999999
 21
15.785
 31
0.0
  0
LINE
  5
96
330
1E
100
AcDbEntity
  8
0
  6
CONTINUOUS
 62
     5
100
AcDbLine
 10
20.53199999999999
 20
15.785
 30
0.0
 11
20.588
 21
15.791
 31
0.0
  0
LINE
  5
97
330
1E
100
AcDbEntity
  8
0
  6
CONTINUOUS
 62
     5
100
AcDbLine
 10
20.588
 20
15.791
 30
0.0
 11
20.644
 21
15.806
 31
0.0
  0
LINE
  5
98
330
1E
100
AcDbEntity
  8
0
  6
CONTINUOUS
 62
     5
100
AcDbLine
 10
20.644
 20
15.806
 30
0.0
 11
20.695
 21
15.83099999999999
 31
0.0
  0
LINE
  5
99
330
1E
100
AcDbEntity
  8
0
  6
CONTINUOUS
 62
     5
100
AcDbLine
 10
20.695
 20
15.83099999999999
 30
0.0
 11
20.742
 21
15.865
 31
0.0
  0
LINE
  5
9A
330
1E
100
AcDbEntity
  8
0
  6
CONTINUOUS
 62
     5
100
AcDbLine
 10
20.742
 20
15.865
 30
0.0
 11
20.783
 21
15.907
 31
0.0
  0
LINE
  5
9B
330
1E
100
AcDbEntity
  8
0
  6
CONTINUOUS
 62
     5
100
AcDbLine
 10
20.783
 20
15.907
 30
0.0
 11
20.81599999999999
 21
15.955
 31
0.0
  0
LINE
  5
9C
330
1E
100
AcDbEntity
  8
0
  6
CONTINUOUS
 62
     5
100
AcDbLine
 10
20.81599999999999
 20
15.955
 30
0.0
 11
20.84
 21
16.009
 31
0.0
  0
LINE
  5
9D
330
1E
100
AcDbEntity
  8
0
  6
CONTINUOUS
 62
     5
100
AcDbLine
 10
20.119
 20
14.875
 30
0.0
 11
20.94399999999999
 21
14.875
 31
0.0
  0
LINE
  5
9E
330
1E
100
AcDbEntity
  8
0
  6
CONTINUOUS
 62
     5
100
AcDbLine
 10
21.007
 20
15.5
 30
0.0
 11
21.306
 21
15.5
 31
0.0
  0
ARC
  5
9F
330
1E
100
AcDbEntity
  8
0
  6
CONTINUOUS
 62
     5
100
AcDbCircle
 10
21.15699999999999
 20
15.5
 30
0.0
 40
0.118
100
AcDbArc
 50
85.00000099999999
 51
5.0
  0
CIRCLE
  5
A0
330
1E
100
AcDbEntity
  8
0
  6
CONTINUOUS
 62
     5
100
AcDbCircle
 10
21.15699999999999
 20
15.5
 30
0.0
 40
0.101
  0
CIRCLE
  5
A1
330
1E
100
AcDbEntity
  8
0
  6
CONTINUOUS
 62
     5
100
AcDbCircle
 10
21.15699999999999
 20
15.5
 30
0.0
 40
0.125
  0
LINE
  5
A2
330
1E
100
AcDbEntity
  8
0
  6
CONTINUOUS
 62
     5
100
AcDbLine
 10
20.53199999999999
 20
14.462
 30
0.0
 11
20.53199999999999
 21
15.288
 31
0.0
  0
CIRCLE
  5
A3
330
1E
100
AcDbEntity
  8
0
  6
CONTINUOUS
 62
     5
100
AcDbCircle
 10
20.53199999999999
 20
14.875
 30
0.0
 40
0.3439999999999999
  0
LINE
  5
A4
330
1E
100
AcDbEntity
  8
0
  6
CONTINUOUS
 62
     5
100
AcDbLine
 10
21.15699999999999
 20
15.35
 30
0.0
 11
21.15699999999999
 21
15.65
 31
0.0
  0
LINE
  5
A5
330
1E
100
AcDbEntity
  8
0
  6
CONTINUOUS
 62
     5
100
AcDbLine
 10
21.094
 20
13.725
 30
0.0
 11
21.094
 21
13.931
 31
0.0
  0
LINE
  5
A6
330
1E
100
AcDbEntity
  8
0
  6
CONTINUOUS
 62
     5
100
AcDbLine
 10
20.98999999999999
 20
13.828
 30
0.0
 11
21.19699999999999
 21
13.828
 31
0.0
  0
CIRCLE
  5
A7
330
1E
100
AcDbEntity
  8
0
  6
CONTINUOUS
 62
     5
100
AcDbCircle
 10
21.094
 20
13.828
 30
0.0
 40
0.086
  0
LINE
  5
A8
330
1E
100
AcDbEntity
  8
0
  6
CONTINUOUS
 62
     5
100
AcDbLine
 10
18.132
 20
14.875
 30
0.0
 11
18.431
 21
14.875
 31
0.0
  0
ARC
  5
A9
330
1E
100
AcDbEntity
  8
0
  6
CONTINUOUS
 62
     5
100
AcDbCircle
 10
18.282
 20
14.875
 30
0.0
 40
0.118
100
AcDbArc
 50
85.00000099999999
 51
5.0
  0
CIRCLE
  5
AA
330
1E
100
AcDbEntity
  8
0
  6
CONTINUOUS
 62
     5
100
AcDbCircle
 10
18.282
 20
14.875
 30
0.0
 40
0.101
  0
CIRCLE
  5
AB
330
1E
100
AcDbEntity
  8
0
  6
CONTINUOUS
 62
     5
100
AcDbCircle
 10
18.282
 20
14.875
 30
0.0
 40
0.125
  0
LINE
  5
AC
330
1E
100
AcDbEntity
  8
0
  6
CONTINUOUS
 62
     5
100
AcDbLine
 10
18.494
 20
15.5
 30
0.0
 11
19.31899999999999
 21
15.5
 31
0.0
  0
LINE
  5
AD
330
1E
100
AcDbEntity
  8
0
  6
CONTINUOUS
 62
     5
100
AcDbLine
 10
18.494
 20
14.25
 30
0.0
 11
19.31899999999999
 21
14.25
 31
0.0
  0
LINE
  5
AE
330
1E
100
AcDbEntity
  8
0
  6
CONTINUOUS
 62
     5
100
AcDbLine
 10
18.282
 20
14.725
 30
0.0
 11
18.282
 21
15.025
 31
0.0
  0
LINE
  5
AF
330
1E
100
AcDbEntity
  8
0
  6
CONTINUOUS
 62
     5
100
AcDbLine
 10
18.907
 20
15.087
 30
0.0
 11
18.907
 21
15.913
 31
0.0
  0
CIRCLE
  5
B0
330
1E
100
AcDbEntity
  8
0
  6
CONTINUOUS
 62
     5
100
AcDbCircle
 10
18.907
 20
15.5
 30
0.0
 40
0.3439999999999999
  0
LINE
  5
B1
330
1E
100
AcDbEntity
  8
0
  6
CONTINUOUS
 62
     5
100
AcDbLine
 10
18.69399999999999
 20
13.375
 30
0.0
 11
18.99399999999999
 21
13.375
 31
0.0
  0
LINE
  5
B2
330
1E
100
AcDbEntity
  8
0
  6
CONTINUOUS
 62
     5
100
AcDbLine
 10
18.844
 20
13.225
 30
0.0
 11
18.844
 21
13.525
 31
0.0
  0
CIRCLE
  5
B3
330
1E
100
AcDbEntity
  8
0
  6
CONTINUOUS
 62
     5
100
AcDbCircle
 10
18.844
 20
13.375
 30
0.0
 40
0.125
  0
LINE
  5
B4
330
1E
100
AcDbEntity
  8
0
  6
CONTINUOUS
 62
     5
100
AcDbLine
 10
18.907
 20
13.837
 30
0.0
 11
18.907
 21
14.663
 31
0.0
  0
CIRCLE
  5
B5
330
1E
100
AcDbEntity
  8
0
  6
CONTINUOUS
 62
     5
100
AcDbCircle
 10
18.907
 20
14.25
 30
0.0
 40
0.3439999999999999
  0
LINE
  5
B6
330
1E
100
AcDbEntity
  8
0
  6
CONTINUOUS
 62
     5
100
AcDbLine
 10
20.203
 20
16.125
 30
0.0
 11
20.20799999999999
 21
16.066
 31
0.0
  0
LINE
  5
B7
330
1E
100
AcDbEntity
  8
0
  6
CONTINUOUS
 62
     5
100
AcDbLine
 10
20.20799999999999
 20
16.066
 30
0.0
 11
20.22299999999999
 21
16.009
 31
0.0
  0
LINE
  5
B8
330
1E
100
AcDbEntity
  8
0
  6
CONTINUOUS
 62
     5
100
AcDbLine
 10
20.84
 20
16.009
 30
0.0
 11
20.855
 21
16.066
 31
0.0
  0
LINE
  5
B9
330
1E
100
AcDbEntity
  8
0
  6
CONTINUOUS
 62
     5
100
AcDbLine
 10
20.855
 20
16.066
 30
0.0
 11
20.85999999999999
 21
16.125
 31
0.0
  0
LINE
  5
BA
330
1E
100
AcDbEntity
  8
0
  6
CONTINUOUS
 62
     5
100
AcDbLine
 10
20.53199999999999
 20
15.731
 30
0.0
 11
20.53199999999999
 21
16.51899999999999
 31
0.0
  0
LINE
  5
BB
330
1E
100
AcDbEntity
  8
0
  6
CONTINUOUS
 62
     5
100
AcDbLine
 10
18.34299999999999
 20
16.02199999999999
 30
0.0
 11
18.34299999999999
 21
16.228
 31
0.0
  0
CIRCLE
  5
BC
330
1E
100
AcDbEntity
  8
0
  6
CONTINUOUS
 62
     5
100
AcDbCircle
 10
18.34299999999999
 20
16.125
 30
0.0
 40
0.086
  0
LINE
  5
BD
330
1E
100
AcDbEntity
  8
0
  6
CONTINUOUS
 62
     5
100
AcDbLine
 10
16.69399999999999
 20
16.419
 30
0.0
 11
16.643
 21
16.444
 31
0.0
  0
LINE
  5
BE
330
1E
100
AcDbEntity
  8
0
  6
CONTINUOUS
 62
     5
100
AcDbLine
 10
16.643
 20
16.444
 30
0.0
 11
16.587
 21
16.459
 31
0.0
  0
LINE
  5
BF
330
1E
100
AcDbEntity
  8
0
  6
CONTINUOUS
 62
     5
100
AcDbLine
 10
16.587
 20
16.459
 30
0.0
 11
16.531
 21
16.465
 31
0.0
  0
LINE
  5
C0
330
1E
100
AcDbEntity
  8
0
  6
CONTINUOUS
 62
     5
100
AcDbLine
 10
16.531
 20
16.465
 30
0.0
 11
16.474
 21
16.459
 31
0.0
  0
LINE
  5
C1
330
1E
100
AcDbEntity
  8
0
  6
CONTINUOUS
 62
     5
100
AcDbLine
 10
16.474
 20
16.459
 30
0.0
 11
16.41799999999999
 21
16.444
 31
0.0
  0
LINE
  5
C2
330
1E
100
AcDbEntity
  8
0
  6
CONTINUOUS
 62
     5
100
AcDbLine
 10
16.41799999999999
 20
16.444
 30
0.0
 11
16.367
 21
16.419
 31
0.0
  0
LINE
  5
C3
330
1E
100
AcDbEntity
  8
0
  6
CONTINUOUS
 62
     5
100
AcDbLine
 10
16.83899999999999
 20
16.241
 30
0.0
 11
16.815
 21
16.295
 31
0.0
  0
LINE
  5
C4
330
1E
100
AcDbEntity
  8
0
  6
CONTINUOUS
 62
     5
100
AcDbLine
 10
16.815
 20
16.295
 30
0.0
 11
16.782
 21
16.343
 31
0.0
  0
LINE
  5
C5
330
1E
100
AcDbEntity
  8
0
  6
CONTINUOUS
 62
     5
100
AcDbLine
 10
16.279
 20
16.343
 30
0.0
 11
16.246
 21
16.295
 31
0.0
  0
LINE
  5
C6
330
1E
100
AcDbEntity
  8
0
  6
CONTINUOUS
 62
     5
100
AcDbLine
 10
16.246
 20
16.295
 30
0.0
 11
16.222
 21
16.241
 31
0.0
  0
LINE
  5
C7
330
1E
100
AcDbEntity
  8
0
  6
CONTINUOUS
 62
     5
100
AcDbLine
 10
16.782
 20
16.343
 30
0.0
 11
16.741
 21
16.385
 31
0.0
  0
LINE
  5
C8
330
1E
100
AcDbEntity
  8
0
  6
CONTINUOUS
 62
     5
100
AcDbLine
 10
16.741
 20
16.385
 30
0.0
 11
16.69399999999999
 21
16.419
 31
0.0
  0
LINE
  5
C9
330
1E
100
AcDbEntity
  8
0
  6
CONTINUOUS
 62
     5
100
AcDbLine
 10
16.367
 20
16.419
 30
0.0
 11
16.32
 21
16.385
 31
0.0
  0
LINE
  5
CA
330
1E
100
AcDbEntity
  8
0
  6
CONTINUOUS
 62
     5
100
AcDbLine
 10
16.32
 20
16.385
 30
0.0
 11
16.279
 21
16.343
 31
0.0
  0
LINE
  5
CB
330
1E
100
AcDbEntity
  8
0
  6
CONTINUOUS
 62
     5
100
AcDbLine
 10
16.854
 20
16.184
 30
0.0
 11
16.83899999999999
 21
16.241
 31
0.0
  0
LINE
  5
CC
330
1E
100
AcDbEntity
  8
0
  6
CONTINUOUS
 62
     5
100
AcDbLine
 10
16.222
 20
16.241
 30
0.0
 11
16.207
 21
16.184
 31
0.0
  0
LINE
  5
CD
330
1E
100
AcDbEntity
  8
0
  6
CONTINUOUS
 62
     5
100
AcDbLine
 10
16.137
 20
16.125
 30
0.0
 11
16.924
 21
16.125
 31
0.0
  0
LINE
  5
CE
330
1E
100
AcDbEntity
  8
0
  6
CONTINUOUS
 62
     5
100
AcDbLine
 10
16.859
 20
16.125
 30
0.0
 11
16.854
 21
16.184
 31
0.0
  0
LINE
  5
CF
330
1E
100
AcDbEntity
  8
0
  6
CONTINUOUS
 62
     5
100
AcDbLine
 10
16.207
 20
16.184
 30
0.0
 11
16.203
 21
16.125
 31
0.0
  0
LINE
  5
D0
330
1E
100
AcDbEntity
  8
0
  6
CONTINUOUS
 62
     5
100
AcDbLine
 10
17.09299999999999
 20
16.619
 30
0.0
 11
17.09299999999999
 21
17.069
 31
0.0
  0
LINE
  5
D1
330
1E
100
AcDbEntity
  8
0
  6
CONTINUOUS
 62
     5
100
AcDbLine
 10
16.86799999999999
 20
16.844
 30
0.0
 11
17.318
 21
16.844
 31
0.0
  0
ARC
  5
D2
330
1E
100
AcDbEntity
  8
0
  6
CONTINUOUS
 62
     5
100
AcDbCircle
 10
17.09299999999999
 20
16.844
 30
0.0
 40
0.183
100
AcDbArc
 50
85.00000099999999
 51
5.0
  0
CIRCLE
  5
D3
330
1E
100
AcDbEntity
  8
0
  6
CONTINUOUS
 62
     5
100
AcDbCircle
 10
17.09299999999999
 20
16.844
 30
0.0
 40
0.156
  0
CIRCLE
  5
D4
330
1E
100
AcDbEntity
  8
0
  6
CONTINUOUS
 62
     5
100
AcDbCircle
 10
17.09299999999999
 20
16.844
 30
0.0
 40
0.188
  0
LINE
  5
D5
330
1E
100
AcDbEntity
  8
0
  6
CONTINUOUS
 62
     5
100
AcDbLine
 10
14.118
 20
16.844
 30
0.0
 11
14.567
 21
16.844
 31
0.0
  0
ARC
  5
D6
330
1E
100
AcDbEntity
  8
0
  6
CONTINUOUS
 62
     5
100
AcDbCircle
 10
14.343
 20
16.844
 30
0.0
 40
0.183
100
AcDbArc
 50
85.00000099999999
 51
5.0
  0
CIRCLE
  5
D7
330
1E
100
AcDbEntity
  8
0
  6
CONTINUOUS
 62
     5
100
AcDbCircle
 10
14.343
 20
16.844
 30
0.0
 40
0.156
  0
CIRCLE
  5
D8
330
1E
100
AcDbEntity
  8
0
  6
CONTINUOUS
 62
     5
100
AcDbCircle
 10
14.343
 20
16.844
 30
0.0
 40
0.188
  0
LINE
  5
D9
330
1E
100
AcDbEntity
  8
0
  6
CONTINUOUS
 62
     5
100
AcDbLine
 10
14.239
 20
16.125
 30
0.0
 11
14.446
 21
16.125
 31
0.0
  0
LINE
  5
DA
330
1E
100
AcDbEntity
  8
0
  6
CONTINUOUS
 62
     5
100
AcDbLine
 10
14.343
 20
16.619
 30
0.0
 11
14.343
 21
17.069
 31
0.0
  0
LINE
  5
DB
330
1E
100
AcDbEntity
  8
0
  6
CONTINUOUS
 62
     5
100
AcDbLine
 10
16.222
 20
16.009
 30
0.0
 11
16.246
 21
15.955
 31
0.0
  0
LINE
  5
DC
330
1E
100
AcDbEntity
  8
0
  6
CONTINUOUS
 62
     5
100
AcDbLine
 10
16.246
 20
15.955
 30
0.0
 11
16.279
 21
15.907
 31
0.0
  0
LINE
  5
DD
330
1E
100
AcDbEntity
  8
0
  6
CONTINUOUS
 62
     5
100
AcDbLine
 10
16.279
 20
15.907
 30
0.0
 11
16.32
 21
15.865
 31
0.0
  0
LINE
  5
DE
330
1E
100
AcDbEntity
  8
0
  6
CONTINUOUS
 62
     5
100
AcDbLine
 10
16.32
 20
15.865
 30
0.0
 11
16.367
 21
15.83099999999999
 31
0.0
  0
LINE
  5
DF
330
1E
100
AcDbEntity
  8
0
  6
CONTINUOUS
 62
     5
100
AcDbLine
 10
16.367
 20
15.83099999999999
 30
0.0
 11
16.41799999999999
 21
15.806
 31
0.0
  0
LINE
  5
E0
330
1E
100
AcDbEntity
  8
0
  6
CONTINUOUS
 62
     5
100
AcDbLine
 10
16.41799999999999
 20
15.806
 30
0.0
 11
16.474
 21
15.791
 31
0.0
  0
LINE
  5
E1
330
1E
100
AcDbEntity
  8
0
  6
CONTINUOUS
 62
     5
100
AcDbLine
 10
16.474
 20
15.791
 30
0.0
 11
16.531
 21
15.785
 31
0.0
  0
LINE
  5
E2
330
1E
100
AcDbEntity
  8
0
  6
CONTINUOUS
 62
     5
100
AcDbLine
 10
16.531
 20
15.785
 30
0.0
 11
16.587
 21
15.791
 31
0.0
  0
LINE
  5
E3
330
1E
100
AcDbEntity
  8
0
  6
CONTINUOUS
 62
     5
100
AcDbLine
 10
16.587
 20
15.791
 30
0.0
 11
16.643
 21
15.806
 31
0.0
  0
LINE
  5
E4
330
1E
100
AcDbEntity
  8
0
  6
CONTINUOUS
 62
     5
100
AcDbLine
 10
16.643
 20
15.806
 30
0.0
 11
16.69399999999999
 21
15.83099999999999
 31
0.0
  0
LINE
  5
E5
330
1E
100
AcDbEntity
  8
0
  6
CONTINUOUS
 62
     5
100
AcDbLine
 10
16.69399999999999
 20
15.83099999999999
 30
0.0
 11
16.741
 21
15.865
 31
0.0
  0
LINE
  5
E6
330
1E
100
AcDbEntity
  8
0
  6
CONTINUOUS
 62
     5
100
AcDbLine
 10
16.741
 20
15.865
 30
0.0
 11
16.782
 21
15.907
 31
0.0
  0
LINE
  5
E7
330
1E
100
AcDbEntity
  8
0
  6
CONTINUOUS
 62
     5
100
AcDbLine
 10
16.782
 20
15.907
 30
0.0
 11
16.815
 21
15.955
 31
0.0
  0
LINE
  5
E8
330
1E
100
AcDbEntity
  8
0
  6
CONTINUOUS
 62
     5
100
AcDbLine
 10
16.815
 20
15.955
 30
0.0
 11
16.83899999999999
 21
16.009
 31
0.0
  0
LINE
  5
E9
330
1E
100
AcDbEntity
  8
0
  6
CONTINUOUS
 62
     5
100
AcDbLine
 10
16.11799999999999
 20
14.875
 30
0.0
 11
16.943
 21
14.875
 31
0.0
  0
LINE
  5
EA
330
1E
100
AcDbEntity
  8
0
  6
CONTINUOUS
 62
     5
100
AcDbLine
 10
16.531
 20
14.462
 30
0.0
 11
16.531
 21
15.288
 31
0.0
  0
CIRCLE
  5
EB
330
1E
100
AcDbEntity
  8
0
  6
CONTINUOUS
 62
     5
100
AcDbCircle
 10
16.531
 20
14.875
 30
0.0
 40
0.3439999999999999
  0
LINE
  5
EC
330
1E
100
AcDbEntity
  8
0
  6
CONTINUOUS
 62
     5
100
AcDbLine
 10
17.156
 20
15.35
 30
0.0
 11
17.156
 21
15.65
 31
0.0
  0
LINE
  5
ED
330
1E
100
AcDbEntity
  8
0
  6
CONTINUOUS
 62
     5
100
AcDbLine
 10
17.09299999999999
 20
13.725
 30
0.0
 11
17.09299999999999
 21
13.931
 31
0.0
  0
LINE
  5
EE
330
1E
100
AcDbEntity
  8
0
  6
CONTINUOUS
 62
     5
100
AcDbLine
 10
17.006
 20
15.5
 30
0.0
 11
17.305
 21
15.5
 31
0.0
  0
ARC
  5
EF
330
1E
100
AcDbEntity
  8
0
  6
CONTINUOUS
 62
     5
100
AcDbCircle
 10
17.156
 20
15.5
 30
0.0
 40
0.118
100
AcDbArc
 50
85.00000099999999
 51
5.0
  0
CIRCLE
  5
F0
330
1E
100
AcDbEntity
  8
0
  6
CONTINUOUS
 62
     5
100
AcDbCircle
 10
17.156
 20
15.5
 30
0.0
 40
0.101
  0
CIRCLE
  5
F1
330
1E
100
AcDbEntity
  8
0
  6
CONTINUOUS
 62
     5
100
AcDbCircle
 10
17.156
 20
15.5
 30
0.0
 40
0.125
  0
LINE
  5
F2
330
1E
100
AcDbEntity
  8
0
  6
CONTINUOUS
 62
     5
100
AcDbLine
 10
16.989
 20
13.828
 30
0.0
 11
17.196
 21
13.828
 31
0.0
  0
CIRCLE
  5
F3
330
1E
100
AcDbEntity
  8
0
  6
CONTINUOUS
 62
     5
100
AcDbCircle
 10
17.09299999999999
 20
13.828
 30
0.0
 40
0.086
  0
LINE
  5
F4
330
1E
100
AcDbEntity
  8
0
  6
CONTINUOUS
 62
     5
100
AcDbLine
 10
14.131
 20
14.875
 30
0.0
 11
14.43
 21
14.875
 31
0.0
  0
ARC
  5
F5
330
1E
100
AcDbEntity
  8
0
  6
CONTINUOUS
 62
     5
100
AcDbCircle
 10
14.281
 20
14.875
 30
0.0
 40
0.118
100
AcDbArc
 50
85.00000099999999
 51
5.0
  0
CIRCLE
  5
F6
330
1E
100
AcDbEntity
  8
0
  6
CONTINUOUS
 62
     5
100
AcDbCircle
 10
14.281
 20
14.875
 30
0.0
 40
0.101
  0
CIRCLE
  5
F7
330
1E
100
AcDbEntity
  8
0
  6
CONTINUOUS
 62
     5
100
AcDbCircle
 10
14.281
 20
14.875
 30
0.0
 40
0.125
  0
LINE
  5
F8
330
1E
100
AcDbEntity
  8
0
  6
CONTINUOUS
 62
     5
100
AcDbLine
 10
14.281
 20
14.725
 30
0.0
 11
14.281
 21
15.025
 31
0.0
  0
LINE
  5
F9
330
1E
100
AcDbEntity
  8
0
  6
CONTINUOUS
 62
     5
100
AcDbLine
 10
14.906
 20
15.087
 30
0.0
 11
14.906
 21
15.913
 31
0.0
  0
LINE
  5
FA
330
1E
100
AcDbEntity
  8
0
  6
CONTINUOUS
 62
     5
100
AcDbLine
 10
14.693
 20
13.375
 30
0.0
 11
14.993
 21
13.375
 31
0.0
  0
LINE
  5
FB
330
1E
100
AcDbEntity
  8
0
  6
CONTINUOUS
 62
     5
100
AcDbLine
 10
14.843
 20
13.225
 30
0.0
 11
14.843
 21
13.525
 31
0.0
  0
CIRCLE
  5
FC
330
1E
100
AcDbEntity
  8
0
  6
CONTINUOUS
 62
     5
100
AcDbCircle
 10
14.843
 20
13.375
 30
0.0
 40
0.125
  0
LINE
  5
FD
330
1E
100
AcDbEntity
  8
0
  6
CONTINUOUS
 62
     5
100
AcDbLine
 10
14.906
 20
13.837
 30
0.0
 11
14.906
 21
14.663
 31
0.0
  0
LINE
  5
FE
330
1E
100
AcDbEntity
  8
0
  6
CONTINUOUS
 62
     5
100
AcDbLine
 10
14.493
 20
15.5
 30
0.0
 11
15.318
 21
15.5
 31
0.0
  0
CIRCLE
  5
FF
330
1E
100
AcDbEntity
  8
0
  6
CONTINUOUS
 62
     5
100
AcDbCircle
 10
14.906
 20
15.5
 30
0.0
 40
0.3439999999999999
  0
LINE
  5
100
330
1E
100
AcDbEntity
  8
0
  6
CONTINUOUS
 62
     5
100
AcDbLine
 10
14.493
 20
14.25
 30
0.0
 11
15.318
 21
14.25
 31
0.0
  0
CIRCLE
  5
101
330
1E
100
AcDbEntity
  8
0
  6
CONTINUOUS
 62
     5
100
AcDbCircle
 10
14.906
 20
14.25
 30
0.0
 40
0.3439999999999999
  0
LINE
  5
102
330
1E
100
AcDbEntity
  8
0
  6
CONTINUOUS
 62
     5
100
AcDbLine
 10
16.203
 20
16.125
 30
0.0
 11
16.207
 21
16.066
 31
0.0
  0
LINE
  5
103
330
1E
100
AcDbEntity
  8
0
  6
CONTINUOUS
 62
     5
100
AcDbLine
 10
16.207
 20
16.066
 30
0.0
 11
16.222
 21
16.009
 31
0.0
  0
LINE
  5
104
330
1E
100
AcDbEntity
  8
0
  6
CONTINUOUS
 62
     5
100
AcDbLine
 10
16.83899999999999
 20
16.009
 30
0.0
 11
16.854
 21
16.066
 31
0.0
  0
LINE
  5
105
330
1E
100
AcDbEntity
  8
0
  6
CONTINUOUS
 62
     5
100
AcDbLine
 10
16.854
 20
16.066
 30
0.0
 11
16.859
 21
16.125
 31
0.0
  0
LINE
  5
106
330
1E
100
AcDbEntity
  8
0
  6
CONTINUOUS
 62
     5
100
AcDbLine
 10
16.531
 20
15.731
 30
0.0
 11
16.531
 21
16.51899999999999
 31
0.0
  0
LINE
  5
107
330
1E
100
AcDbEntity
  8
0
  6
CONTINUOUS
 62
     5
100
AcDbLine
 10
14.342
 20
16.02199999999999
 30
0.0
 11
14.342
 21
16.228
 31
0.0
  0
CIRCLE
  5
108
330
1E
100
AcDbEntity
  8
0
  6
CONTINUOUS
 62
     5
100
AcDbCircle
 10
14.342
 20
16.125
 30
0.0
 40
0.086
  0
LINE
  5
109
330
1E
100
AcDbEntity
  8
0
  6
CONTINUOUS
 62
     5
100
AcDbLine
 10
3.375
 20
19.125
 30
0.0
 11
9.375
 21
19.125
 31
0.0
  0
TEXT
  5
10A
330
1E
100
AcDbEntity
  8
0
 62
     5
100
AcDbText
 10
8.112083
 20
17.1834375
 30
0.0
 40
0.2125
  1
T
 50
270.0
 41
0.825
 72
     4
 11
8.218332999999999
 21
17.125
 31
0.0
100
AcDbText
  0
LINE
  5
10B
330
1E
100
AcDbEntity
  8
0
  6
CONTINUOUS
 62
     5
100
AcDbLine
 10
7.405999999999999
 20
17.457
 30
0.0
 11
7.405999999999999
 21
17.981
 31
0.0
  0
LINE
  5
10C
330
1E
100
AcDbEntity
  8
0
  6
CONTINUOUS
 62
     5
100
AcDbLine
 10
7.142999999999999
 20
17.719
 30
0.0
 11
7.668
 21
17.719
 31
0.0
  0
ARC
  5
10D
330
1E
100
AcDbEntity
  8
0
  6
CONTINUOUS
 62
     5
100
AcDbCircle
 10
7.405999999999999
 20
17.719
 30
0.0
 40
0.215
100
AcDbArc
 50
85.00000099999999
 51
5.0
  0
CIRCLE
  5
10E
330
1E
100
AcDbEntity
  8
0
  6
CONTINUOUS
 62
     5
100
AcDbCircle
 10
7.405999999999999
 20
17.719
 30
0.0
 40
0.184
  0
CIRCLE
  5
10F
330
1E
100
AcDbEntity
  8
0
  6
CONTINUOUS
 62
     5
100
AcDbCircle
 10
7.405999999999999
 20
17.719
 30
0.0
 40
0.219
  0
LINE
  5
110
330
1E
100
AcDbEntity
  8
0
  6
CONTINUOUS
 62
     5
100
AcDbLine
 10
7.405999999999999
 20
16.269
 30
0.0
 11
7.405999999999999
 21
16.794
 31
0.0
  0
LINE
  5
111
330
1E
100
AcDbEntity
  8
0
  6
CONTINUOUS
 62
     5
100
AcDbLine
 10
7.142999999999999
 20
16.531
 30
0.0
 11
7.668
 21
16.531
 31
0.0
  0
ARC
  5
112
330
1E
100
AcDbEntity
  8
0
  6
CONTINUOUS
 62
     5
100
AcDbCircle
 10
7.405999999999999
 20
16.531
 30
0.0
 40
0.215
100
AcDbArc
 50
85.00000099999999
 51
5.0
  0
CIRCLE
  5
113
330
1E
100
AcDbEntity
  8
0
  6
CONTINUOUS
 62
     5
100
AcDbCircle
 10
7.405999999999999
 20
16.531
 30
0.0
 40
0.184
  0
CIRCLE
  5
114
330
1E
100
AcDbEntity
  8
0
  6
CONTINUOUS
 62
     5
100
AcDbCircle
 10
7.405999999999999
 20
16.531
 30
0.0
 40
0.219
  0
LINE
  5
115
330
1E
100
AcDbEntity
  8
0
  6
CONTINUOUS
 62
     5
100
AcDbLine
 10
6.25
 20
16.375
 30
0.0
 11
6.25
 21
17.875
 31
0.0
  0
LINE
  5
116
330
1E
100
AcDbEntity
  8
0
  6
CONTINUOUS
 62
     5
100
AcDbLine
 10
4.831
 20
17.719
 30
0.0
 11
5.355999999999999
 21
17.719
 31
0.0
  0
LINE
  5
117
330
1E
100
AcDbEntity
  8
0
  6
CONTINUOUS
 62
     5
100
AcDbLine
 10
5.092999999999999
 20
17.457
 30
0.0
 11
5.092999999999999
 21
17.981
 31
0.0
  0
ARC
  5
118
330
1E
100
AcDbEntity
  8
0
  6
CONTINUOUS
 62
     5
100
AcDbCircle
 10
5.092999999999999
 20
17.719
 30
0.0
 40
0.215
100
AcDbArc
 50
85.00000099999999
 51
5.0
  0
CIRCLE
  5
119
330
1E
100
AcDbEntity
  8
0
  6
CONTINUOUS
 62
     5
100
AcDbCircle
 10
5.092999999999999
 20
17.719
 30
0.0
 40
0.184
  0
CIRCLE
  5
11A
330
1E
100
AcDbEntity
  8
0
  6
CONTINUOUS
 62
     5
100
AcDbCircle
 10
5.092999999999999
 20
17.719
 30
0.0
 40
0.219
  0
LINE
  5
120
330
1E
100
AcDbEntity
  8
0
  6
CONTINUOUS
 62
     5
100
AcDbLine
 10
5.092999999999999
 20
16.269
 30
0.0
 11
5.092999999999999
 21
16.794
 31
0.0
  0
LINE
  5
121
330
1E
100
AcDbEntity
  8
0
  6
CONTINUOUS
 62
     5
100
AcDbLine
 10
4.831
 20
16.531
 30
0.0
 11
5.355999999999999
 21
16.531
 31
0.0
  0
ARC
  5
122
330
1E
100
AcDbEntity
  8
0
  6
CONTINUOUS
 62
     5
100
AcDbCircle
 10
5.092999999999999
 20
16.531
 30
0.0
 40
0.215
100
AcDbArc
 50
85.00000099999999
 51
5.0
  0
CIRCLE
  5
123
330
1E
100
AcDbEntity
  8
0
  6
CONTINUOUS
 62
     5
100
AcDbCircle
 10
5.092999999999999
 20
16.531
 30
0.0
 40
0.184
  0
CIRCLE
  5
124
330
1E
100
AcDbEntity
  8
0
  6
CONTINUOUS
 62
     5
100
AcDbCircle
 10
5.092999999999999
 20
16.531
 30
0.0
 40
0.219
  0
LINE
  5
125
330
1E
100
AcDbEntity
  8
0
  6
CONTINUOUS
 62
     5
100
AcDbLine
 10
5.5
 20
17.125
 30
0.0
 11
7.0
 21
17.125
 31
0.0
  0
CIRCLE
  5
126
330
1E
100
AcDbEntity
  8
0
  6
CONTINUOUS
 62
     5
100
AcDbCircle
 10
6.25
 20
17.125
 30
0.0
 40
0.625
  0
LINE
  5
127
330
1E
100
AcDbEntity
  8
0
  6
CONTINUOUS
 62
     5
100
AcDbLine
 10
6.993
 20
14.828
 30
0.0
 11
7.442999999999999
 21
14.828
 31
0.0
  0
LINE
  5
128
330
1E
100
AcDbEntity
  8
0
  6
CONTINUOUS
 62
     5
100
AcDbLine
 10
7.217999999999999
 20
14.603
 30
0.0
 11
7.217999999999999
 21
15.053
 31
0.0
  0
ARC
  5
129
330
1E
100
AcDbEntity
  8
0
  6
CONTINUOUS
 62
     5
100
AcDbCircle
 10
7.217999999999999
 20
14.828
 30
0.0
 40
0.183
100
AcDbArc
 50
85.00000099999999
 51
5.0
  0
CIRCLE
  5
12A
330
1E
100
AcDbEntity
  8
0
  6
CONTINUOUS
 62
     5
100
AcDbCircle
 10
7.217999999999999
 20
14.828
 30
0.0
 40
0.156
  0
CIRCLE
  5
12B
330
1E
100
AcDbEntity
  8
0
  6
CONTINUOUS
 62
     5
100
AcDbCircle
 10
7.217999999999999
 20
14.828
 30
0.0
 40
0.188
  0
LINE
  5
12C
330
1E
100
AcDbEntity
  8
0
  6
CONTINUOUS
 62
     5
100
AcDbLine
 10
7.217999999999999
 20
13.573
 30
0.0
 11
7.217999999999999
 21
14.023
 31
0.0
  0
ARC
  5
12D
330
1E
100
AcDbEntity
  8
0
  6
CONTINUOUS
 62
     5
100
AcDbCircle
 10
7.217999999999999
 20
13.798
 30
0.0
 40
0.183
100
AcDbArc
 50
85.00000099999999
 51
5.0
  0
CIRCLE
  5
12E
330
1E
100
AcDbEntity
  8
0
  6
CONTINUOUS
 62
     5
100
AcDbCircle
 10
7.217999999999999
 20
13.798
 30
0.0
 40
0.156
  0
CIRCLE
  5
12F
330
1E
100
AcDbEntity
  8
0
  6
CONTINUOUS
 62
     5
100
AcDbCircle
 10
7.217999999999999
 20
13.798
 30
0.0
 40
0.188
  0
LINE
  5
130
330
1E
100
AcDbEntity
  8
0
  6
CONTINUOUS
 62
     5
100
AcDbLine
 10
6.993
 20
13.798
 30
0.0
 11
7.442999999999999
 21
13.798
 31
0.0
  0
LINE
  5
131
330
1E
100
AcDbEntity
  8
0
  6
CONTINUOUS
 62
     5
100
AcDbLine
 10
6.187
 20
13.71299999999999
 30
0.0
 11
6.187
 21
14.913
 31
0.0
  0
LINE
  5
132
330
1E
100
AcDbEntity
  8
0
  6
CONTINUOUS
 62
     5
100
AcDbLine
 10
4.929999999999999
 20
14.828
 30
0.0
 11
5.379999999999999
 21
14.828
 31
0.0
  0
LINE
  5
133
330
1E
100
AcDbEntity
  8
0
  6
CONTINUOUS
 62
     5
100
AcDbLine
 10
5.155
 20
14.603
 30
0.0
 11
5.155
 21
15.053
 31
0.0
  0
ARC
  5
134
330
1E
100
AcDbEntity
  8
0
  6
CONTINUOUS
 62
     5
100
AcDbCircle
 10
5.155
 20
14.828
 30
0.0
 40
0.183
100
AcDbArc
 50
85.00000099999999
 51
5.0
  0
CIRCLE
  5
135
330
1E
100
AcDbEntity
  8
0
  6
CONTINUOUS
 62
     5
100
AcDbCircle
 10
5.155
 20
14.828
 30
0.0
 40
0.156
  0
CIRCLE
  5
136
330
1E
100
AcDbEntity
  8
0
  6
CONTINUOUS
 62
     5
100
AcDbCircle
 10
5.155
 20
14.828
 30
0.0
 40
0.188
  0
LINE
  5
137
330
1E
100
AcDbEntity
  8
0
  6
CONTINUOUS
 62
     5
100
AcDbLine
 10
5.155
 20
13.573
 30
0.0
 11
5.155
 21
14.023
 31
0.0
  0
LINE
  5
138
330
1E
100
AcDbEntity
  8
0
  6
CONTINUOUS
 62
     5
100
AcDbLine
 10
4.929999999999999
 20
13.798
 30
0.0
 11
5.379999999999999
 21
13.798
 31
0.0
  0
ARC
  5
139
330
1E
100
AcDbEntity
  8
0
  6
CONTINUOUS
 62
     5
100
AcDbCircle
 10
5.155
 20
13.798
 30
0.0
 40
0.183
100
AcDbArc
 50
85.00000099999999
 51
5.0
  0
CIRCLE
  5
13A
330
1E
100
AcDbEntity
  8
0
  6
CONTINUOUS
 62
     5
100
AcDbCircle
 10
5.155
 20
13.798
 30
0.0
 40
0.156
  0
CIRCLE
  5
13B
330
1E
100
AcDbEntity
  8
0
  6
CONTINUOUS
 62
     5
100
AcDbCircle
 10
5.155
 20
13.798
 30
0.0
 40
0.188
  0
LINE
  5
13C
330
1E
100
AcDbEntity
  8
0
  6
CONTINUOUS
 62
     5
100
AcDbLine
 10
5.586
 20
14.313
 30
0.0
 11
6.786999999999999
 21
14.313
 31
0.0
  0
CIRCLE
  5
13D
330
1E
100
AcDbEntity
  8
0
  6
CONTINUOUS
 62
     5
100
AcDbCircle
 10
6.187
 20
14.313
 30
0.0
 40
0.5
  0
TEXT
  5
13E
330
1E
100
AcDbEntity
  8
0
 62
     5
100
AcDbText
 10
7.862083
 20
14.3714375
 30
0.0
 40
0.2125
  1
P
 50
270.0
 41
0.825
 72
     4
 11
7.968333
 21
14.313
 31
0.0
100
AcDbText
  0
LINE
  5
13F
330
1E
100
AcDbEntity
  8
0
  6
CONTINUOUS
 62
     5
100
AcDbLine
 10
20.86899999999999
 20
12.84399999999999
 30
0.0
 11
21.31899999999999
 21
12.84399999999999
 31
0.0
  0
LINE
  5
140
330
1E
100
AcDbEntity
  8
0
  6
CONTINUOUS
 62
     5
100
AcDbLine
 10
21.093
 20
12.619
 30
0.0
 11
21.093
 21
13.069
 31
0.0
  0
ARC
  5
141
330
1E
100
AcDbEntity
  8
0
  6
CONTINUOUS
 62
     5
100
AcDbCircle
 10
21.093
 20
12.84399999999999
 30
0.0
 40
0.183
100
AcDbArc
 50
85.00000099999999
 51
5.0
  0
CIRCLE
  5
142
330
1E
100
AcDbEntity
  8
0
  6
CONTINUOUS
 62
     5
100
AcDbCircle
 10
21.093
 20
12.84399999999999
 30
0.0
 40
0.156
  0
CIRCLE
  5
143
330
1E
100
AcDbEntity
  8
0
  6
CONTINUOUS
 62
     5
100
AcDbCircle
 10
21.093
 20
12.84399999999999
 30
0.0
 40
0.188
  0
LINE
  5
144
330
1E
100
AcDbEntity
  8
0
  6
CONTINUOUS
 62
     5
100
AcDbLine
 10
18.11899999999999
 20
12.84399999999999
 30
0.0
 11
18.56899999999999
 21
12.84399999999999
 31
0.0
  0
ARC
  5
145
330
1E
100
AcDbEntity
  8
0
  6
CONTINUOUS
 62
     5
100
AcDbCircle
 10
18.344
 20
12.84399999999999
 30
0.0
 40
0.183
100
AcDbArc
 50
85.00000099999999
 51
5.0
  0
CIRCLE
  5
146
330
1E
100
AcDbEntity
  8
0
  6
CONTINUOUS
 62
     5
100
AcDbCircle
 10
18.344
 20
12.84399999999999
 30
0.0
 40
0.156
  0
CIRCLE
  5
147
330
1E
100
AcDbEntity
  8
0
  6
CONTINUOUS
 62
     5
100
AcDbCircle
 10
18.344
 20
12.84399999999999
 30
0.0
 40
0.188
  0
LINE
  5
148
330
1E
100
AcDbEntity
  8
0
  6
CONTINUOUS
 62
     5
100
AcDbLine
 10
18.344
 20
12.619
 30
0.0
 11
18.344
 21
13.069
 31
0.0
  0
LINE
  5
149
330
1E
100
AcDbEntity
  8
0
  6
CONTINUOUS
 62
     5
100
AcDbLine
 10
19.431
 20
8.201999999999999
 30
0.0
 11
19.881
 21
8.201999999999999
 31
0.0
  0
CIRCLE
  5
14A
330
1E
100
AcDbEntity
  8
0
  6
CONTINUOUS
 62
     5
100
AcDbCircle
 10
19.656
 20
8.201999999999999
 30
0.0
 40
0.156
  0
LINE
  5
14B
330
1E
100
AcDbEntity
  8
0
  6
CONTINUOUS
 62
     5
100
AcDbLine
 10
19.656
 20
7.977
 30
0.0
 11
19.656
 21
8.426999999999999
 31
0.0
  0
ARC
  5
14C
330
1E
100
AcDbEntity
  8
0
  6
CONTINUOUS
 62
     5
100
AcDbCircle
 10
19.656
 20
8.201999999999999
 30
0.0
 40
0.183
100
AcDbArc
 50
85.00000099999999
 51
5.0
  0
CIRCLE
  5
14D
330
1E
100
AcDbEntity
  8
0
  6
CONTINUOUS
 62
     5
100
AcDbCircle
 10
19.656
 20
8.201999999999999
 30
0.0
 40
0.188
  0
LINE
  5
14E
330
1E
100
AcDbEntity
  8
0
  6
CONTINUOUS
 62
     5
100
AcDbLine
 10
18.024
 20
7.687
 30
0.0
 11
19.225
 21
7.687
 31
0.0
  0
LINE
  5
14F
330
1E
100
AcDbEntity
  8
0
  6
CONTINUOUS
 62
     5
100
AcDbLine
 10
17.593
 20
7.977
 30
0.0
 11
17.593
 21
8.426999999999999
 31
0.0
  0
LINE
  5
150
330
1E
100
AcDbEntity
  8
0
  6
CONTINUOUS
 62
     5
100
AcDbLine
 10
17.09299999999999
 20
12.619
 30
0.0
 11
17.09299999999999
 21
13.069
 31
0.0
  0
LINE
  5
151
330
1E
100
AcDbEntity
  8
0
  6
CONTINUOUS
 62
     5
100
AcDbLine
 10
16.86799999999999
 20
12.84399999999999
 30
0.0
 11
17.318
 21
12.84399999999999
 31
0.0
  0
ARC
  5
152
330
1E
100
AcDbEntity
  8
0
  6
CONTINUOUS
 62
     5
100
AcDbCircle
 10
17.09299999999999
 20
12.84399999999999
 30
0.0
 40
0.183
100
AcDbArc
 50
85.00000099999999
 51
5.0
  0
CIRCLE
  5
153
330
1E
100
AcDbEntity
  8
0
  6
CONTINUOUS
 62
     5
100
AcDbCircle
 10
17.09299999999999
 20
12.84399999999999
 30
0.0
 40
0.156
  0
CIRCLE
  5
154
330
1E
100
AcDbEntity
  8
0
  6
CONTINUOUS
 62
     5
100
AcDbCircle
 10
17.09299999999999
 20
12.84399999999999
 30
0.0
 40
0.188
  0
LINE
  5
155
330
1E
100
AcDbEntity
  8
0
  6
CONTINUOUS
 62
     5
100
AcDbLine
 10
14.118
 20
12.84399999999999
 30
0.0
 11
14.568
 21
12.84399999999999
 31
0.0
  0
ARC
  5
156
330
1E
100
AcDbEntity
  8
0
  6
CONTINUOUS
 62
     5
100
AcDbCircle
 10
14.343
 20
12.84399999999999
 30
0.0
 40
0.183
100
AcDbArc
 50
85.00000099999999
 51
5.0
  0
CIRCLE
  5
157
330
1E
100
AcDbEntity
  8
0
  6
CONTINUOUS
 62
     5
100
AcDbCircle
 10
14.343
 20
12.84399999999999
 30
0.0
 40
0.156
  0
CIRCLE
  5
158
330
1E
100
AcDbEntity
  8
0
  6
CONTINUOUS
 62
     5
100
AcDbCircle
 10
14.343
 20
12.84399999999999
 30
0.0
 40
0.188
  0
LINE
  5
159
330
1E
100
AcDbEntity
  8
0
  6
CONTINUOUS
 62
     5
100
AcDbLine
 10
14.343
 20
12.619
 30
0.0
 11
14.343
 21
13.069
 31
0.0
  0
TEXT
  5
15A
330
1E
100
AcDbEntity
  8
0
 62
     5
100
AcDbText
 10
16.94362749999999
 20
7.58075
 30
0.0
 40
0.2125
  1
B
 41
0.825
 72
     4
 11
17.00206499999999
 21
7.687
 31
0.0
100
AcDbText
  0
LINE
  5
15B
330
1E
100
AcDbEntity
  8
0
  6
CONTINUOUS
 62
     5
100
AcDbLine
 10
15.43099999999999
 20
8.201999999999999
 30
0.0
 11
15.881
 21
8.201999999999999
 31
0.0
  0
CIRCLE
  5
15C
330
1E
100
AcDbEntity
  8
0
  6
CONTINUOUS
 62
     5
100
AcDbCircle
 10
15.656
 20
8.201999999999999
 30
0.0
 40
0.156
  0
LINE
  5
15D
330
1E
100
AcDbEntity
  8
0
  6
CONTINUOUS
 62
     5
100
AcDbLine
 10
15.656
 20
7.977
 30
0.0
 11
15.656
 21
8.426999999999999
 31
0.0
  0
ARC
  5
15E
330
1E
100
AcDbEntity
  8
0
  6
CONTINUOUS
 62
     5
100
AcDbCircle
 10
15.656
 20
8.201999999999999
 30
0.0
 40
0.183
100
AcDbArc
 50
85.00000099999999
 51
5.0
  0
CIRCLE
  5
15F
330
1E
100
AcDbEntity
  8
0
  6
CONTINUOUS
 62
     5
100
AcDbCircle
 10
15.656
 20
8.201999999999999
 30
0.0
 40
0.188
  0
TEXT
  5
160
330
1E
100
AcDbEntity
  8
0
 62
     5
100
AcDbText
 10
13.20989549999999
 20
9.227083
 30
0.0
 40
0.2125
  1
Y
 41
0.825
 72
     4
 11
13.26833299999999
 21
9.333332999999999
 31
0.0
100
AcDbText
  0
TEXT
  5
161
330
1E
100
AcDbEntity
  8
0
 62
     5
100
AcDbText
 10
12.9436275
 20
7.58075
 30
0.0
 40
0.2125
  1
B
 41
0.825
 72
     4
 11
13.002065
 21
7.687
 31
0.0
100
AcDbText
  0
LINE
  5
162
330
1E
100
AcDbEntity
  8
0
  6
CONTINUOUS
 62
     5
100
AcDbLine
 10
13.368
 20
8.201999999999999
 30
0.0
 11
13.819
 21
8.201999999999999
 31
0.0
  0
CIRCLE
  5
163
330
1E
100
AcDbEntity
  8
0
  6
CONTINUOUS
 62
     5
100
AcDbCircle
 10
13.593
 20
8.201999999999999
 30
0.0
 40
0.156
  0
LINE
  5
164
330
1E
100
AcDbEntity
  8
0
  6
CONTINUOUS
 62
     5
100
AcDbLine
 10
13.593
 20
7.977
 30
0.0
 11
13.593
 21
8.426999999999999
 31
0.0
  0
ARC
  5
165
330
1E
100
AcDbEntity
  8
0
  6
CONTINUOUS
 62
     5
100
AcDbCircle
 10
13.593
 20
8.201999999999999
 30
0.0
 40
0.183
100
AcDbArc
 50
85.00000099999999
 51
5.0
  0
CIRCLE
  5
166
330
1E
100
AcDbEntity
  8
0
  6
CONTINUOUS
 62
     5
100
AcDbCircle
 10
13.593
 20
8.201999999999999
 30
0.0
 40
0.188
  0
LINE
  5
167
330
1E
100
AcDbEntity
  8
0
  6
CONTINUOUS
 62
     5
100
AcDbLine
 10
14.024
 20
7.687
 30
0.0
 11
15.22499999999999
 21
7.687
 31
0.0
  0
LINE
  5
168
330
1E
100
AcDbEntity
  8
0
  6
CONTINUOUS
 62
     5
100
AcDbLine
 10
17.36799999999999
 20
8.201999999999999
 30
0.0
 11
17.819
 21
8.201999999999999
 31
0.0
  0
CIRCLE
  5
169
330
1E
100
AcDbEntity
  8
0
  6
CONTINUOUS
 62
     5
100
AcDbCircle
 10
17.593
 20
8.201999999999999
 30
0.0
 40
0.156
  0
ARC
  5
16A
330
1E
100
AcDbEntity
  8
0
  6
CONTINUOUS
 62
     5
100
AcDbCircle
 10
17.593
 20
8.201999999999999
 30
0.0
 40
0.183
100
AcDbArc
 50
85.00000099999999
 51
5.0
  0
CIRCLE
  5
16B
330
1E
100
AcDbEntity
  8
0
  6
CONTINUOUS
 62
     5
100
AcDbCircle
 10
17.593
 20
8.201999999999999
 30
0.0
 40
0.188
  0
LINE
  5
16C
330
1E
100
AcDbEntity
  8
0
  6
CONTINUOUS
 62
     5
100
AcDbLine
 10
22.08090899999999
 20
4.879879999999999
 30
0.0
 11
22.02474899999999
 21
4.964119999999999
 31
0.0
  0
LWPOLYLINE
  5
16D
330
1E
100
AcDbEntity
  8
0
  6
CONTINUOUS
 62
     5
100
AcDbPolyline
 90
       13
 70
     1
 43
0.0
 10
20.57394899999999
 20
5.0156
 10
20.57394899999999
 20
4.8284
 10
20.630109
 20
4.8284
 10
20.648829
 20
4.83776
 10
20.662869
 20
4.85648
 10
20.672229
 20
4.8752
 10
20.676909
 20
4.90796
 10
20.676909
 20
4.93604
 10
20.672229
 20
4.964119999999999
 10
20.662869
 20
4.987519999999999
 10
20.648829
 20
5.00624
 10
20.630109
 20
5.0156
 10
20.57394899999999
 20
5.0156
  0
LWPOLYLINE
  5
17C
330
1E
100
AcDbEntity
  8
0
  6
CONTINUOUS
 62
     5
100
AcDbPolyline
 90
        4
 70
     0
 43
0.0
 10
20.723709
 20
4.8284
 10
20.775189
 20
5.0156
 10
20.784549
 20
5.0156
 10
20.836029
 20
4.8284
  0
LINE
  5
182
330
1E
100
AcDbEntity
  8
0
  6
CONTINUOUS
 62
     5
100
AcDbLine
 10
20.742429
 20
4.893919999999999
 30
0.0
 11
20.81730899999999
 21
4.893919999999999
 31
0.0
  0
LWPOLYLINE
  5
183
330
1E
100
AcDbEntity
  8
0
  6
CONTINUOUS
 62
     5
100
AcDbPolyline
 90
        5
 70
     0
 43
0.0
 10
20.88750899999999
 20
4.8284
 10
20.88750899999999
 20
5.0156
 10
20.938989
 20
4.921999999999999
 10
20.990469
 20
5.0156
 10
20.990469
 20
4.8284
  0
LWPOLYLINE
  5
18A
330
1E
100
AcDbEntity
  8
0
  6
CONTINUOUS
 62
     5
100
AcDbPolyline
 90
        4
 70
     0
 43
0.0
 10
21.04194899999999
 20
4.8284
 10
21.093429
 20
5.0156
 10
21.102789
 20
5.0156
 10
21.154269
 20
4.8284
  0
LINE
  5
190
330
1E
100
AcDbEntity
  8
0
  6
CONTINUOUS
 62
     5
100
AcDbLine
 10
21.060669
 20
4.893919999999999
 30
0.0
 11
21.135549
 21
4.893919999999999
 31
0.0
  0
LWPOLYLINE
  5
191
330
1E
100
AcDbEntity
  8
0
  6
CONTINUOUS
 62
     5
100
AcDbPolyline
 90
        4
 70
     0
 43
0.0
 10
21.210429
 20
4.8284
 10
21.210429
 20
5.0156
 10
21.30402899999999
 20
4.8284
 10
21.30402899999999
 20
5.0156
  0
LINE
  5
197
330
1E
100
AcDbEntity
  8
0
  6
CONTINUOUS
 62
     5
100
AcDbLine
 10
21.51930899999999
 20
4.921999999999999
 30
0.0
 11
21.631629
 21
4.921999999999999
 31
0.0
  0
LWPOLYLINE
  5
198
330
1E
100
AcDbEntity
  8
0
  6
CONTINUOUS
 62
     5
100
AcDbPolyline
 90
        3
 70
     0
 43
0.0
 10
21.575469
 20
4.86584
 10
21.575469
 20
4.97348
 10
21.575469
 20
4.978159999999999
  0
LINE
  5
19D
330
1E
100
AcDbEntity
  8
0
  6
CONTINUOUS
 62
     5
100
AcDbLine
 10
21.60354899999999
 20
4.964119999999999
 30
0.0
 11
21.547389
 21
4.879879999999999
 31
0.0
  0
LINE
  5
19E
330
1E
100
AcDbEntity
  8
0
  6
CONTINUOUS
 62
     5
100
AcDbLine
 10
21.60354899999999
 20
4.879879999999999
 30
0.0
 11
21.547389
 21
4.964119999999999
 31
0.0
  0
LINE
  5
19F
330
1E
100
AcDbEntity
  8
0
  6
CONTINUOUS
 62
     5
100
AcDbLine
 10
21.678429
 20
4.921999999999999
 30
0.0
 11
21.79074899999999
 21
4.921999999999999
 31
0.0
  0
LWPOLYLINE
  5
1A0
330
1E
100
AcDbEntity
  8
0
  6
CONTINUOUS
 62
     5
100
AcDbPolyline
 90
        3
 70
     0
 43
0.0
 10
21.73458899999999
 20
4.86584
 10
21.73458899999999
 20
4.97348
 10
21.73458899999999
 20
4.978159999999999
  0
LINE
  5
1A5
330
1E
100
AcDbEntity
  8
0
  6
CONTINUOUS
 62
     5
100
AcDbLine
 10
21.76266899999999
 20
4.964119999999999
 30
0.0
 11
21.706509
 21
4.879879999999999
 31
0.0
  0
LINE
  5
1A6
330
1E
100
AcDbEntity
  8
0
  6
CONTINUOUS
 62
     5
100
AcDbLine
 10
21.76266899999999
 20
4.879879999999999
 30
0.0
 11
21.706509
 21
4.964119999999999
 31
0.0
  0
LINE
  5
1A7
330
1E
100
AcDbEntity
  8
0
  6
CONTINUOUS
 62
     5
100
AcDbLine
 10
21.83754899999999
 20
4.921999999999999
 30
0.0
 11
21.94986899999999
 21
4.921999999999999
 31
0.0
  0
LWPOLYLINE
  5
1A8
330
1E
100
AcDbEntity
  8
0
  6
CONTINUOUS
 62
     5
100
AcDbPolyline
 90
        3
 70
     0
 43
0.0
 10
21.893709
 20
4.86584
 10
21.893709
 20
4.97348
 10
21.893709
 20
4.978159999999999
  0
LINE
  5
1AD
330
1E
100
AcDbEntity
  8
0
  6
CONTINUOUS
 62
     5
100
AcDbLine
 10
21.921789
 20
4.964119999999999
 30
0.0
 11
21.865629
 21
4.879879999999999
 31
0.0
  0
LINE
  5
1AE
330
1E
100
AcDbEntity
  8
0
  6
CONTINUOUS
 62
     5
100
AcDbLine
 10
21.921789
 20
4.879879999999999
 30
0.0
 11
21.865629
 21
4.964119999999999
 31
0.0
  0
LINE
  5
1AF
330
1E
100
AcDbEntity
  8
0
  6
CONTINUOUS
 62
     5
100
AcDbLine
 10
21.99666899999999
 20
4.921999999999999
 30
0.0
 11
22.108989
 21
4.921999999999999
 31
0.0
  0
LWPOLYLINE
  5
1B0
330
1E
100
AcDbEntity
  8
0
  6
CONTINUOUS
 62
     5
100
AcDbPolyline
 90
        3
 70
     0
 43
0.0
 10
22.05282899999999
 20
4.86584
 10
22.05282899999999
 20
4.97348
 10
22.05282899999999
 20
4.978159999999999
  0
LINE
  5
1B5
330
1E
100
AcDbEntity
  8
0
  6
CONTINUOUS
 62
     5
100
AcDbLine
 10
22.08090899999999
 20
4.964119999999999
 30
0.0
 11
22.02474899999999
 21
4.879879999999999
 31
0.0
  0
LINE
  5
1B6
330
1E
100
AcDbEntity
  8
0
  6
CONTINUOUS
 62
     5
100
AcDbLine
 10
19.42999999999999
 20
7.171999999999999
 30
0.0
 11
19.881
 21
7.171999999999999
 31
0.0
  0
LINE
  5
1B7
330
1E
100
AcDbEntity
  8
0
  6
CONTINUOUS
 62
     5
100
AcDbLine
 10
19.656
 20
6.947
 30
0.0
 11
19.656
 21
7.397
 31
0.0
  0
ARC
  5
1B8
330
1E
100
AcDbEntity
  8
0
  6
CONTINUOUS
 62
     5
100
AcDbCircle
 10
19.656
 20
7.171999999999999
 30
0.0
 40
0.183
100
AcDbArc
 50
85.00000099999999
 51
5.0
  0
CIRCLE
  5
1B9
330
1E
100
AcDbEntity
  8
0
  6
CONTINUOUS
 62
     5
100
AcDbCircle
 10
19.656
 20
7.171999999999999
 30
0.0
 40
0.156
  0
CIRCLE
  5
1BA
330
1E
100
AcDbEntity
  8
0
  6
CONTINUOUS
 62
     5
100
AcDbCircle
 10
19.656
 20
7.171999999999999
 30
0.0
 40
0.188
  0
LINE
  5
1BB
330
1E
100
AcDbEntity
  8
0
  6
CONTINUOUS
 62
     5
100
AcDbLine
 10
17.593
 20
6.947
 30
0.0
 11
17.593
 21
7.397
 31
0.0
  0
LINE
  5
1BC
330
1E
100
AcDbEntity
  8
0
  6
CONTINUOUS
 62
     5
100
AcDbLine
 10
19.431
 20
5.514999999999999
 30
0.0
 11
19.881
 21
5.514999999999999
 31
0.0
  0
LINE
  5
1BD
330
1E
100
AcDbEntity
  8
0
  6
CONTINUOUS
 62
     5
100
AcDbLine
 10
18.024
 20
5.0
 30
0.0
 11
19.225
 21
5.0
 31
0.0
  0
LINE
  5
1BE
330
1E
100
AcDbEntity
  8
0
  6
CONTINUOUS
 62
     5
100
AcDbLine
 10
19.656
 20
5.29
 30
0.0
 11
19.656
 21
5.74
 31
0.0
  0
ARC
  5
1BF
330
1E
100
AcDbEntity
  8
0
  6
CONTINUOUS
 62
     5
100
AcDbCircle
 10
19.656
 20
5.514999999999999
 30
0.0
 40
0.183
100
AcDbArc
 50
85.00000099999999
 51
5.0
  0
CIRCLE
  5
1C0
330
1E
100
AcDbEntity
  8
0
  6
CONTINUOUS
 62
     5
100
AcDbCircle
 10
19.656
 20
5.514999999999999
 30
0.0
 40
0.156
  0
CIRCLE
  5
1C1
330
1E
100
AcDbEntity
  8
0
  6
CONTINUOUS
 62
     5
100
AcDbCircle
 10
19.656
 20
5.514999999999999
 30
0.0
 40
0.188
  0
LINE
  5
1C2
330
1E
100
AcDbEntity
  8
0
  6
CONTINUOUS
 62
     5
100
AcDbLine
 10
17.593
 20
5.29
 30
0.0
 11
17.593
 21
5.74
 31
0.0
  0
LINE
  5
1C3
330
1E
100
AcDbEntity
  8
0
  6
CONTINUOUS
 62
     5
100
AcDbLine
 10
19.42999999999999
 20
4.485
 30
0.0
 11
19.881
 21
4.485
 31
0.0
  0
ARC
  5
1C4
330
1E
100
AcDbEntity
  8
0
  6
CONTINUOUS
 62
     5
100
AcDbCircle
 10
19.656
 20
4.485
 30
0.0
 40
0.183
100
AcDbArc
 50
85.00000099999999
 51
5.0
  0
CIRCLE
  5
1C5
330
1E
100
AcDbEntity
  8
0
  6
CONTINUOUS
 62
     5
100
AcDbCircle
 10
19.656
 20
4.485
 30
0.0
 40
0.156
  0
CIRCLE
  5
1C6
330
1E
100
AcDbEntity
  8
0
  6
CONTINUOUS
 62
     5
100
AcDbCircle
 10
19.656
 20
4.485
 30
0.0
 40
0.188
  0
LINE
  5
1C7
330
1E
100
AcDbEntity
  8
0
  6
CONTINUOUS
 62
     5
100
AcDbLine
 10
19.656
 20
4.259999999999999
 30
0.0
 11
19.656
 21
4.709999999999999
 31
0.0
  0
LINE
  5
1C8
330
1E
100
AcDbEntity
  8
0
  6
CONTINUOUS
 62
     5
100
AcDbLine
 10
18.625
 20
4.4
 30
0.0
 11
18.625
 21
5.599999999999999
 31
0.0
  0
CIRCLE
  5
1C9
330
1E
100
AcDbEntity
  8
0
  6
CONTINUOUS
 62
     5
100
AcDbCircle
 10
18.625
 20
5.0
 30
0.0
 40
0.5
  0
LINE
  5
1CA
330
1E
100
AcDbEntity
  8
0
  6
CONTINUOUS
 62
     5
100
AcDbLine
 10
17.593
 20
4.259999999999999
 30
0.0
 11
17.593
 21
4.709999999999999
 31
0.0
  0
TEXT
  5
1CB
330
1E
100
AcDbEntity
  8
0
 62
     5
100
AcDbText
 10
16.94362749999999
 20
4.893749999999999
 30
0.0
 40
0.2125
  1
A
 41
0.825
 72
     4
 11
17.00206499999999
 21
5.0
 31
0.0
100
AcDbText
  0
LINE
  5
1CC
330
1E
100
AcDbEntity
  8
0
  6
CONTINUOUS
 62
     5
100
AcDbLine
 10
15.43
 20
7.171999999999999
 30
0.0
 11
15.881
 21
7.171999999999999
 31
0.0
  0
LINE
  5
1CD
330
1E
100
AcDbEntity
  8
0
  6
CONTINUOUS
 62
     5
100
AcDbLine
 10
16.625
 20
5.847
 30
0.0
 11
16.625
 21
7.027
 31
0.0
  0
ARC
  5
1CE
330
1E
100
AcDbEntity
  8
0
  6
CONTINUOUS
 62
     5
100
AcDbCircle
 10
16.625
 20
6.437
 30
0.0
 40
0.283
100
AcDbArc
 50
85.00000099999999
 51
5.0
  0
CIRCLE
  5
1CF
330
1E
100
AcDbEntity
  8
0
  6
CONTINUOUS
 62
     5
100
AcDbCircle
 10
16.625
 20
6.437
 30
0.0
 40
0.242
  0
CIRCLE
  5
1D0
330
1E
100
AcDbEntity
  8
0
  6
CONTINUOUS
 62
     5
100
AcDbCircle
 10
16.625
 20
6.437
 30
0.0
 40
0.254
  0
CIRCLE
  5
1D1
330
1E
100
AcDbEntity
  8
0
  6
CONTINUOUS
 62
     5
100
AcDbCircle
 10
16.625
 20
6.437
 30
0.0
 40
0.281
  0
CIRCLE
  5
1D2
330
1E
100
AcDbEntity
  8
0
  6
CONTINUOUS
 62
     5
100
AcDbCircle
 10
16.625
 20
6.437
 30
0.0
 40
0.307
  0
CIRCLE
  5
1D3
330
1E
100
AcDbEntity
  8
0
  6
CONTINUOUS
 62
     5
100
AcDbCircle
 10
16.625
 20
6.437
 30
0.0
 40
0.492
  0
LINE
  5
1D4
330
1E
100
AcDbEntity
  8
0
  6
CONTINUOUS
 62
     5
100
AcDbLine
 10
15.656
 20
6.947
 30
0.0
 11
15.656
 21
7.397
 31
0.0
  0
ARC
  5
1D5
330
1E
100
AcDbEntity
  8
0
  6
CONTINUOUS
 62
     5
100
AcDbCircle
 10
15.656
 20
7.171999999999999
 30
0.0
 40
0.183
100
AcDbArc
 50
85.00000099999999
 51
5.0
  0
CIRCLE
  5
1D6
330
1E
100
AcDbEntity
  8
0
  6
CONTINUOUS
 62
     5
100
AcDbCircle
 10
15.656
 20
7.171999999999999
 30
0.0
 40
0.156
  0
CIRCLE
  5
1D7
330
1E
100
AcDbEntity
  8
0
  6
CONTINUOUS
 62
     5
100
AcDbCircle
 10
15.656
 20
7.171999999999999
 30
0.0
 40
0.188
  0
LINE
  5
1D8
330
1E
100
AcDbEntity
  8
0
  6
CONTINUOUS
 62
     5
100
AcDbLine
 10
15.43099999999999
 20
5.514999999999999
 30
0.0
 11
15.881
 21
5.514999999999999
 31
0.0
  0
LINE
  5
1D9
330
1E
100
AcDbEntity
  8
0
  6
CONTINUOUS
 62
     5
100
AcDbLine
 10
15.656
 20
5.29
 30
0.0
 11
15.656
 21
5.74
 31
0.0
  0
ARC
  5
1DA
330
1E
100
AcDbEntity
  8
0
  6
CONTINUOUS
 62
     5
100
AcDbCircle
 10
15.656
 20
5.514999999999999
 30
0.0
 40
0.183
100
AcDbArc
 50
85.00000099999999
 51
5.0
  0
CIRCLE
  5
1DB
330
1E
100
AcDbEntity
  8
0
  6
CONTINUOUS
 62
     5
100
AcDbCircle
 10
15.656
 20
5.514999999999999
 30
0.0
 40
0.156
  0
CIRCLE
  5
1DC
330
1E
100
AcDbEntity
  8
0
  6
CONTINUOUS
 62
     5
100
AcDbCircle
 10
15.656
 20
5.514999999999999
 30
0.0
 40
0.188
  0
LINE
  5
1DD
330
1E
100
AcDbEntity
  8
0
  6
CONTINUOUS
 62
     5
100
AcDbLine
 10
16.03399999999999
 20
6.437
 30
0.0
 11
17.21499999999999
 21
6.437
 31
0.0
  0
TEXT
  5
1DE
330
1E
100
AcDbEntity
  8
0
 62
     5
100
AcDbText
 10
12.9436275
 20
4.893749999999999
 30
0.0
 40
0.2125
  1
A
 41
0.825
 72
     4
 11
13.002065
 21
5.0
 31
0.0
100
AcDbText
  0
LINE
  5
1DF
330
1E
100
AcDbEntity
  8
0
  6
CONTINUOUS
 62
     5
100
AcDbLine
 10
13.368
 20
7.171999999999999
 30
0.0
 11
13.818
 21
7.171999999999999
 31
0.0
  0
LINE
  5
1E0
330
1E
100
AcDbEntity
  8
0
  6
CONTINUOUS
 62
     5
100
AcDbLine
 10
13.593
 20
6.947
 30
0.0
 11
13.593
 21
7.397
 31
0.0
  0
ARC
  5
1E1
330
1E
100
AcDbEntity
  8
0
  6
CONTINUOUS
 62
     5
100
AcDbCircle
 10
13.593
 20
7.171999999999999
 30
0.0
 40
0.183
100
AcDbArc
 50
85.00000099999999
 51
5.0
  0
CIRCLE
  5
1E2
330
1E
100
AcDbEntity
  8
0
  6
CONTINUOUS
 62
     5
100
AcDbCircle
 10
13.593
 20
7.171999999999999
 30
0.0
 40
0.156
  0
CIRCLE
  5
1E3
330
1E
100
AcDbEntity
  8
0
  6
CONTINUOUS
 62
     5
100
AcDbCircle
 10
13.593
 20
7.171999999999999
 30
0.0
 40
0.188
  0
LINE
  5
1E4
330
1E
100
AcDbEntity
  8
0
  6
CONTINUOUS
 62
     5
100
AcDbLine
 10
13.368
 20
5.514999999999999
 30
0.0
 11
13.818
 21
5.514999999999999
 31
0.0
  0
LINE
  5
1E5
330
1E
100
AcDbEntity
  8
0
  6
CONTINUOUS
 62
     5
100
AcDbLine
 10
13.593
 20
5.29
 30
0.0
 11
13.593
 21
5.74
 31
0.0
  0
ARC
  5
1E6
330
1E
100
AcDbEntity
  8
0
  6
CONTINUOUS
 62
     5
100
AcDbCircle
 10
13.593
 20
5.514999999999999
 30
0.0
 40
0.183
100
AcDbArc
 50
85.00000099999999
 51
5.0
  0
CIRCLE
  5
1E7
330
1E
100
AcDbEntity
  8
0
  6
CONTINUOUS
 62
     5
100
AcDbCircle
 10
13.593
 20
5.514999999999999
 30
0.0
 40
0.156
  0
CIRCLE
  5
1E8
330
1E
100
AcDbEntity
  8
0
  6
CONTINUOUS
 62
     5
100
AcDbCircle
 10
13.593
 20
5.514999999999999
 30
0.0
 40
0.188
  0
LINE
  5
1E9
330
1E
100
AcDbEntity
  8
0
  6
CONTINUOUS
 62
     5
100
AcDbLine
 10
14.024
 20
5.0
 30
0.0
 11
15.22499999999999
 21
5.0
 31
0.0
  0
LINE
  5
1EA
330
1E
100
AcDbEntity
  8
0
  6
CONTINUOUS
 62
     5
100
AcDbLine
 10
15.43
 20
4.485
 30
0.0
 11
15.881
 21
4.485
 31
0.0
  0
LINE
  5
1EB
330
1E
100
AcDbEntity
  8
0
  6
CONTINUOUS
 62
     5
100
AcDbLine
 10
13.368
 20
4.485
 30
0.0
 11
13.818
 21
4.485
 31
0.0
  0
ARC
  5
1EC
330
1E
100
AcDbEntity
  8
0
  6
CONTINUOUS
 62
     5
100
AcDbCircle
 10
15.656
 20
4.485
 30
0.0
 40
0.183
100
AcDbArc
 50
85.00000099999999
 51
5.0
  0
CIRCLE
  5
1ED
330
1E
100
AcDbEntity
  8
0
  6
CONTINUOUS
 62
     5
100
AcDbCircle
 10
15.656
 20
4.485
 30
0.0
 40
0.156
  0
CIRCLE
  5
1EE
330
1E
100
AcDbEntity
  8
0
  6
CONTINUOUS
 62
     5
100
AcDbCircle
 10
15.656
 20
4.485
 30
0.0
 40
0.188
  0
LINE
  5
1EF
330
1E
100
AcDbEntity
  8
0
  6
CONTINUOUS
 62
     5
100
AcDbLine
 10
15.656
 20
4.259999999999999
 30
0.0
 11
15.656
 21
4.709999999999999
 31
0.0
  0
ARC
  5
1F0
330
1E
100
AcDbEntity
  8
0
  6
CONTINUOUS
 62
     5
100
AcDbCircle
 10
13.593
 20
4.485
 30
0.0
 40
0.183
100
AcDbArc
 50
85.00000099999999
 51
5.0
  0
CIRCLE
  5
1F1
330
1E
100
AcDbEntity
  8
0
  6
CONTINUOUS
 62
     5
100
AcDbCircle
 10
13.593
 20
4.485
 30
0.0
 40
0.156
  0
CIRCLE
  5
1F2
330
1E
100
AcDbEntity
  8
0
  6
CONTINUOUS
 62
     5
100
AcDbCircle
 10
13.593
 20
4.485
 30
0.0
 40
0.188
  0
LINE
  5
1F3
330
1E
100
AcDbEntity
  8
0
  6
CONTINUOUS
 62
     5
100
AcDbLine
 10
14.625
 20
4.4
 30
0.0
 11
14.625
 21
5.599999999999999
 31
0.0
  0
LINE
  5
1F4
330
1E
100
AcDbEntity
  8
0
  6
CONTINUOUS
 62
     5
100
AcDbLine
 10
13.593
 20
4.259999999999999
 30
0.0
 11
13.593
 21
4.709999999999999
 31
0.0
  0
CIRCLE
  5
1F5
330
1E
100
AcDbEntity
  8
0
  6
CONTINUOUS
 62
     5
100
AcDbCircle
 10
14.625
 20
5.0
 30
0.0
 40
0.5
  0
LINE
  5
1F6
330
1E
100
AcDbEntity
  8
0
  6
CONTINUOUS
 62
     5
100
AcDbLine
 10
17.36799999999999
 20
7.171999999999999
 30
0.0
 11
17.818
 21
7.171999999999999
 31
0.0
  0
ARC
  5
1F7
330
1E
100
AcDbEntity
  8
0
  6
CONTINUOUS
 62
     5
100
AcDbCircle
 10
17.593
 20
7.171999999999999
 30
0.0
 40
0.183
100
AcDbArc
 50
85.00000099999999
 51
5.0
  0
CIRCLE
  5
1F8
330
1E
100
AcDbEntity
  8
0
  6
CONTINUOUS
 62
     5
100
AcDbCircle
 10
17.593
 20
7.171999999999999
 30
0.0
 40
0.156
  0
CIRCLE
  5
1F9
330
1E
100
AcDbEntity
  8
0
  6
CONTINUOUS
 62
     5
100
AcDbCircle
 10
17.593
 20
7.171999999999999
 30
0.0
 40
0.188
  0
LINE
  5
1FA
330
1E
100
AcDbEntity
  8
0
  6
CONTINUOUS
 62
     5
100
AcDbLine
 10
17.36799999999999
 20
5.514999999999999
 30
0.0
 11
17.819
 21
5.514999999999999
 31
0.0
  0
LINE
  5
1FB
330
1E
100
AcDbEntity
  8
0
  6
CONTINUOUS
 62
     5
100
AcDbLine
 10
17.36799999999999
 20
4.485
 30
0.0
 11
17.818
 21
4.485
 31
0.0
  0
ARC
  5
1FC
330
1E
100
AcDbEntity
  8
0
  6
CONTINUOUS
 62
     5
100
AcDbCircle
 10
17.593
 20
4.485
 30
0.0
 40
0.183
100
AcDbArc
 50
85.00000099999999
 51
5.0
  0
CIRCLE
  5
1FD
330
1E
100
AcDbEntity
  8
0
  6
CONTINUOUS
 62
     5
100
AcDbCircle
 10
17.593
 20
4.485
 30
0.0
 40
0.156
  0
CIRCLE
  5
1FE
330
1E
100
AcDbEntity
  8
0
  6
CONTINUOUS
 62
     5
100
AcDbCircle
 10
17.593
 20
4.485
 30
0.0
 40
0.188
  0
ARC
  5
1FF
330
1E
100
AcDbEntity
  8
0
  6
CONTINUOUS
 62
     5
100
AcDbCircle
 10
17.593
 20
5.514999999999999
 30
0.0
 40
0.183
100
AcDbArc
 50
85.00000099999999
 51
5.0
  0
CIRCLE
  5
200
330
1E
100
AcDbEntity
  8
0
  6
CONTINUOUS
 62
     5
100
AcDbCircle
 10
17.593
 20
5.514999999999999
 30
0.0
 40
0.156
  0
CIRCLE
  5
201
330
1E
100
AcDbEntity
  8
0
  6
CONTINUOUS
 62
     5
100
AcDbCircle
 10
17.593
 20
5.514999999999999
 30
0.0
 40
0.188
  0
CIRCLE
  5
202
330
1E
100
AcDbEntity
  8
0
  6
CONTINUOUS
 62
     5
100
AcDbCircle
 10
18.625
 20
7.687
 30
0.0
 40
0.5
  0
LINE
  5
203
330
1E
100
AcDbEntity
  8
0
  6
CONTINUOUS
 62
     5
100
AcDbLine
 10
18.625
 20
7.086999999999999
 30
0.0
 11
18.625
 21
8.287
 31
0.0
  0
LINE
  5
204
330
1E
100
AcDbEntity
  8
0
  6
CONTINUOUS
 62
     5
100
AcDbLine
 10
14.625
 20
7.086999999999999
 30
0.0
 11
14.625
 21
8.287
 31
0.0
  0
CIRCLE
  5
205
330
1E
100
AcDbEntity
  8
0
  6
CONTINUOUS
 62
     5
100
AcDbCircle
 10
14.625
 20
7.687
 30
0.0
 40
0.5
  0
LINE
  5
206
330
1E
100
AcDbEntity
  8
0
  6
CONTINUOUS
 62
     5
100
AcDbLine
 10
12.625
 20
8.285
 30
0.0
 11
12.625
 21
9.464999999999999
 31
0.0
  0
LINE
  5
20C
330
1E
100
AcDbEntity
  8
0
  6
CONTINUOUS
 62
     5
100
AcDbLine
 10
9.375
 20
12.125
 30
0.0
 11
3.375
 21
12.125
 31
0.0
  0
LINE
  5
20D
330
1E
100
AcDbEntity
  8
0
  6
CONTINUOUS
 62
     5
100
AcDbLine
 10
11.875
 20
3.625
 30
0.0
 11
11.875
 21
9.625
 31
0.0
  0
ARC
  5
20E
330
1E
100
AcDbEntity
  8
0
  6
CONTINUOUS
 62
     5
100
AcDbCircle
 10
12.625
 20
8.875
 30
0.0
 40
0.219
100
AcDbArc
 50
85.00000099999999
 51
5.0
  0
CIRCLE
  5
20F
330
1E
100
AcDbEntity
  8
0
  6
CONTINUOUS
 62
     5
100
AcDbCircle
 10
12.625
 20
8.875
 30
0.0
 40
0.188
  0
LINE
  5
210
330
1E
100
AcDbEntity
  8
0
  6
CONTINUOUS
 62
     5
100
AcDbLine
 10
12.034
 20
8.875
 30
0.0
 11
13.215
 21
8.875
 31
0.0
  0
CIRCLE
  5
211
330
1E
100
AcDbEntity
  8
0
  6
CONTINUOUS
 62
     5
100
AcDbCircle
 10
12.625
 20
8.875
 30
0.0
 40
0.254
  0
CIRCLE
  5
212
330
1E
100
AcDbEntity
  8
0
  6
CONTINUOUS
 62
     5
100
AcDbCircle
 10
12.625
 20
8.875
 30
0.0
 40
0.281
  0
CIRCLE
  5
213
330
1E
100
AcDbEntity
  8
0
  6
CONTINUOUS
 62
     5
100
AcDbCircle
 10
12.625
 20
8.875
 30
0.0
 40
0.307
  0
CIRCLE
  5
214
330
1E
100
AcDbEntity
  8
0
  6
CONTINUOUS
 62
     5
100
AcDbCircle
 10
12.625
 20
8.875
 30
0.0
 40
0.492
  0
LINE
  5
215
330
1E
100
AcDbEntity
  8
0
  6
CONTINUOUS
 62
     5
100
AcDbLine
 10
9.375
 20
19.125
 30
0.0
 11
9.375
 21
12.125
 31
0.0
  0
LINE
  5
216
330
1E
100
AcDbEntity
  8
0
  6
CONTINUOUS
 62
     5
100
AcDbLine
 10
11.875
 20
19.125
 30
0.0
 11
11.875
 21
12.125
 31
0.0
  0
LINE
  5
218
330
1E
100
AcDbEntity
  8
0
  6
CONTINUOUS
 62
     5
100
AcDbLine
 10
11.875
 20
12.125
 30
0.0
 11
22.5
 21
12.125
 31
0.0
  0
LINE
  5
219
330
1E
100
AcDbEntity
  8
0
  6
CONTINUOUS
 62
     5
100
AcDbLine
 10
22.5
 20
19.125
 30
0.0
 11
11.875
 21
19.125
 31
0.0
  0
LINE
  5
21A
330
1E
100
AcDbEntity
  8
0
  6
CONTINUOUS
 62
     5
100
AcDbLine
 10
11.875
 20
9.625
 30
0.0
 11
22.5
 21
9.625
 31
0.0
  0
LINE
  5
21B
330
1E
100
AcDbEntity
  8
0
  6
CONTINUOUS
 62
     5
100
AcDbLine
 10
22.5
 20
3.625
 30
0.0
 11
11.875
 21
3.625
 31
0.0
  0
INSERT
  5
2B8
330
1E
100
AcDbEntity
  8
0
  6
CONTINUOUS
100
AcDbBlockReference
  2
A$C34C4372B
 10
3.375
 20
19.125
 30
0.0
  0
LINE
  5
2BF
330
1E
100
AcDbEntity
  8
0
  6
HIDDEN
100
AcDbLine
 10
3.375
 20
14.97748318774159
 30
0.0
 11
3.375
 21
12.125
 31
0.0
  0
INSERT
  5
2C0
330
1E
100
AcDbEntity
  8
0
  6
CONTINUOUS
100
AcDbBlockReference
  2
A$C34C4372B
 10
31.0
 20
19.125
 30
0.0
 41
-1.0
  0
LINE
  5
2C1
330
1E
100
AcDbEntity
  8
0
  6
HIDDEN
100
AcDbLine
 10
31.0
 20
14.97748318774159
 30
0.0
 11
31.0
 21
12.125
 31
0.0
  0
INSERT
  5
2F0
330
1E
100
AcDbEntity
  8
0
  6
CONTINUOUS
100
AcDbBlockReference
  2
A$C38F71B80
 10
11.875
 20
19.125
 30
0.0
  0
INSERT
  5
2F6
330
1E
100
AcDbEntity
  8
DAMAN
100
AcDbBlockReference
  2
700MKCT
 10
23.5625
 20
12.8125
 30
0.0
  0
INSERT
  5
329
330
1E
100
AcDbEntity
  8
DAMAN
100
AcDbBlockReference
  2
600MKS
 10
11.875
 20
3.625
 30
0.0
  0
INSERT
  5
32F
330
1E
100
AcDbEntity
  8
DAMAN
100
AcDbBlockReference
  2
600MKS
 10
22.5
 20
3.625
 30
0.0
 41
-1.0
  0
MTEXT
  5
355
330
1E
100
AcDbEntity
  8
0
  6
CONTINUOUS
100
AcDbMText
 10
17.31936794066688
 20
6.544222054050031
 30
0.0
 40
0.2
 41
0.3741
 71
     1
 72
     5
  1
GA
1001
ACAD
1000
MTEXTBEGIN
1070
    73
1070
     1
1070
    44
1040
1.0
1070
    74
1070
     0
1000
MTEXTEND
  0
ENDSEC
  0
SECTION
  2
OBJECTS
  0
DICTIONARY
  5
C
330
0
100
AcDbDictionary
  3
ACAD_GROUP
350
D
  3
ACAD_LAYOUT
350
19
  3
ACAD_MLINESTYLE
350
16
  3
ACAD_PLOTSETTINGS
350
18
  3
ACAD_PLOTSTYLENAME
350
E
  3
ACDBHEADERROUNDTRIPXREC
350
358
  0
DICTIONARY
  5
37A
330
1E
100
AcDbDictionary
280
     1
  3
ACAD_LAYOUTSELFREF
360
37B
  0
DICTIONARY
  5
378
330
1A
100
AcDbDictionary
280
     1
  3
ACAD_LAYOUTSELFREF
360
379
  0
DICTIONARY
  5
D
102
{ACAD_REACTORS
330
C
102
}
330
C
100
AcDbDictionary
  0
DICTIONARY
  5
19
102
{ACAD_REACTORS
330
C
102
}
330
C
100
AcDbDictionary
  0
DICTIONARY
  5
16
102
{ACAD_REACTORS
330
C
102
}
330
C
100
AcDbDictionary
  3
STANDARD
350
17
  0
DICTIONARY
  5
18
102
{ACAD_REACTORS
330
C
102
}
330
C
100
AcDbDictionary
  0
ACDBDICTIONARYWDFLT
  5
E
102
{ACAD_REACTORS
330
C
102
}
330
C
100
AcDbDictionary
281
     1
  3
Normal
350
F
100
AcDbDictionaryWithDefault
340
F
  0
DICTIONARY
  5
358
102
{ACAD_REACTORS
330
C
102
}
330
C
100
AcDbDictionary
  3
CEPSNTYPE
350
362
  3
FINGERPRINTGUID
350
363
  3
HYPERLINKBASE
350
35B
  3
INSUNITS
350
361
  3
LAYOUTDICT
350
35D
  3
LWETCUNION
350
360
  3
PLOTSETDICT
350
35E
  3
PLOTSTYLNAMDICT
350
35F
  3
PSVPSCALE
350
365
  3
PUCSBASE
350
368
  3
PUCSORGBACK
350
36E
  3
PUCSORGBOTTOM
350
36A
  3
PUCSORGFRONT
350
36D
  3
PUCSORGLEFT
350
36B
  3
PUCSORGRIGHT
350
36C
  3
PUCSORGTOP
350
369
  3
PUCSORTHOREF
350
366
  3
PUCSORTHOVIEW
350
367
  3
STYLESHEET
350
35C
  3
TSTACKALIGN
350
359
  3
TSTACKSIZE
350
35A
  3
UCSBASE
350
371
  3
UCSORGBACK
350
377
  3
UCSORGBOTTOM
350
373
  3
UCSORGFRONT
350
376
  3
UCSORGLEFT
350
374
  3
UCSORGRIGHT
350
375
  3
UCSORGTOP
350
372
  3
UCSORTHOREF
350
36F
  3
UCSORTHOVIEW
350
370
  3
VERSIONGUID
350
364
  0
XRECORD
  5
37B
102
{ACAD_REACTORS
330
37A
102
}
330
37A
100
AcDbXrecord
340
1E
  0
XRECORD
  5
379
102
{ACAD_REACTORS
330
378
102
}
330
378
100
AcDbXrecord
340
1A
  0
MLINESTYLE
  5
17
102
{ACAD_REACTORS
330
16
102
}
330
16
100
AcDbMlineStyle
  2
STANDARD
 70
     0
  3

 62
   256
 51
90.0
 52
90.0
 71
     2
 49
0.5
 62
   256
  6
BYLAYER
 49
-0.5
 62
   256
  6
BYLAYER
  0
ACDBPLACEHOLDER
  5
F
102
{ACAD_REACTORS
330
E
102
}
330
E
100
AcDbPlaceHolder
280
     0
  0
XRECORD
  5
362
102
{ACAD_REACTORS
330
358
102
}
330
358
100
AcDbXrecord
 90
        0
  0
XRECORD
  5
363
102
{ACAD_REACTORS
330
358
102
}
330
358
100
AcDbXrecord
  1
{E245A6E6-E24E-40D2-BDE3-B1FEEE8F92F2}
  0
XRECORD
  5
35B
102
{ACAD_REACTORS
330
358
102
}
330
358
100
AcDbXrecord
  1

  0
XRECORD
  5
361
102
{ACAD_REACTORS
330
358
102
}
330
358
100
AcDbXrecord
 90
        0
  0
XRECORD
  5
35D
102
{ACAD_REACTORS
330
358
102
}
330
358
100
AcDbXrecord
340
19
  0
XRECORD
  5
360
102
{ACAD_REACTORS
330
358
102
}
330
358
100
AcDbXrecord
 90
    10781
  0
XRECORD
  5
35E
102
{ACAD_REACTORS
330
358
102
}
330
358
100
AcDbXrecord
340
18
  0
XRECORD
  5
35F
102
{ACAD_REACTORS
330
358
102
}
330
358
100
AcDbXrecord
340
E
  0
XRECORD
  5
365
102
{ACAD_REACTORS
330
358
102
}
330
358
100
AcDbXrecord
 40
0.0
  0
XRECORD
  5
368
102
{ACAD_REACTORS
330
358
102
}
330
358
100
AcDbXrecord
340
0
  0
XRECORD
  5
36E
102
{ACAD_REACTORS
330
358
102
}
330
358
100
AcDbXrecord
 10
0.0
 20
0.0
 30
0.0
  0
XRECORD
  5
36A
102
{ACAD_REACTORS
330
358
102
}
330
358
100
AcDbXrecord
 10
0.0
 20
0.0
 30
0.0
  0
XRECORD
  5
36D
102
{ACAD_REACTORS
330
358
102
}
330
358
100
AcDbXrecord
 10
0.0
 20
0.0
 30
0.0
  0
XRECORD
  5
36B
102
{ACAD_REACTORS
330
358
102
}
330
358
100
AcDbXrecord
 10
0.0
 20
0.0
 30
0.0
  0
XRECORD
  5
36C
102
{ACAD_REACTORS
330
358
102
}
330
358
100
AcDbXrecord
 10
0.0
 20
0.0
 30
0.0
  0
XRECORD
  5
369
102
{ACAD_REACTORS
330
358
102
}
330
358
100
AcDbXrecord
 10
0.0
 20
0.0
 30
0.0
  0
XRECORD
  5
366
102
{ACAD_REACTORS
330
358
102
}
330
358
100
AcDbXrecord
340
0
  0
XRECORD
  5
367
102
{ACAD_REACTORS
330
358
102
}
330
358
100
AcDbXrecord
 70
     0
  0
XRECORD
  5
35C
102
{ACAD_REACTORS
330
358
102
}
330
358
100
AcDbXrecord
  1

  0
XRECORD
  5
359
102
{ACAD_REACTORS
330
358
102
}
330
358
100
AcDbXrecord
 90
        1
  0
XRECORD
  5
35A
102
{ACAD_REACTORS
330
358
102
}
330
358
100
AcDbXrecord
 90
       70
  0
XRECORD
  5
371
102
{ACAD_REACTORS
330
358
102
}
330
358
100
AcDbXrecord
340
0
  0
XRECORD
  5
377
102
{ACAD_REACTORS
330
358
102
}
330
358
100
AcDbXrecord
 10
0.0
 20
0.0
 30
0.0
  0
XRECORD
  5
373
102
{ACAD_REACTORS
330
358
102
}
330
358
100
AcDbXrecord
 10
0.0
 20
0.0
 30
0.0
  0
XRECORD
  5
376
102
{ACAD_REACTORS
330
358
102
}
330
358
100
AcDbXrecord
 10
0.0
 20
0.0
 30
0.0
  0
XRECORD
  5
374
102
{ACAD_REACTORS
330
358
102
}
330
358
100
AcDbXrecord
 10
0.0
 20
0.0
 30
0.0
  0
XRECORD
  5
375
102
{ACAD_REACTORS
330
358
102
}
330
358
100
AcDbXrecord
 10
0.0
 20
0.0
 30
0.0
  0
XRECORD
  5
372
102
{ACAD_REACTORS
330
358
102
}
330
358
100
AcDbXrecord
 10
0.0
 20
0.0
 30
0.0
  0
XRECORD
  5
36F
102
{ACAD_REACTORS
330
358
102
}
330
358
100
AcDbXrecord
340
0
  0
XRECORD
  5
370
102
{ACAD_REACTORS
330
358
102
}
330
358
100
AcDbXrecord
 70
     0
  0
XRECORD
  5
364
102
{ACAD_REACTORS
330
358
102
}
330
358
100
AcDbXrecord
  1
{7E177D1C-4D45-41A4-8001-02CD563776B9}
  0
ENDSEC
  0
EOF
