  0
SECTION
  2
HEADER
  9
$ACADVER
  1
AC1014
  9
$ACADMAINTVER
 70
     9
  9
$DWGCODEPAGE
  3
ANSI_1252
  9
$INSBASE
 10
0.0
 20
0.0
 30
0.0
  9
$EXTMIN
 10
7.159710342672468
 20
4.630493234645683
 30
-0.0015258207003583
  9
$EXTMAX
 10
31.71994133334897
 20
25.19598394864702
 30
0.0000000349246037
  9
$LIMMIN
 10
0.0
 20
0.0
  9
$LIMMAX
 10
28.0
 20
28.0
  9
$ORTHOMODE
 70
     0
  9
$REGENMODE
 70
     1
  9
$FILLMODE
 70
     1
  9
$QTEXTMODE
 70
     0
  9
$MIRRTEXT
 70
     1
  9
$DRAGMODE
 70
     2
  9
$LTSCALE
 40
1.0
  9
$OSMODE
 70
    37
  9
$ATTMODE
 70
     1
  9
$TEXTSIZE
 40
0.2
  9
$TRACEWID
 40
0.05
  9
$TEXTSTYLE
  7
STANDARD
  9
$CLAYER
  8
DAMAN
  9
$CELTYPE
  6
BYLAYER
  9
$CECOLOR
 62
   256
  9
$CELTSCALE
 40
1.0
  9
$DELOBJ
 70
     1
  9
$DISPSILH
 70
     0
  9
$DIMSCALE
 40
1.0
  9
$DIMASZ
 40
0.18
  9
$DIMEXO
 40
0.0625
  9
$DIMDLI
 40
0.38
  9
$DIMRND
 40
0.0
  9
$DIMDLE
 40
0.0
  9
$DIMEXE
 40
0.18
  9
$DIMTP
 40
0.0
  9
$DIMTM
 40
0.0
  9
$DIMTXT
 40
0.18
  9
$DIMCEN
 40
0.09
  9
$DIMTSZ
 40
0.0
  9
$DIMTOL
 70
     0
  9
$DIMLIM
 70
     0
  9
$DIMTIH
 70
     1
  9
$DIMTOH
 70
     1
  9
$DIMSE1
 70
     0
  9
$DIMSE2
 70
     0
  9
$DIMTAD
 70
     0
  9
$DIMZIN
 70
     0
  9
$DIMBLK
  1

  9
$DIMASO
 70
     1
  9
$DIMSHO
 70
     1
  9
$DIMPOST
  1

  9
$DIMAPOST
  1

  9
$DIMALT
 70
     0
  9
$DIMALTD
 70
     2
  9
$DIMALTF
 40
25.4
  9
$DIMLFAC
 40
1.0
  9
$DIMTOFL
 70
     0
  9
$DIMTVP
 40
0.0
  9
$DIMTIX
 70
     0
  9
$DIMSOXD
 70
     0
  9
$DIMSAH
 70
     0
  9
$DIMBLK1
  1

  9
$DIMBLK2
  1

  9
$DIMSTYLE
  2
DAMAN
  9
$DIMCLRD
 70
     0
  9
$DIMCLRE
 70
     0
  9
$DIMCLRT
 70
     0
  9
$DIMTFAC
 40
1.0
  9
$DIMGAP
 40
0.09
  9
$DIMJUST
 70
     0
  9
$DIMSD1
 70
     0
  9
$DIMSD2
 70
     0
  9
$DIMTOLJ
 70
     1
  9
$DIMTZIN
 70
     0
  9
$DIMALTZ
 70
     0
  9
$DIMALTTZ
 70
     0
  9
$DIMFIT
 70
     3
  9
$DIMUPT
 70
     0
  9
$DIMUNIT
 70
     2
  9
$DIMDEC
 70
     4
  9
$DIMTDEC
 70
     4
  9
$DIMALTU
 70
     2
  9
$DIMALTTD
 70
     2
  9
$DIMTXSTY
  7
STANDARD
  9
$DIMAUNIT
 70
     0
  9
$LUNITS
 70
     2
  9
$LUPREC
 70
     4
  9
$SKETCHINC
 40
0.1
  9
$FILLETRAD
 40
0.0
  9
$AUNITS
 70
     0
  9
$AUPREC
 70
     0
  9
$MENU
  1
tom
  9
$ELEVATION
 40
0.0
  9
$PELEVATION
 40
0.0
  9
$THICKNESS
 40
0.0
  9
$LIMCHECK
 70
     0
  9
$BLIPMODE
 70
     0
  9
$CHAMFERA
 40
0.0
  9
$CHAMFERB
 40
0.0
  9
$CHAMFERC
 40
0.0
  9
$CHAMFERD
 40
0.0
  9
$SKPOLY
 70
     0
  9
$TDCREATE
 40
2450463.632040277
  9
$TDUPDATE
 40
2453419.455966133
  9
$TDINDWG
 40
0.0006459722
  9
$TDUSRTIMER
 40
0.0006459722
  9
$USRTIMER
 70
     1
  9
$ANGBASE
 50
0.0
  9
$ANGDIR
 70
     0
  9
$PDMODE
 70
     0
  9
$PDSIZE
 40
0.0
  9
$PLINEWID
 40
0.0
  9
$COORDS
 70
     1
  9
$SPLFRAME
 70
     0
  9
$SPLINETYPE
 70
     6
  9
$SPLINESEGS
 70
     8
  9
$ATTDIA
 70
     0
  9
$ATTREQ
 70
     1
  9
$HANDLING
 70
-16383
  9
$HANDSEED
  5
88E
  9
$SURFTAB1
 70
     6
  9
$SURFTAB2
 70
     6
  9
$SURFTYPE
 70
     6
  9
$SURFU
 70
     6
  9
$SURFV
 70
     6
  9
$UCSNAME
  2

  9
$UCSORG
 10
0.0
 20
0.0
 30
0.0
  9
$UCSXDIR
 10
1.0
 20
0.0
 30
0.0
  9
$UCSYDIR
 10
0.0
 20
1.0
 30
0.0
  9
$PUCSNAME
  2

  9
$PUCSORG
 10
0.0
 20
0.0
 30
0.0
  9
$PUCSXDIR
 10
1.0
 20
0.0
 30
0.0
  9
$PUCSYDIR
 10
0.0
 20
1.0
 30
0.0
  9
$USERI1
 70
     0
  9
$USERI2
 70
     0
  9
$USERI3
 70
     0
  9
$USERI4
 70
     0
  9
$USERI5
 70
     0
  9
$USERR1
 40
0.0
  9
$USERR2
 40
0.0
  9
$USERR3
 40
0.0
  9
$USERR4
 40
0.0
  9
$USERR5
 40
0.0
  9
$WORLDVIEW
 70
     1
  9
$SHADEDGE
 70
     3
  9
$SHADEDIF
 70
    70
  9
$TILEMODE
 70
     1
  9
$MAXACTVP
 70
    16
  9
$PINSBASE
 10
0.0
 20
0.0
 30
0.0
  9
$PLIMCHECK
 70
     0
  9
$PEXTMIN
 10
1.000000000000000E+20
 20
1.000000000000000E+20
 30
1.000000000000000E+20
  9
$PEXTMAX
 10
-1.000000000000000E+20
 20
-1.000000000000000E+20
 30
-1.000000000000000E+20
  9
$PLIMMIN
 10
0.0
 20
0.0
  9
$PLIMMAX
 10
12.0
 20
9.0
  9
$UNITMODE
 70
     0
  9
$VISRETAIN
 70
     0
  9
$PLINEGEN
 70
     0
  9
$PSLTSCALE
 70
     1
  9
$TREEDEPTH
 70
  3020
  9
$PICKSTYLE
 70
     1
  9
$CMLSTYLE
  2
STANDARD
  9
$CMLJUST
 70
     0
  9
$CMLSCALE
 40
1.0
  9
$PROXYGRAPHICS
 70
     1
  9
$MEASUREMENT
 70
     0
  0
ENDSEC
  0
SECTION
  2
CLASSES
  0
CLASS
  1
ACDBDICTIONARYWDFLT
  2
AcDbDictionaryWithDefault
  3
AutoCAD 2000
 90
        0
280
     0
281
     0
  0
CLASS
  1
ACDBPLACEHOLDER
  2
AcDbPlaceHolder
  3
AutoCAD 2000
 90
        0
280
     0
281
     0
  0
CLASS
  1
LAYOUT
  2
AcDbLayout
  3
AutoCAD 2000
 90
        0
280
     0
281
     0
  0
CLASS
  1
LONG_TRANSACTION
  2
AcDbLongTransaction
  3
AutoCAD 2000
 90
        0
280
     0
281
     0
  0
CLASS
  1
LWPOLYLINE
  2
AcDbPolyline
  3
AutoCAD 2000
 90
        0
280
     0
281
     1
  0
CLASS
  1
HATCH
  2
AcDbHatch
  3
AutoCAD 2000
 90
        0
280
     0
281
     1
  0
CLASS
  1
XRECORD
  2
AcDbXrecord
  3
AutoCAD 2000
 90
        0
280
     0
281
     0
  0
ENDSEC
  0
SECTION
  2
TABLES
  0
TABLE
  2
VPORT
  5
656
330
0
100
AcDbSymbolTable
 70
     2
  0
VPORT
  5
869
330
656
100
AcDbSymbolTableRecord
100
AcDbViewportTableRecord
  2
*ACTIVE
 70
     0
 10
0.0
 20
0.0
 11
1.0
 21
1.0
 12
19.43982583801071
 22
14.91323859164635
 13
0.0
 23
0.0
 14
1.0
 24
1.0
 15
0.0
 25
0.0
 16
0.0
 26
0.0
 36
1.0
 17
0.0
 27
0.0
 37
0.0
 40
20.77934330374831
 41
1.647569444444444
 42
50.0
 43
0.0
 44
0.0
 50
0.0
 51
0.0
 71
     0
 72
   100
 73
     1
 74
     1
 75
     0
 76
     0
 77
     0
 78
     0
  0
ENDTAB
  0
TABLE
  2
LTYPE
  5
653
330
0
100
AcDbSymbolTable
 70
     2
  0
LTYPE
  5
661
330
653
100
AcDbSymbolTableRecord
100
AcDbLinetypeTableRecord
  2
BYBLOCK
 70
     0
  3

 72
    65
 73
     0
 40
0.0
  0
LTYPE
  5
662
330
653
100
AcDbSymbolTableRecord
100
AcDbLinetypeTableRecord
  2
BYLAYER
 70
     0
  3

 72
    65
 73
     0
 40
0.0
  0
LTYPE
  5
663
330
653
100
AcDbSymbolTableRecord
100
AcDbLinetypeTableRecord
  2
CONTINUOUS
 70
     0
  3
Solid line
 72
    65
 73
     0
 40
0.0
  0
LTYPE
  5
672
330
653
100
AcDbSymbolTableRecord
100
AcDbLinetypeTableRecord
  2
HIDDEN
 70
     0
  3
_ _ _ _ _ _ _ _ _ _ _ _ _ _ _ _ _ _ _ _ _ _ _
 72
    65
 73
     2
 40
0.375
 49
0.25
 74
     0
 49
-0.125
 74
     0
  0
ENDTAB
  0
TABLE
  2
LAYER
  5
650
330
0
100
AcDbSymbolTable
 70
     6
  0
LAYER
  5
65E
330
650
100
AcDbSymbolTableRecord
100
AcDbLayerTableRecord
  2
0
 70
     0
 62
     7
  6
CONTINUOUS
  0
LAYER
  5
670
330
650
100
AcDbSymbolTableRecord
100
AcDbLayerTableRecord
  2
DAMAN
 70
     0
 62
     5
  6
CONTINUOUS
  0
LAYER
  5
673
330
650
100
AcDbSymbolTableRecord
100
AcDbLayerTableRecord
  2
AISO
 70
     1
 62
     5
  6
CONTINUOUS
  0
LAYER
  5
674
330
650
100
AcDbSymbolTableRecord
100
AcDbLayerTableRecord
  2
APIPE
 70
     1
 62
     5
  6
CONTINUOUS
  0
LAYER
  5
675
330
650
100
AcDbSymbolTableRecord
100
AcDbLayerTableRecord
  2
ASAE
 70
     0
 62
     5
  6
CONTINUOUS
  0
LAYER
  5
676
330
650
100
AcDbSymbolTableRecord
100
AcDbLayerTableRecord
  2
ABSPP
 70
     1
 62
     5
  6
CONTINUOUS
  0
ENDTAB
  0
TABLE
  2
STYLE
  5
651
330
0
100
AcDbSymbolTable
 70
     1
  0
STYLE
  5
65F
330
651
100
AcDbSymbolTableRecord
100
AcDbTextStyleTableRecord
  2
STANDARD
 70
     0
 40
0.0
 41
1.0
 50
0.0
 71
     0
 42
0.2
  3
txt
  4

  0
ENDTAB
  0
TABLE
  2
VIEW
  5
654
330
0
100
AcDbSymbolTable
 70
     0
  0
ENDTAB
  0
TABLE
  2
UCS
  5
655
330
0
100
AcDbSymbolTable
 70
     0
  0
ENDTAB
  0
TABLE
  2
APPID
  5
657
330
0
100
AcDbSymbolTable
 70
     1
  0
APPID
  5
660
330
657
100
AcDbSymbolTableRecord
100
AcDbRegAppTableRecord
  2
ACAD
 70
     0
  0
ENDTAB
  0
TABLE
  2
DIMSTYLE
  5
658
330
0
100
AcDbSymbolTable
 70
     1
  0
DIMSTYLE
105
677
330
658
100
AcDbSymbolTableRecord
100
AcDbDimStyleTableRecord
  2
DAMAN
 70
     0
  3

  4

  5

  6

  7

 40
1.0
 41
0.08
 42
0.04
 43
0.18
 44
0.06
 45
0.0
 46
0.0
 47
0.0
 48
0.0
140
0.06
141
0.09
142
0.0
143
25.4
144
1.0
145
0.0
146
1.0
147
0.03
 71
     0
 72
     0
 73
     0
 74
     0
 75
     0
 76
     0
 77
     0
 78
     0
170
     1
171
     1
172
     0
173
     0
174
     0
175
     0
176
     5
177
     5
178
     5
270
     2
271
     4
272
     4
273
     2
274
     2
340
65F
275
     0
280
     0
281
     0
282
     0
283
     1
284
     0
285
     0
286
     0
287
     5
288
     0
  0
ENDTAB
  0
TABLE
  2
BLOCK_RECORD
  5
64F
330
0
100
AcDbSymbolTable
 70
    21
  0
BLOCK_RECORD
  5
66C
102
{ACAD_XDICTIONARY
360
88C
102
}
330
64F
100
AcDbSymbolTableRecord
100
AcDbBlockTableRecord
  2
*MODEL_SPACE
  0
BLOCK_RECORD
  5
668
102
{ACAD_XDICTIONARY
360
88A
102
}
330
64F
100
AcDbSymbolTableRecord
100
AcDbBlockTableRecord
  2
*PAPER_SPACE
  0
BLOCK_RECORD
  5
679
330
64F
100
AcDbSymbolTableRecord
100
AcDbBlockTableRecord
  2
$MODEL_SPACE
  0
BLOCK_RECORD
  5
67C
330
64F
100
AcDbSymbolTableRecord
100
AcDbBlockTableRecord
  2
$PAPER_SPACE
  0
BLOCK_RECORD
  5
67F
330
64F
100
AcDbSymbolTableRecord
100
AcDbBlockTableRecord
  2
100CROSS
  0
BLOCK_RECORD
  5
681
330
64F
100
AcDbSymbolTableRecord
100
AcDbBlockTableRecord
  2
050CROSS
  0
BLOCK_RECORD
  5
68C
330
64F
100
AcDbSymbolTableRecord
100
AcDbBlockTableRecord
  2
100NPTFT
  0
BLOCK_RECORD
  5
693
330
64F
100
AcDbSymbolTableRecord
100
AcDbBlockTableRecord
  2
16SAET
  0
BLOCK_RECORD
  5
69B
330
64F
100
AcDbSymbolTableRecord
100
AcDbBlockTableRecord
  2
100BSPPT
  0
BLOCK_RECORD
  5
6A3
330
64F
100
AcDbSymbolTableRecord
100
AcDbBlockTableRecord
  2
M33T
  0
BLOCK_RECORD
  5
6AC
330
64F
100
AcDbSymbolTableRecord
100
AcDbBlockTableRecord
  2
M14T
  0
BLOCK_RECORD
  5
6B5
330
64F
100
AcDbSymbolTableRecord
100
AcDbBlockTableRecord
  2
D07
  0
BLOCK_RECORD
  5
6DD
330
64F
100
AcDbSymbolTableRecord
100
AcDbBlockTableRecord
  2
600MKT
  0
BLOCK_RECORD
  5
723
330
64F
100
AcDbSymbolTableRecord
100
AcDbBlockTableRecord
  2
08SAET
  0
BLOCK_RECORD
  5
72B
330
64F
100
AcDbSymbolTableRecord
100
AcDbBlockTableRecord
  2
600MKST
  0
BLOCK_RECORD
  5
758
330
64F
100
AcDbSymbolTableRecord
100
AcDbBlockTableRecord
  2
125NPTFT
  0
BLOCK_RECORD
  5
75F
330
64F
100
AcDbSymbolTableRecord
100
AcDbBlockTableRecord
  2
050NPTFT
  0
BLOCK_RECORD
  5
761
330
64F
100
AcDbSymbolTableRecord
100
AcDbBlockTableRecord
  2
500NPTFT
  0
BLOCK_RECORD
  5
76A
330
64F
100
AcDbSymbolTableRecord
100
AcDbBlockTableRecord
  2
20SAET
  0
BLOCK_RECORD
  5
771
330
64F
100
AcDbSymbolTableRecord
100
AcDbBlockTableRecord
  2
125BSPPT
  0
BLOCK_RECORD
  5
779
330
64F
100
AcDbSymbolTableRecord
100
AcDbBlockTableRecord
  2
0500BSPPT
  0
BLOCK_RECORD
  5
781
330
64F
100
AcDbSymbolTableRecord
100
AcDbBlockTableRecord
  2
M42T
  0
BLOCK_RECORD
  5
78B
330
64F
100
AcDbSymbolTableRecord
100
AcDbBlockTableRecord
  2
T16AT
  0
ENDTAB
  0
ENDSEC
  0
SECTION
  2
BLOCKS
  0
BLOCK
  5
66D
330
66C
100
AcDbEntity
  8
0
100
AcDbBlockBegin
  2
*MODEL_SPACE
 70
     0
 10
0.0
 20
0.0
 30
0.0
  3
*MODEL_SPACE
  1

  0
ENDBLK
  5
66E
330
66C
100
AcDbEntity
  8
0
100
AcDbBlockEnd
  0
BLOCK
  5
669
330
668
100
AcDbEntity
 67
     1
  8
0
100
AcDbBlockBegin
  2
*PAPER_SPACE
 70
     0
 10
0.0
 20
0.0
 30
0.0
  3
*PAPER_SPACE
  1

  0
ENDBLK
  5
66A
330
668
100
AcDbEntity
 67
     1
  8
0
100
AcDbBlockEnd
  0
BLOCK
  5
67A
330
679
100
AcDbEntity
  8
0
100
AcDbBlockBegin
  2
$MODEL_SPACE
 70
     0
 10
0.0
 20
0.0
 30
0.0
  3
$MODEL_SPACE
  1

  0
ENDBLK
  5
67B
330
679
100
AcDbEntity
  8
0
100
AcDbBlockEnd
  0
BLOCK
  5
67D
330
67C
100
AcDbEntity
  8
0
100
AcDbBlockBegin
  2
$PAPER_SPACE
 70
     0
 10
0.0
 20
0.0
 30
0.0
  3
$PAPER_SPACE
  1

  0
ENDBLK
  5
67E
330
67C
100
AcDbEntity
  8
0
100
AcDbBlockEnd
  0
BLOCK
  5
680
330
67F
100
AcDbEntity
  8
0
100
AcDbBlockBegin
  2
100CROSS
 70
     0
 10
5.62500000000004
 20
4.593750000000039
 30
0.0
  3
100CROSS
  1

  0
INSERT
  5
682
330
67F
100
AcDbEntity
  8
0
100
AcDbBlockReference
  2
050CROSS
 10
5.62500000000004
 20
4.593750000000039
 30
0.0
  0
ENDBLK
  5
683
330
67F
100
AcDbEntity
  8
0
100
AcDbBlockEnd
  0
BLOCK
  5
684
330
681
100
AcDbEntity
  8
0
100
AcDbBlockBegin
  2
050CROSS
 70
     0
 10
5.000000000000039
 20
5.000000000000039
 30
0.0
  3
050CROSS
  1

  0
LINE
  5
685
330
681
100
AcDbEntity
  8
0
100
AcDbLine
 10
5.000000000000039
 20
5.281250000000039
 30
0.0
 11
5.000000000000079
 21
5.78125000000004
 31
0.0
  0
LINE
  5
686
330
681
100
AcDbEntity
  8
0
100
AcDbLine
 10
5.000000000000039
 20
4.875000000000039
 30
0.0
 11
5.000000000000079
 21
5.125000000000039
 31
0.0
  0
LINE
  5
687
330
681
100
AcDbEntity
  8
0
100
AcDbLine
 10
5.000000000000039
 20
4.156250000000039
 30
0.0
 11
5.000000000000079
 21
4.718750000000039
 31
0.0
  0
LINE
  5
688
330
681
100
AcDbEntity
  8
0
100
AcDbLine
 10
5.250000000000039
 20
5.000000000000039
 30
0.0
 11
5.81250000000004
 21
5.000000000000079
 31
0.0
  0
LINE
  5
689
330
681
100
AcDbEntity
  8
0
100
AcDbLine
 10
4.906250000000039
 20
5.000000000000039
 30
0.0
 11
5.093750000000039
 21
5.000000000000079
 31
0.0
  0
LINE
  5
68A
330
681
100
AcDbEntity
  8
0
100
AcDbLine
 10
4.187500000000039
 20
5.000000000000039
 30
0.0
 11
4.750000000000039
 21
5.000000000000079
 31
0.0
  0
ENDBLK
  5
68B
330
681
100
AcDbEntity
  8
0
100
AcDbBlockEnd
  0
BLOCK
  5
68D
330
68C
100
AcDbEntity
  8
0
100
AcDbBlockBegin
  2
100NPTFT
 70
     0
 10
0.0
 20
0.0
 30
0.0
  3
100NPTFT
  1

  0
CIRCLE
  5
68E
330
68C
100
AcDbEntity
  8
DAMAN
100
AcDbCircle
 10
0.0
 20
0.0
 30
0.0
 40
0.5625
  0
CIRCLE
  5
68F
330
68C
100
AcDbEntity
  8
DAMAN
100
AcDbCircle
 10
0.0
 20
0.0
 30
0.0
 40
0.6720000000000002
  0
INSERT
  5
690
330
68C
100
AcDbEntity
  8
DAMAN
100
AcDbBlockReference
  2
100CROSS
 10
0.0
 20
0.0
 30
0.0
 41
1.199999999999999
 42
1.199999999999999
  0
CIRCLE
  5
691
330
68C
100
AcDbEntity
  8
DAMAN
100
AcDbCircle
 10
-0.0000000000000409
 20
-0.00000000000004
 30
0.0
 40
0.625
  0
ENDBLK
  5
692
330
68C
100
AcDbEntity
  8
0
100
AcDbBlockEnd
  0
BLOCK
  5
694
330
693
100
AcDbEntity
  8
0
100
AcDbBlockBegin
  2
16SAET
 70
     0
 10
0.0
 20
0.0
 30
0.0
  3
16SAET
  1

  0
CIRCLE
  5
695
330
693
100
AcDbEntity
  8
DAMAN
100
AcDbCircle
 10
0.0
 20
0.0
 30
0.0
 40
0.6125
  0
CIRCLE
  5
696
330
693
100
AcDbEntity
  8
DAMAN
100
AcDbCircle
 10
0.0
 20
0.0
 30
0.0
 40
0.5620000000000001
  0
CIRCLE
  5
697
330
693
100
AcDbEntity
  8
DAMAN
100
AcDbCircle
 10
0.0
 20
0.0
 30
0.0
 40
1.0
  0
INSERT
  5
698
330
693
100
AcDbEntity
  8
DAMAN
100
AcDbBlockReference
  2
100CROSS
 10
0.0
 20
0.0
 30
0.0
 41
1.6
 42
1.6
  0
CIRCLE
  5
699
330
693
100
AcDbEntity
  8
DAMAN
100
AcDbCircle
 10
0.0
 20
0.0
 30
0.0
 40
0.65625
  0
ENDBLK
  5
69A
330
693
100
AcDbEntity
  8
0
100
AcDbBlockEnd
  0
BLOCK
  5
69C
330
69B
100
AcDbEntity
  8
0
100
AcDbBlockBegin
  2
100BSPPT
 70
     0
 10
0.0
 20
0.0
 30
0.0
  3
100BSPPT
  1

  0
CIRCLE
  5
69D
330
69B
100
AcDbEntity
  8
DAMAN
  6
HIDDEN
100
AcDbCircle
 10
0.0
 20
0.0
 30
0.0
 40
0.6545
  0
CIRCLE
  5
69E
330
69B
100
AcDbEntity
  8
DAMAN
100
AcDbCircle
 10
0.0
 20
0.0
 30
0.0
 40
0.6125
  0
CIRCLE
  5
69F
330
69B
100
AcDbEntity
  8
DAMAN
100
AcDbCircle
 10
0.0
 20
0.0
 30
0.0
 40
0.915
  0
INSERT
  5
6A0
330
69B
100
AcDbEntity
  8
DAMAN
100
AcDbBlockReference
  2
100CROSS
 10
0.0
 20
0.0
 30
0.0
 41
1.33
 42
1.33
  0
CIRCLE
  5
6A1
330
69B
100
AcDbEntity
  8
DAMAN
100
AcDbCircle
 10
0.0000000000000266
 20
0.0000000000000266
 30
0.0
 40
0.6575
  0
ENDBLK
  5
6A2
330
69B
100
AcDbEntity
  8
0
100
AcDbBlockEnd
  0
BLOCK
  5
6A4
330
6A3
100
AcDbEntity
  8
0
100
AcDbBlockBegin
  2
M33T
 70
     0
 10
0.0
 20
0.0
 30
0.0
  3
M33T
  1

  0
CIRCLE
  5
6A5
330
6A3
100
AcDbEntity
  8
DAMAN
100
AcDbCircle
 10
0.0
 20
0.0
 30
0.0
 40
0.6970000000000001
  0
CIRCLE
  5
6A6
330
6A3
100
AcDbEntity
  8
DAMAN
  6
HIDDEN
100
AcDbCircle
 10
0.0
 20
0.0
 30
0.0
 40
0.649606
  0
CIRCLE
  5
6A7
330
6A3
100
AcDbEntity
  8
DAMAN
100
AcDbCircle
 10
0.0
 20
0.0
 30
0.0
 40
0.9644999999999999
  0
INSERT
  5
6A8
330
6A3
100
AcDbEntity
  8
DAMAN
100
AcDbBlockReference
  2
100CROSS
 10
0.0
 20
0.0
 30
0.0
 41
1.33
 42
1.33
  0
CIRCLE
  5
6A9
330
6A3
100
AcDbEntity
  8
DAMAN
100
AcDbCircle
 10
0.0000000000000266
 20
0.0000000000000266
 30
0.0
 40
0.8464999999999999
  0
CIRCLE
  5
6AA
330
6A3
100
AcDbEntity
  8
DAMAN
100
AcDbCircle
 10
0.0
 20
0.0
 30
0.0
 40
0.614
  0
ENDBLK
  5
6AB
330
6A3
100
AcDbEntity
  8
0
100
AcDbBlockEnd
  0
BLOCK
  5
6AD
330
6AC
100
AcDbEntity
  8
0
100
AcDbBlockBegin
  2
M14T
 70
     0
 10
0.0
 20
0.0
 30
0.0
  3
M14T
  1

  0
CIRCLE
  5
6AE
330
6AC
100
AcDbEntity
  8
DAMAN
  6
HIDDEN
100
AcDbCircle
 10
0.0
 20
0.0
 30
0.0
 40
0.2755
  0
CIRCLE
  5
6AF
330
6AC
100
AcDbEntity
  8
DAMAN
100
AcDbCircle
 10
0.0
 20
0.0
 30
0.0
 40
0.4920000000000001
  0
CIRCLE
  5
6B0
330
6AC
100
AcDbEntity
  8
DAMAN
100
AcDbCircle
 10
0.0
 20
0.0
 30
0.0
 40
0.413
  0
CIRCLE
  5
6B1
330
6AC
100
AcDbEntity
  8
DAMAN
100
AcDbCircle
 10
0.0
 20
0.0
 30
0.0
 40
0.311
  0
CIRCLE
  5
6B2
330
6AC
100
AcDbEntity
  8
DAMAN
100
AcDbCircle
 10
0.0
 20
0.0
 30
0.0
 40
0.25
  0
INSERT
  5
6B3
330
6AC
100
AcDbEntity
  8
DAMAN
100
AcDbBlockReference
  2
100CROSS
 10
-0.0000000000000169
 20
-0.000000000000016
 30
0.0
 41
0.8259999999999998
 42
0.8259999999999998
  0
ENDBLK
  5
6B4
330
6AC
100
AcDbEntity
  8
0
100
AcDbBlockEnd
  0
BLOCK
  5
6B6
330
6B5
100
AcDbEntity
  8
0
100
AcDbBlockBegin
  2
D07
 70
     0
 10
0.0
 20
0.0
 30
0.0
  3
D07
  1

  0
CIRCLE
  5
6B7
330
6B5
100
AcDbEntity
  8
DAMAN
100
AcDbCircle
 10
0.0
 20
1.249
 30
0.0
 40
0.3439999999999999
  0
CIRCLE
  5
6B8
330
6B5
100
AcDbEntity
  8
DAMAN
100
AcDbCircle
 10
0.0
 20
0.0
 30
0.0
 40
0.3439999999999999
  0
INSERT
  5
6B9
330
6B5
100
AcDbEntity
  8
DAMAN
100
AcDbBlockReference
  2
100CROSS
 10
0.0
 20
1.249
 30
0.0
 41
0.5625
 42
0.5625
  0
INSERT
  5
6BA
330
6B5
100
AcDbEntity
  8
DAMAN
100
AcDbBlockReference
  2
100CROSS
 10
0.0
 20
0.0
 30
0.0
 41
0.5625
 42
0.5625
  0
INSERT
  5
6BB
330
6B5
100
AcDbEntity
  8
DAMAN
100
AcDbBlockReference
  2
100CROSS
 10
-2.2505
 20
-0.0009999999999999
 30
0.0
 41
0.25
 42
0.25
  0
CIRCLE
  5
6BC
330
6B5
100
AcDbEntity
  8
DAMAN
100
AcDbCircle
 10
-2.188
 20
-2.032
 30
0.0
 40
0.1875
  0
CIRCLE
  5
6BD
330
6B5
100
AcDbEntity
  8
DAMAN
100
AcDbCircle
 10
-2.188
 20
-2.032
 30
0.0
 40
0.15625
  0
INSERT
  5
6BE
330
6B5
100
AcDbEntity
  8
DAMAN
100
AcDbBlockReference
  2
100CROSS
 10
-2.188
 20
-2.032
 30
0.0
 41
0.375
 42
0.375
  0
CIRCLE
  5
6BF
330
6B5
100
AcDbEntity
  8
DAMAN
100
AcDbCircle
 10
-2.250999999999999
 20
-0.0007500000000005
 30
0.0
 40
0.125
  0
CIRCLE
  5
6C0
330
6B5
100
AcDbEntity
  8
DAMAN
100
AcDbCircle
 10
-2.2505
 20
-0.0009999999999999
 30
0.0
 40
0.1055
  0
CIRCLE
  5
6C1
330
6B5
100
AcDbEntity
  8
DAMAN
100
AcDbCircle
 10
-1.625999999999999
 20
-0.6259999999999997
 30
0.0
 40
0.3439999999999999
  0
INSERT
  5
6C2
330
6B5
100
AcDbEntity
  8
DAMAN
100
AcDbBlockReference
  2
100CROSS
 10
-1.625999999999999
 20
-0.6259999999999997
 30
0.0
 41
0.5625
 42
0.5625
  0
CIRCLE
  5
6C3
330
6B5
100
AcDbEntity
  8
DAMAN
100
AcDbCircle
 10
-1.687999999999999
 20
-1.499999999999998
 30
0.0
 40
0.125
  0
INSERT
  5
6C4
330
6B5
100
AcDbEntity
  8
DAMAN
100
AcDbBlockReference
  2
100CROSS
 10
-1.687999999999999
 20
-1.499999999999998
 30
0.0
 41
0.375
 42
0.375
  0
TEXT
  5
6C5
330
6B5
100
AcDbEntity
  8
DAMAN
100
AcDbText
 10
-1.562999999999999
 20
-1.313249999999998
 30
0.0
 40
0.12
  1
Y
100
AcDbText
  0
TEXT
  5
6C6
330
6B5
100
AcDbEntity
  8
DAMAN
100
AcDbText
 10
-1.312999999999999
 20
-0.2194999999999998
 30
0.0
 40
0.12
  1
B
100
AcDbText
  0
CIRCLE
  5
6C7
330
6B5
100
AcDbEntity
  8
DAMAN
100
AcDbCircle
 10
-2.188
 20
1.249
 30
0.0
 40
0.0845
  0
CIRCLE
  5
6C8
330
6B5
100
AcDbEntity
  8
DAMAN
100
AcDbCircle
 10
-2.188
 20
1.968
 30
0.0
 40
0.1875
  0
CIRCLE
  5
6C9
330
6B5
100
AcDbEntity
  8
DAMAN
100
AcDbCircle
 10
-2.188
 20
1.968
 30
0.0
 40
0.15625
  0
INSERT
  5
6CA
330
6B5
100
AcDbEntity
  8
DAMAN
100
AcDbBlockReference
  2
100CROSS
 10
-2.188
 20
1.968
 30
0.0
 41
0.375
 42
0.375
  0
INSERT
  5
6CB
330
6B5
100
AcDbEntity
  8
DAMAN
100
AcDbBlockReference
  2
100CROSS
 10
-2.188
 20
1.249
 30
0.0
 41
0.25
 42
0.25
  0
CIRCLE
  5
6CC
330
6B5
100
AcDbEntity
  8
DAMAN
100
AcDbCircle
 10
-1.625999999999999
 20
0.6240000000000001
 30
0.0
 40
0.3439999999999999
  0
INSERT
  5
6CD
330
6B5
100
AcDbEntity
  8
DAMAN
100
AcDbBlockReference
  2
100CROSS
 10
-1.625999999999999
 20
0.6240000000000001
 30
0.0
 41
0.5625
 42
0.5625
  0
TEXT
  5
6CE
330
6B5
100
AcDbEntity
  8
DAMAN
100
AcDbText
 10
-1.344249999999999
 20
1.030499999999999
 30
0.0
 40
0.12
  1
A
100
AcDbText
  0
INSERT
  5
6CF
330
6B5
100
AcDbEntity
  8
DAMAN
100
AcDbBlockReference
  2
100CROSS
 10
0.562
 20
-2.032
 30
0.0
 41
0.375
 42
0.375
  0
CIRCLE
  5
6D0
330
6B5
100
AcDbEntity
  8
DAMAN
100
AcDbCircle
 10
0.562
 20
-2.032
 30
0.0
 40
0.1875
  0
CIRCLE
  5
6D1
330
6B5
100
AcDbEntity
  8
DAMAN
100
AcDbCircle
 10
0.562
 20
-2.032
 30
0.0
 40
0.15625
  0
INSERT
  5
6D2
330
6B5
100
AcDbEntity
  8
DAMAN
100
AcDbBlockReference
  2
100CROSS
 10
0.562
 20
-1.046999999999999
 30
0.0
 41
0.25
 42
0.25
  0
CIRCLE
  5
6D3
330
6B5
100
AcDbEntity
  8
DAMAN
100
AcDbCircle
 10
0.562
 20
-1.046999999999999
 30
0.0
 40
0.0845
  0
INSERT
  5
6D4
330
6B5
100
AcDbEntity
  8
DAMAN
100
AcDbBlockReference
  2
100CROSS
 10
0.562
 20
1.968
 30
0.0
 41
0.375
 42
0.375
  0
INSERT
  5
6D5
330
6B5
100
AcDbEntity
  8
DAMAN
100
AcDbBlockReference
  2
100CROSS
 10
0.6245
 20
0.6240000000000001
 30
0.0
 41
0.25
 42
0.25
  0
TEXT
  5
6D6
330
6B5
100
AcDbEntity
  8
DAMAN
100
AcDbText
 10
0.2182499999999998
 20
0.4680000000000002
 30
0.0
 40
0.12
  1
P
100
AcDbText
  0
CIRCLE
  5
6D7
330
6B5
100
AcDbEntity
  8
DAMAN
100
AcDbCircle
 10
0.6239999999999993
 20
0.6242499999999997
 30
0.0
 40
0.125
  0
CIRCLE
  5
6D8
330
6B5
100
AcDbEntity
  8
DAMAN
100
AcDbCircle
 10
0.6245
 20
0.6240000000000001
 30
0.0
 40
0.1055
  0
TEXT
  5
6D9
330
6B5
100
AcDbEntity
  8
DAMAN
100
AcDbText
 10
0.2494999999999998
 20
1.718
 30
0.0
 40
0.12
  1
T
100
AcDbText
  0
CIRCLE
  5
6DA
330
6B5
100
AcDbEntity
  8
DAMAN
100
AcDbCircle
 10
0.562
 20
1.968
 30
0.0
 40
0.1875
  0
CIRCLE
  5
6DB
330
6B5
100
AcDbEntity
  8
DAMAN
100
AcDbCircle
 10
0.562
 20
1.968
 30
0.0
 40
0.15625
  0
ENDBLK
  5
6DC
330
6B5
100
AcDbEntity
  8
0
100
AcDbBlockEnd
  0
BLOCK
  5
6DE
330
6DD
100
AcDbEntity
  8
0
100
AcDbBlockBegin
  2
600MKT
 70
     0
 10
0.0
 20
0.0
 30
0.0
  3
600MKT
  1

  0
LINE
  5
6DF
330
6DD
100
AcDbEntity
  8
DAMAN
100
AcDbLine
 10
-0.5625
 20
6.0
 30
0.0
 11
1.0625
 21
6.0
 31
0.0
  0
LINE
  5
6E0
330
6DD
100
AcDbEntity
  8
DAMAN
100
AcDbLine
 10
1.0625
 20
6.0
 30
0.0
 11
1.0625
 21
0.0
 31
0.0
  0
LINE
  5
6E1
330
6DD
100
AcDbEntity
  8
DAMAN
100
AcDbLine
 10
1.0625
 20
0.0
 30
0.0
 11
-0.5625
 21
0.0
 31
0.0
  0
LINE
  5
6E2
330
6DD
100
AcDbEntity
  8
DAMAN
100
AcDbLine
 10
-0.5625
 20
0.0
 30
0.0
 11
-0.5625
 21
6.0
 31
0.0
  0
LINE
  5
6E3
330
6DD
100
AcDbEntity
  8
DAMAN
100
AcDbLine
 10
-0.375
 20
0.0
 30
0.0
 11
-0.375
 21
6.0
 31
0.0
  0
LINE
  5
6E4
330
6DD
100
AcDbEntity
  8
DAMAN
100
AcDbLine
 10
-0.375
 20
1.09375
 30
0.0
 11
-0.3125
 21
1.09375
 31
0.0
  0
LINE
  5
6E5
330
6DD
100
AcDbEntity
  8
DAMAN
100
AcDbLine
 10
-0.3125
 20
1.09375
 30
0.0
 11
-0.3125
 21
0.03125
 31
0.0
  0
LINE
  5
6E6
330
6DD
100
AcDbEntity
  8
DAMAN
100
AcDbLine
 10
-0.3125
 20
0.03125
 30
0.0
 11
-0.375
 21
0.03125
 31
0.0
  0
LINE
  5
6E7
330
6DD
100
AcDbEntity
  8
DAMAN
100
AcDbLine
 10
-0.3125
 20
0.9955127018922189
 30
0.0
 11
-0.0428346394726904
 21
0.9955127018922189
 31
0.0
  0
LINE
  5
6E8
330
6DD
100
AcDbEntity
  8
DAMAN
100
AcDbLine
 10
-0.0000000000000004
 20
0.921320930001624
 30
0.0
 11
0.0000000000000004
 21
0.2036790699983779
 31
0.0
  0
LINE
  5
6E9
330
6DD
100
AcDbEntity
  8
DAMAN
100
AcDbLine
 10
-0.0428346394726904
 20
0.1294872981077813
 30
0.0
 11
-0.3125
 21
0.1294872981077813
 31
0.0
  0
LINE
  5
6EA
330
6DD
100
AcDbEntity
  8
DAMAN
100
AcDbLine
 10
-0.3125
 20
0.7790063509461103
 30
0.0
 11
-0.0625000000000462
 21
0.7790063509461103
 31
0.0
  0
LINE
  5
6EB
330
6DD
100
AcDbEntity
  8
DAMAN
100
AcDbLine
 10
-0.3125
 20
0.3459936490538915
 30
0.0
 11
-0.0624999999999894
 21
0.3459936490538915
 31
0.0
  0
ARC
  5
6EC
330
6DD
100
AcDbEntity
  8
DAMAN
100
AcDbCircle
 10
-0.4062499999999966
 20
0.5625000000000018
 30
0.0
 40
0.4062499999999964
100
AcDbArc
 50
327.7957724960277
 51
32.20422750397212
  0
ARC
  5
6ED
330
6DD
100
AcDbEntity
  8
DAMAN
100
AcDbCircle
 10
-0.1250000000000004
 20
0.2377404735808355
 30
0.0
 40
0.1250000000000008
100
AcDbArc
 50
300.0000000000003
 51
60.00000000000041
  0
ARC
  5
6EE
330
6DD
100
AcDbEntity
  8
DAMAN
100
AcDbCircle
 10
-0.1250000000000004
 20
0.8872595264191645
 30
0.0
 40
0.1250000000000008
100
AcDbArc
 50
299.9999999999996
 51
59.99999999999973
  0
LINE
  5
6EF
330
6DD
100
AcDbEntity
  8
DAMAN
100
AcDbLine
 10
-0.0428346394726904
 20
0.9955127018922189
 30
0.0
 11
-0.0000000000000004
 21
0.921320930001624
 31
0.0
  0
LINE
  5
6F0
330
6DD
100
AcDbEntity
  8
DAMAN
100
AcDbLine
 10
-0.0428346394726904
 20
0.1294872981077813
 30
0.0
 11
0.0000000000000004
 21
0.2036790699983779
 31
0.0
  0
LINE
  5
6F1
330
6DD
100
AcDbEntity
  8
DAMAN
100
AcDbLine
 10
-0.5625
 20
0.8125
 30
0.0
 11
-1.28125
 21
0.8125
 31
0.0
  0
LINE
  5
6F2
330
6DD
100
AcDbEntity
  8
DAMAN
100
AcDbLine
 10
-1.28125
 20
0.8125
 30
0.0
 11
-1.3125
 21
0.78125
 31
0.0
  0
LINE
  5
6F3
330
6DD
100
AcDbEntity
  8
DAMAN
100
AcDbLine
 10
-1.3125
 20
0.78125
 30
0.0
 11
-1.3125
 21
0.34375
 31
0.0
  0
LINE
  5
6F4
330
6DD
100
AcDbEntity
  8
DAMAN
100
AcDbLine
 10
-1.3125
 20
0.34375
 30
0.0
 11
-1.28125
 21
0.3125
 31
0.0
  0
LINE
  5
6F5
330
6DD
100
AcDbEntity
  8
DAMAN
100
AcDbLine
 10
-1.28125
 20
0.3125
 30
0.0
 11
-0.5625
 21
0.3125
 31
0.0
  0
LINE
  5
6F6
330
6DD
100
AcDbEntity
  8
DAMAN
100
AcDbLine
 10
-0.5625
 20
0.78125
 30
0.0
 11
-1.3125
 21
0.78125
 31
0.0
  0
LINE
  5
6F7
330
6DD
100
AcDbEntity
  8
DAMAN
100
AcDbLine
 10
-0.5625
 20
0.34375
 30
0.0
 11
-1.3125
 21
0.34375
 31
0.0
  0
LINE
  5
6F8
330
6DD
100
AcDbEntity
  8
DAMAN
100
AcDbLine
 10
0.125
 20
0.5625
 30
0.0
 11
-1.40625
 21
0.5625
 31
0.0
  0
LINE
  5
6F9
330
6DD
100
AcDbEntity
  8
DAMAN
100
AcDbLine
 10
0.125
 20
5.4375
 30
0.0
 11
-1.40625
 21
5.4375
 31
0.0
  0
LINE
  5
6FA
330
6DD
100
AcDbEntity
  8
DAMAN
100
AcDbLine
 10
-0.5625
 20
5.21875
 30
0.0
 11
-1.3125
 21
5.21875
 31
0.0
  0
LINE
  5
6FB
330
6DD
100
AcDbEntity
  8
DAMAN
100
AcDbLine
 10
-1.28125
 20
5.1875
 30
0.0
 11
-0.5625
 21
5.1875
 31
0.0
  0
LINE
  5
6FC
330
6DD
100
AcDbEntity
  8
DAMAN
100
AcDbLine
 10
-0.5625
 20
5.65625
 30
0.0
 11
-1.3125
 21
5.65625
 31
0.0
  0
LINE
  5
6FD
330
6DD
100
AcDbEntity
  8
DAMAN
100
AcDbLine
 10
-0.5625
 20
5.6875
 30
0.0
 11
-1.28125
 21
5.6875
 31
0.0
  0
LINE
  5
6FE
330
6DD
100
AcDbEntity
  8
DAMAN
100
AcDbLine
 10
-1.3125
 20
5.65625
 30
0.0
 11
-1.3125
 21
5.21875
 31
0.0
  0
LINE
  5
6FF
330
6DD
100
AcDbEntity
  8
DAMAN
100
AcDbLine
 10
-1.28125
 20
5.6875
 30
0.0
 11
-1.3125
 21
5.65625
 31
0.0
  0
LINE
  5
700
330
6DD
100
AcDbEntity
  8
DAMAN
100
AcDbLine
 10
-1.3125
 20
5.21875
 30
0.0
 11
-1.28125
 21
5.1875
 31
0.0
  0
ARC
  5
701
330
6DD
100
AcDbEntity
  8
DAMAN
100
AcDbCircle
 10
-0.4062499999999966
 20
5.4375
 30
0.0
 40
0.4062499999999964
100
AcDbArc
 50
327.7957724960277
 51
32.20422750397212
  0
LINE
  5
702
330
6DD
100
AcDbEntity
  8
DAMAN
100
AcDbLine
 10
-0.3125
 20
5.96875
 30
0.0
 11
-0.3125
 21
4.90625
 31
0.0
  0
LINE
  5
703
330
6DD
100
AcDbEntity
  8
DAMAN
100
AcDbLine
 10
-0.0000000000000004
 20
5.796320930001622
 30
0.0
 11
0.0000000000000004
 21
5.078679069998377
 31
0.0
  0
ARC
  5
704
330
6DD
100
AcDbEntity
  8
DAMAN
100
AcDbCircle
 10
-0.1250000000000004
 20
5.762259526419163
 30
0.0
 40
0.1250000000000008
100
AcDbArc
 50
299.9999999999996
 51
59.99999999999973
  0
LINE
  5
705
330
6DD
100
AcDbEntity
  8
DAMAN
100
AcDbLine
 10
-0.0428346394726904
 20
5.870512701892217
 30
0.0
 11
-0.0000000000000004
 21
5.796320930001622
 31
0.0
  0
LINE
  5
706
330
6DD
100
AcDbEntity
  8
DAMAN
100
AcDbLine
 10
-0.3125
 20
5.870512701892217
 30
0.0
 11
-0.0428346394726904
 21
5.870512701892217
 31
0.0
  0
LINE
  5
707
330
6DD
100
AcDbEntity
  8
DAMAN
100
AcDbLine
 10
-0.375
 20
5.96875
 30
0.0
 11
-0.3125
 21
5.96875
 31
0.0
  0
LINE
  5
708
330
6DD
100
AcDbEntity
  8
DAMAN
100
AcDbLine
 10
-0.3125
 20
5.65400635094611
 30
0.0
 11
-0.0625000000000462
 21
5.65400635094611
 31
0.0
  0
ARC
  5
709
330
6DD
100
AcDbEntity
  8
DAMAN
100
AcDbCircle
 10
-0.1250000000000004
 20
5.112740473580834
 30
0.0
 40
0.1250000000000008
100
AcDbArc
 50
300.0000000000003
 51
60.00000000000041
  0
LINE
  5
70A
330
6DD
100
AcDbEntity
  8
DAMAN
100
AcDbLine
 10
-0.3125
 20
5.22099364905389
 30
0.0
 11
-0.0624999999999894
 21
5.22099364905389
 31
0.0
  0
LINE
  5
70B
330
6DD
100
AcDbEntity
  8
DAMAN
100
AcDbLine
 10
-0.0428346394726904
 20
5.00448729810778
 30
0.0
 11
-0.3125
 21
5.00448729810778
 31
0.0
  0
LINE
  5
70C
330
6DD
100
AcDbEntity
  8
DAMAN
100
AcDbLine
 10
-0.3125
 20
4.90625
 30
0.0
 11
-0.375
 21
4.90625
 31
0.0
  0
LINE
  5
70D
330
6DD
100
AcDbEntity
  8
DAMAN
100
AcDbLine
 10
-0.0428346394726904
 20
5.00448729810778
 30
0.0
 11
0.0000000000000004
 21
5.078679069998377
 31
0.0
  0
CIRCLE
  5
70E
330
6DD
100
AcDbEntity
  8
DAMAN
100
AcDbCircle
 10
0.5
 20
5.4375
 30
0.0
 40
0.53125
  0
CIRCLE
  5
70F
330
6DD
100
AcDbEntity
  8
DAMAN
100
AcDbCircle
 10
0.5
 20
0.5625
 30
0.0
 40
0.53125
  0
LWPOLYLINE
  5
710
330
6DD
100
AcDbEntity
  8
DAMAN
100
AcDbPolyline
 90
        6
 70
     1
 43
0.0
 10
0.875
 20
5.654006350946108
 10
0.5
 20
5.870512701892218
 10
0.125
 20
5.654006350946108
 10
0.125
 20
5.220993649053889
 10
0.4999999999999997
 20
5.00448729810778
 10
0.8749999999999998
 20
5.220993649053888
  0
CIRCLE
  5
718
330
6DD
100
AcDbEntity
  8
DAMAN
100
AcDbCircle
 10
0.5
 20
5.4375
 30
0.0
 40
0.375
  0
CIRCLE
  5
719
330
6DD
100
AcDbEntity
  8
DAMAN
100
AcDbCircle
 10
0.5
 20
0.5625
 30
0.0
 40
0.375
  0
LWPOLYLINE
  5
71A
330
6DD
100
AcDbEntity
  8
DAMAN
100
AcDbPolyline
 90
        6
 70
     1
 43
0.0
 10
0.875
 20
0.7790063509461094
 10
0.5
 20
0.9955127018922196
 10
0.125
 20
0.7790063509461094
 10
0.125
 20
0.3459936490538906
 10
0.4999999999999997
 20
0.1294872981077804
 10
0.8749999999999998
 20
0.3459936490538897
  0
ENDBLK
  5
722
330
6DD
100
AcDbEntity
  8
0
100
AcDbBlockEnd
  0
BLOCK
  5
724
330
723
100
AcDbEntity
  8
0
100
AcDbBlockBegin
  2
08SAET
 70
     0
 10
0.0
 20
0.0
 30
0.0
  3
08SAET
  1

  0
CIRCLE
  5
725
330
723
100
AcDbEntity
  8
DAMAN
100
AcDbCircle
 10
0.0
 20
0.0
 30
0.0
 40
0.375
  0
CIRCLE
  5
726
330
723
100
AcDbEntity
  8
DAMAN
100
AcDbCircle
 10
-0.0000000000000391
 20
-0.00000000000004
 30
0.0
 40
0.3125
  0
CIRCLE
  5
727
330
723
100
AcDbEntity
  8
DAMAN
  6
HIDDEN
100
AcDbCircle
 10
-0.0000000000000391
 20
-0.00000000000004
 30
0.0
 40
0.3439999999999999
  0
INSERT
  5
728
330
723
100
AcDbEntity
  8
DAMAN
100
AcDbBlockReference
  2
100CROSS
 10
0.0
 20
0.0
 30
0.0
 41
0.88
 42
0.88
  0
CIRCLE
  5
729
330
723
100
AcDbEntity
  8
DAMAN
100
AcDbCircle
 10
0.0
 20
0.0
 30
0.0
 40
0.594
  0
ENDBLK
  5
72A
330
723
100
AcDbEntity
  8
0
100
AcDbBlockEnd
  0
BLOCK
  5
72C
330
72B
100
AcDbEntity
  8
0
100
AcDbBlockBegin
  2
600MKST
 70
     0
 10
0.0
 20
0.0
 30
0.0
  3
600MKST
  1

  0
LINE
  5
72D
330
72B
100
AcDbEntity
  8
DAMAN
100
AcDbLine
 10
-1.625
 20
-0.5625
 30
0.0
 11
-1.625
 21
-0.375
 31
0.0
  0
LINE
  5
72E
330
72B
100
AcDbEntity
  8
DAMAN
100
AcDbLine
 10
-1.625
 20
-0.375
 30
0.0
 11
-0.4375
 21
-0.375
 31
0.0
  0
LINE
  5
72F
330
72B
100
AcDbEntity
  8
DAMAN
100
AcDbLine
 10
-0.1875
 20
-0.125
 30
0.0
 11
-0.1875
 21
1.0625
 31
0.0
  0
LINE
  5
730
330
72B
100
AcDbEntity
  8
DAMAN
100
AcDbLine
 10
-0.1875
 20
1.0625
 30
0.0
 11
0.0
 21
1.0625
 31
0.0
  0
LINE
  5
731
330
72B
100
AcDbEntity
  8
DAMAN
100
AcDbLine
 10
0.0
 20
1.0625
 30
0.0
 11
0.0
 21
-0.125
 31
0.0
  0
LINE
  5
732
330
72B
100
AcDbEntity
  8
DAMAN
100
AcDbLine
 10
-0.4375
 20
-0.5625
 30
0.0
 11
-1.625
 21
-0.5625
 31
0.0
  0
ARC
  5
733
330
72B
100
AcDbEntity
  8
DAMAN
100
AcDbCircle
 10
-0.4375
 20
-0.125
 30
0.0
 40
0.25
100
AcDbArc
 50
270.0
 51
0.0
  0
ARC
  5
734
330
72B
100
AcDbEntity
  8
DAMAN
100
AcDbCircle
 10
-0.4375
 20
-0.125
 30
0.0
 40
0.4375
100
AcDbArc
 50
270.0
 51
0.0
  0
LINE
  5
735
330
72B
100
AcDbEntity
  8
DAMAN
100
AcDbLine
 10
-1.59375
 20
-0.375
 30
0.0
 11
-1.59375
 21
-0.3125
 31
0.0
  0
LINE
  5
736
330
72B
100
AcDbEntity
  8
DAMAN
100
AcDbLine
 10
-1.59375
 20
-0.3125
 30
0.0
 11
-0.53125
 21
-0.3125
 31
0.0
  0
LINE
  5
737
330
72B
100
AcDbEntity
  8
DAMAN
100
AcDbLine
 10
-0.53125
 20
-0.3125
 30
0.0
 11
-0.53125
 21
-0.375
 31
0.0
  0
LINE
  5
738
330
72B
100
AcDbEntity
  8
DAMAN
100
AcDbLine
 10
-1.495512701892218
 20
-0.3125
 30
0.0
 11
-1.495512701892218
 21
-0.0428346394726904
 31
0.0
  0
LINE
  5
739
330
72B
100
AcDbEntity
  8
DAMAN
100
AcDbLine
 10
-1.421320930001622
 20
-0.0000000000000004
 30
0.0
 11
-0.7036790699983779
 21
0.0000000000000004
 31
0.0
  0
LINE
  5
73A
330
72B
100
AcDbEntity
  8
DAMAN
100
AcDbLine
 10
-0.6294872981077813
 20
-0.0428346394726904
 30
0.0
 11
-0.6294872981077813
 21
-0.3125
 31
0.0
  0
LINE
  5
73B
330
72B
100
AcDbEntity
  8
DAMAN
100
AcDbLine
 10
-1.27900635094611
 20
-0.3125
 30
0.0
 11
-1.27900635094611
 21
-0.0625000000000462
 31
0.0
  0
LINE
  5
73C
330
72B
100
AcDbEntity
  8
DAMAN
100
AcDbLine
 10
-0.8459936490538915
 20
-0.3125
 30
0.0
 11
-0.8459936490538915
 21
-0.0624999999999894
 31
0.0
  0
ARC
  5
73D
330
72B
100
AcDbEntity
  8
DAMAN
100
AcDbCircle
 10
-1.062500000000001
 20
-0.4062499999999966
 30
0.0
 40
0.4062499999999964
100
AcDbArc
 50
57.79577249602763
 51
122.2042275039721
  0
ARC
  5
73E
330
72B
100
AcDbEntity
  8
DAMAN
100
AcDbCircle
 10
-0.7377404735808355
 20
-0.1250000000000004
 30
0.0
 40
0.1250000000000008
100
AcDbArc
 50
30.00000000000031
 51
150.0000000000003
  0
ARC
  5
73F
330
72B
100
AcDbEntity
  8
DAMAN
100
AcDbCircle
 10
-1.387259526419164
 20
-0.1250000000000004
 30
0.0
 40
0.1250000000000008
100
AcDbArc
 50
29.9999999999996
 51
149.9999999999997
  0
LINE
  5
740
330
72B
100
AcDbEntity
  8
DAMAN
100
AcDbLine
 10
-1.495512701892218
 20
-0.0428346394726904
 30
0.0
 11
-1.421320930001622
 21
-0.0000000000000004
 31
0.0
  0
LINE
  5
741
330
72B
100
AcDbEntity
  8
DAMAN
100
AcDbLine
 10
-0.6294872981077813
 20
-0.0428346394726904
 30
0.0
 11
-0.7036790699983779
 21
0.0000000000000004
 31
0.0
  0
LINE
  5
742
330
72B
100
AcDbEntity
  8
DAMAN
100
AcDbLine
 10
-1.3125
 20
-0.5625
 30
0.0
 11
-1.3125
 21
-1.28125
 31
0.0
  0
LINE
  5
743
330
72B
100
AcDbEntity
  8
DAMAN
100
AcDbLine
 10
-1.3125
 20
-1.28125
 30
0.0
 11
-1.28125
 21
-1.3125
 31
0.0
  0
LINE
  5
744
330
72B
100
AcDbEntity
  8
DAMAN
100
AcDbLine
 10
-1.28125
 20
-1.3125
 30
0.0
 11
-0.84375
 21
-1.3125
 31
0.0
  0
LINE
  5
745
330
72B
100
AcDbEntity
  8
DAMAN
100
AcDbLine
 10
-0.84375
 20
-1.3125
 30
0.0
 11
-0.8125
 21
-1.28125
 31
0.0
  0
LINE
  5
746
330
72B
100
AcDbEntity
  8
DAMAN
100
AcDbLine
 10
-0.8125
 20
-1.28125
 30
0.0
 11
-0.8125
 21
-0.5625
 31
0.0
  0
LINE
  5
747
330
72B
100
AcDbEntity
  8
DAMAN
100
AcDbLine
 10
-1.28125
 20
-0.5625
 30
0.0
 11
-1.28125
 21
-1.3125
 31
0.0
  0
LINE
  5
748
330
72B
100
AcDbEntity
  8
DAMAN
100
AcDbLine
 10
-0.84375
 20
-0.5625
 30
0.0
 11
-0.84375
 21
-1.3125
 31
0.0
  0
LINE
  5
749
330
72B
100
AcDbEntity
  8
DAMAN
100
AcDbLine
 10
-1.0625
 20
0.125
 30
0.0
 11
-1.0625
 21
-1.40625
 31
0.0
  0
LINE
  5
74A
330
72B
100
AcDbEntity
  8
DAMAN
100
AcDbLine
 10
-0.5196653605273092
 20
0.9330127018922189
 30
0.0
 11
-0.5625
 21
0.8588209300016222
 31
0.0
  0
LINE
  5
74B
330
72B
100
AcDbEntity
  8
DAMAN
100
AcDbLine
 10
-0.5196653605273092
 20
0.0669872981077813
 30
0.0
 11
-0.5624999999999984
 21
0.1411790699983761
 31
0.0
  0
ARC
  5
74C
330
72B
100
AcDbEntity
  8
DAMAN
100
AcDbCircle
 10
-0.4374999999999984
 20
0.1752404735808355
 30
0.0
 40
0.1250000000000008
100
AcDbArc
 50
119.9999999999996
 51
239.9999999999996
  0
ARC
  5
74D
330
72B
100
AcDbEntity
  8
DAMAN
100
AcDbCircle
 10
-0.4374999999999984
 20
0.8247595264191645
 30
0.0
 40
0.1250000000000008
100
AcDbArc
 50
120.0000000000003
 51
240.0000000000004
  0
ARC
  5
74E
330
72B
100
AcDbEntity
  8
DAMAN
100
AcDbCircle
 10
-0.1562500000000035
 20
0.4999999999999984
 30
0.0
 40
0.4062499999999964
100
AcDbArc
 50
147.7957724960276
 51
212.204227503972
  0
LINE
  5
74F
330
72B
100
AcDbEntity
  8
DAMAN
100
AcDbLine
 10
-0.25
 20
0.7165063509461085
 30
0.0
 11
-0.5000000000000107
 21
0.7165063509461085
 31
0.0
  0
LINE
  5
750
330
72B
100
AcDbEntity
  8
DAMAN
100
AcDbLine
 10
-0.25
 20
0.2834936490538897
 30
0.0
 11
-0.4999999999999539
 21
0.2834936490538897
 31
0.0
  0
LINE
  5
751
330
72B
100
AcDbEntity
  8
DAMAN
100
AcDbLine
 10
-0.5196653605273092
 20
0.9330127018922189
 30
0.0
 11
-0.25
 21
0.9330127018922189
 31
0.0
  0
LINE
  5
752
330
72B
100
AcDbEntity
  8
DAMAN
100
AcDbLine
 10
-0.5624999999999984
 20
0.1411790699983761
 30
0.0
 11
-0.5625
 21
0.8588209300016222
 31
0.0
  0
LINE
  5
753
330
72B
100
AcDbEntity
  8
DAMAN
100
AcDbLine
 10
-0.25
 20
0.0669872981077813
 30
0.0
 11
-0.5196653605273092
 21
0.0669872981077813
 31
0.0
  0
LINE
  5
754
330
72B
100
AcDbEntity
  8
DAMAN
100
AcDbLine
 10
-0.25
 20
1.03125
 30
0.0
 11
-0.1875
 21
1.03125
 31
0.0
  0
LINE
  5
755
330
72B
100
AcDbEntity
  8
DAMAN
100
AcDbLine
 10
-0.25
 20
-0.03125
 30
0.0
 11
-0.25
 21
1.03125
 31
0.0
  0
LINE
  5
756
330
72B
100
AcDbEntity
  8
DAMAN
100
AcDbLine
 10
-0.1875
 20
-0.03125
 30
0.0
 11
-0.25
 21
-0.03125
 31
0.0
  0
ENDBLK
  5
757
330
72B
100
AcDbEntity
  8
0
100
AcDbBlockEnd
  0
BLOCK
  5
759
330
758
100
AcDbEntity
  8
0
100
AcDbBlockBegin
  2
125NPTFT
 70
     0
 10
0.0
 20
0.0
 30
0.0
  3
125NPTFT
  1

  0
CIRCLE
  5
75A
330
758
100
AcDbEntity
  8
DAMAN
100
AcDbCircle
 10
0.00000000000004
 20
0.0000000000003997
 30
0.0
 40
0.8440000000000001
  0
CIRCLE
  5
75B
330
758
100
AcDbEntity
  8
DAMAN
100
AcDbCircle
 10
0.00000000000004
 20
0.0000000000003997
 30
0.0
 40
0.7265000000000002
  0
INSERT
  5
75C
330
758
100
AcDbEntity
  8
DAMAN
100
AcDbBlockReference
  2
100CROSS
 10
0.00000000000004
 20
0.0000000000003997
 30
0.0
 41
1.399999999999999
 42
1.399999999999999
  0
CIRCLE
  5
75D
330
758
100
AcDbEntity
  8
DAMAN
100
AcDbCircle
 10
0.0
 20
0.0
 30
0.0
 40
0.78125
  0
ENDBLK
  5
75E
330
758
100
AcDbEntity
  8
0
100
AcDbBlockEnd
  0
BLOCK
  5
760
330
75F
100
AcDbEntity
  8
0
100
AcDbBlockBegin
  2
050NPTFT
 70
     0
 10
0.0
 20
0.0
 30
0.0
  3
050NPTFT
  1

  0
INSERT
  5
762
330
75F
100
AcDbEntity
  8
DAMAN
100
AcDbBlockReference
  2
500NPTFT
 10
0.0
 20
0.0
 30
0.0
  0
ENDBLK
  5
763
330
75F
100
AcDbEntity
  8
0
100
AcDbBlockEnd
  0
BLOCK
  5
764
330
761
100
AcDbEntity
  8
0
100
AcDbBlockBegin
  2
500NPTFT
 70
     0
 10
0.0
 20
0.0
 30
0.0
  3
500NPTFT
  1

  0
INSERT
  5
765
330
761
100
AcDbEntity
  8
DAMAN
 62
     5
100
AcDbBlockReference
  2
100CROSS
 10
0.0
 20
0.0
 30
0.0
 41
0.84
 42
0.84
  0
CIRCLE
  5
766
330
761
100
AcDbEntity
  8
DAMAN
 62
     5
100
AcDbCircle
 10
-0.0000000000003979
 20
-0.0000000000000497
 30
0.0
 40
0.3846266739788397
  0
CIRCLE
  5
767
330
761
100
AcDbEntity
  8
DAMAN
 62
     5
100
AcDbCircle
 10
0.0
 20
0.0
 30
0.0
 40
0.3439999999999999
  0
CIRCLE
  5
768
330
761
100
AcDbEntity
  8
DAMAN
 62
     5
100
AcDbCircle
 10
0.0
 20
0.0
 30
0.0
 40
0.4295000000000001
  0
ENDBLK
  5
769
330
761
100
AcDbEntity
  8
0
100
AcDbBlockEnd
  0
BLOCK
  5
76B
330
76A
100
AcDbEntity
  8
0
100
AcDbBlockBegin
  2
20SAET
 70
     0
 10
0.0
 20
0.0
 30
0.0
  3
20SAET
  1

  0
INSERT
  5
76C
330
76A
100
AcDbEntity
  8
DAMAN
100
AcDbBlockReference
  2
100CROSS
 10
0.0
 20
0.0
 30
0.0
 41
1.7
 42
1.7
  0
CIRCLE
  5
76D
330
76A
100
AcDbEntity
  8
DAMAN
100
AcDbCircle
 10
0.0
 20
0.0
 30
0.0
 40
0.8125
  0
CIRCLE
  5
76E
330
76A
100
AcDbEntity
  8
DAMAN
100
AcDbCircle
 10
0.0
 20
0.0
 30
0.0
 40
1.125
  0
CIRCLE
  5
76F
330
76A
100
AcDbEntity
  8
DAMAN
100
AcDbCircle
 10
0.0
 20
0.0
 30
0.0
 40
0.75
  0
ENDBLK
  5
770
330
76A
100
AcDbEntity
  8
0
100
AcDbBlockEnd
  0
BLOCK
  5
772
330
771
100
AcDbEntity
  8
0
100
AcDbBlockBegin
  2
125BSPPT
 70
     0
 10
0.0
 20
0.0
 30
0.0
  3
125BSPPT
  1

  0
CIRCLE
  5
773
330
771
100
AcDbEntity
  8
DAMAN
100
AcDbCircle
 10
0.0
 20
0.0
 30
0.0
 40
0.703
  0
CIRCLE
  5
774
330
771
100
AcDbEntity
  8
DAMAN
100
AcDbCircle
 10
0.0
 20
0.0
 30
0.0
 40
0.7700000000000001
  0
CIRCLE
  5
775
330
771
100
AcDbEntity
  8
DAMAN
  6
HIDDEN
100
AcDbCircle
 10
0.0
 20
0.0
 30
0.0
 40
0.825
  0
CIRCLE
  5
776
330
771
100
AcDbEntity
  8
DAMAN
100
AcDbCircle
 10
0.0
 20
0.0
 30
0.0
 40
1.125
  0
INSERT
  5
777
330
771
100
AcDbEntity
  8
DAMAN
100
AcDbBlockReference
  2
100CROSS
 10
0.0000000000000586
 20
0.0000000000005995
 30
0.0
 41
2.099999999999999
 42
2.099999999999999
  0
ENDBLK
  5
778
330
771
100
AcDbEntity
  8
0
100
AcDbBlockEnd
  0
BLOCK
  5
77A
330
779
100
AcDbEntity
  8
0
100
AcDbBlockBegin
  2
0500BSPPT
 70
     0
 10
0.0
 20
0.0
 30
0.0
  3
0500BSPPT
  1

  0
CIRCLE
  5
77B
330
779
100
AcDbEntity
  8
DAMAN
100
AcDbCircle
 10
-0.0000000000000391
 20
-0.0000000000000391
 30
0.0
 40
0.3795
  0
INSERT
  5
77C
330
779
100
AcDbEntity
  8
DAMAN
100
AcDbBlockReference
  2
100CROSS
 10
-0.0000000000000391
 20
-0.0000000000000391
 30
0.0
 41
1.199999999999999
 42
1.199999999999999
  0
CIRCLE
  5
77D
330
779
100
AcDbEntity
  8
DAMAN
100
AcDbCircle
 10
-0.0000000000000391
 20
-0.0000000000000391
 30
0.0
 40
0.605
  0
CIRCLE
  5
77E
330
779
100
AcDbEntity
  8
DAMAN
  6
HIDDEN
100
AcDbCircle
 10
-0.0000000000000391
 20
-0.0000000000000391
 30
0.0
 40
0.4125
  0
CIRCLE
  5
77F
330
779
100
AcDbEntity
  8
DAMAN
100
AcDbCircle
 10
-0.0000000000000142
 20
-0.000000000000016
 30
0.0
 40
0.4175
  0
ENDBLK
  5
780
330
779
100
AcDbEntity
  8
0
100
AcDbBlockEnd
  0
BLOCK
  5
782
330
781
100
AcDbEntity
  8
0
100
AcDbBlockBegin
  2
M42T
 70
     0
 10
0.0
 20
0.0
 30
0.0
  3
M42T
  1

  0
CIRCLE
  5
783
330
781
100
AcDbEntity
  8
DAMAN
100
AcDbCircle
 10
0.0
 20
0.0
 30
0.0
 40
1.179999999999999
  0
CIRCLE
  5
784
330
781
100
AcDbEntity
  8
DAMAN
100
AcDbCircle
 10
0.0
 20
0.0
 30
0.0
 40
1.023499999999998
  0
CIRCLE
  5
785
330
781
100
AcDbEntity
  8
DAMAN
100
AcDbCircle
 10
0.0
 20
0.0
 30
0.0
 40
0.8740000000000001
  0
CIRCLE
  5
786
330
781
100
AcDbEntity
  8
DAMAN
  6
HIDDEN
100
AcDbCircle
 10
0.0
 20
0.0
 30
0.0
 40
0.8265
  0
CIRCLE
  5
787
330
781
100
AcDbEntity
  8
DAMAN
100
AcDbCircle
 10
0.0
 20
0.0
 30
0.0
 40
0.7900000000000002
  0
CIRCLE
  5
788
330
781
100
AcDbEntity
  8
DAMAN
100
AcDbCircle
 10
0.0
 20
0.0
 30
0.0
 40
0.625
  0
INSERT
  5
789
330
781
100
AcDbEntity
  8
DAMAN
100
AcDbBlockReference
  2
100CROSS
 10
0.0
 20
0.0
 30
0.0
 41
1.75
 42
1.75
  0
ENDBLK
  5
78A
330
781
100
AcDbEntity
  8
0
100
AcDbBlockEnd
  0
BLOCK
  5
78C
330
78B
100
AcDbEntity
  8
0
100
AcDbBlockBegin
  2
T16AT
 70
     0
 10
0.0
 20
0.0
 30
0.0
  3
T16AT
  1

  0
CIRCLE
  5
78D
330
78B
100
AcDbEntity
  8
DAMAN
100
AcDbCircle
 10
0.0
 20
0.0
 30
0.0
 40
0.5
  0
CIRCLE
  5
78E
330
78B
100
AcDbEntity
  8
DAMAN
100
AcDbCircle
 10
0.0
 20
0.0
 30
0.0
 40
0.625
  0
CIRCLE
  5
78F
330
78B
100
AcDbEntity
  8
DAMAN
100
AcDbCircle
 10
0.0
 20
0.0
 30
0.0
 40
0.6720000000000002
  0
CIRCLE
  5
790
330
78B
100
AcDbEntity
  8
DAMAN
100
AcDbCircle
 10
0.0
 20
0.0
 30
0.0
 40
0.72
  0
CIRCLE
  5
791
330
78B
100
AcDbEntity
  8
DAMAN
100
AcDbCircle
 10
0.0
 20
0.0
 30
0.0
 40
0.7809999999999999
  0
CIRCLE
  5
792
330
78B
100
AcDbEntity
  8
DAMAN
  6
HIDDEN
100
AcDbCircle
 10
0.0
 20
0.0
 30
0.0
 40
0.6875
  0
INSERT
  5
793
330
78B
100
AcDbEntity
  8
DAMAN
100
AcDbBlockReference
  2
100CROSS
 10
-0.0000000000000266
 20
-0.0000000000000302
 30
0.0
 41
1.399999999999999
 42
1.399999999999999
  0
ENDBLK
  5
794
330
78B
100
AcDbEntity
  8
0
100
AcDbBlockEnd
  0
ENDSEC
  0
SECTION
  2
ENTITIES
  0
LINE
  5
796
330
66C
100
AcDbEntity
  8
DAMAN
  6
HIDDEN
100
AcDbLine
 10
8.565223273251429
 20
11.78818874420988
 30
0.0
 11
8.565223273251429
 21
18.03818874420987
 31
0.0
  0
LINE
  5
797
330
66C
100
AcDbEntity
  8
DAMAN
100
AcDbLine
 10
8.565223273251429
 20
18.03818874420987
 30
0.0
 11
13.31522327325142
 21
18.03818874420987
 31
0.0
  0
LINE
  5
798
330
66C
100
AcDbEntity
  8
DAMAN
100
AcDbLine
 10
13.31522327325142
 20
11.78818874420988
 30
0.0
 11
13.31522327325142
 21
18.03818874420987
 31
0.0
  0
LINE
  5
799
330
66C
100
AcDbEntity
  8
DAMAN
100
AcDbLine
 10
8.565223273251429
 20
11.78818874420988
 30
0.0
 11
13.31522327325142
 21
11.78818874420988
 31
0.0
  0
LINE
  5
79A
330
66C
100
AcDbEntity
  8
DAMAN
100
AcDbLine
 10
15.94022327325142
 20
11.78818874420988
 30
0.0
 11
15.94022327325142
 21
18.03818874420987
 31
0.0
  0
LINE
  5
79B
330
66C
100
AcDbEntity
  8
DAMAN
100
AcDbLine
 10
22.94022327325142
 20
11.78818874420988
 30
0.0
 11
22.94022327325142
 21
18.03818874420987
 31
0.0
  0
LINE
  5
79C
330
66C
100
AcDbEntity
  8
DAMAN
100
AcDbLine
 10
15.94022327325142
 20
18.03818874420987
 30
0.0
 11
22.94022327325142
 21
18.03818874420987
 31
0.0
  0
LINE
  5
79D
330
66C
100
AcDbEntity
  8
DAMAN
100
AcDbLine
 10
15.94022327325142
 20
11.78818874420988
 30
0.0
 11
22.94022327325142
 21
11.78818874420988
 31
0.0
  0
INSERT
  5
79E
330
66C
100
AcDbEntity
  8
DAMAN
100
AcDbBlockReference
  2
600MKT
 10
8.567723273251431
 20
11.91318874420988
 30
0.0
  0
INSERT
  5
79F
330
66C
100
AcDbEntity
  8
DAMAN
100
AcDbBlockReference
  2
600MKST
 10
15.94022327325142
 20
6.038188744209881
 30
0.0
  0
LINE
  5
7A0
330
66C
100
AcDbEntity
  8
DAMAN
100
AcDbLine
 10
15.94022327325142
 20
11.91318874420988
 30
0.0
 11
14.31522327325142
 21
11.91318874420988
 31
0.0
  0
LINE
  5
7A1
330
66C
100
AcDbEntity
  8
DAMAN
100
AcDbLine
 10
14.31522327325142
 20
11.91318874420988
 30
0.0
 11
14.31522327325142
 21
17.91318874420988
 31
0.0
  0
LINE
  5
7A2
330
66C
100
AcDbEntity
  8
DAMAN
100
AcDbLine
 10
14.31522327325142
 20
17.91318874420988
 30
0.0
 11
15.94022327325142
 21
17.91318874420988
 31
0.0
  0
LINE
  5
7A3
330
66C
100
AcDbEntity
  8
DAMAN
100
AcDbLine
 10
15.94022327325142
 20
17.91318874420988
 30
0.0
 11
15.94022327325142
 21
11.91318874420988
 31
0.0
  0
LINE
  5
7A4
330
66C
100
AcDbEntity
  8
DAMAN
100
AcDbLine
 10
15.75272327325142
 20
17.91318874420988
 30
0.0
 11
15.75272327325142
 21
11.91318874420988
 31
0.0
  0
LINE
  5
7A5
330
66C
100
AcDbEntity
  8
DAMAN
100
AcDbLine
 10
15.75272327325142
 20
16.81943874420988
 30
0.0
 11
15.69022327325142
 21
16.81943874420988
 31
0.0
  0
LINE
  5
7A6
330
66C
100
AcDbEntity
  8
DAMAN
100
AcDbLine
 10
15.69022327325142
 20
16.81943874420988
 30
0.0
 11
15.69022327325142
 21
17.88193874420987
 31
0.0
  0
LINE
  5
7A7
330
66C
100
AcDbEntity
  8
DAMAN
100
AcDbLine
 10
15.69022327325142
 20
17.88193874420987
 30
0.0
 11
15.75272327325142
 21
17.88193874420987
 31
0.0
  0
LINE
  5
7A8
330
66C
100
AcDbEntity
  8
DAMAN
100
AcDbLine
 10
15.69022327325142
 20
16.91767604231765
 30
0.0
 11
15.42055791272411
 21
16.91767604231765
 31
0.0
  0
LINE
  5
7A9
330
66C
100
AcDbEntity
  8
DAMAN
100
AcDbLine
 10
15.37772327325142
 20
16.99186781420825
 30
0.0
 11
15.37772327325142
 21
17.7095096742115
 31
0.0
  0
LINE
  5
7AA
330
66C
100
AcDbEntity
  8
DAMAN
100
AcDbLine
 10
15.42055791272411
 20
17.78370144610208
 30
0.0
 11
15.69022327325142
 21
17.78370144610208
 31
0.0
  0
LINE
  5
7AB
330
66C
100
AcDbEntity
  8
DAMAN
100
AcDbLine
 10
15.69022327325142
 20
17.13418239326377
 30
0.0
 11
15.44022327325148
 21
17.13418239326377
 31
0.0
  0
LINE
  5
7AC
330
66C
100
AcDbEntity
  8
DAMAN
100
AcDbLine
 10
15.69022327325142
 20
17.56719509515599
 30
0.0
 11
15.44022327325142
 21
17.56719509515599
 31
0.0
  0
ARC
  5
7AD
330
66C
100
AcDbEntity
  8
DAMAN
100
AcDbCircle
 10
15.78397327325141
 20
17.35068874420988
 30
0.0
 40
0.4062499999999964
100
AcDbArc
 50
147.7957724960276
 51
212.204227503972
  0
ARC
  5
7AE
330
66C
100
AcDbEntity
  8
DAMAN
100
AcDbCircle
 10
15.50272327325142
 20
17.67544827062904
 30
0.0
 40
0.1250000000000008
100
AcDbArc
 50
120.0000000000003
 51
240.0000000000004
  0
ARC
  5
7AF
330
66C
100
AcDbEntity
  8
DAMAN
100
AcDbCircle
 10
15.50272327325142
 20
17.02592921779071
 30
0.0
 40
0.1250000000000008
100
AcDbArc
 50
119.9999999999996
 51
239.9999999999996
  0
LINE
  5
7B0
330
66C
100
AcDbEntity
  8
DAMAN
100
AcDbLine
 10
15.42055791272411
 20
16.91767604231765
 30
0.0
 11
15.37772327325142
 21
16.99186781420825
 31
0.0
  0
LINE
  5
7B1
330
66C
100
AcDbEntity
  8
DAMAN
100
AcDbLine
 10
15.42055791272411
 20
17.78370144610208
 30
0.0
 11
15.37772327325142
 21
17.7095096742115
 31
0.0
  0
ARC
  5
7B2
330
66C
100
AcDbEntity
  8
DAMAN
100
AcDbCircle
 10
15.78397327325141
 20
12.47568874420988
 30
0.0
 40
0.4062499999999964
100
AcDbArc
 50
147.7957724960276
 51
212.204227503972
  0
LINE
  5
7B3
330
66C
100
AcDbEntity
  8
DAMAN
100
AcDbLine
 10
15.69022327325142
 20
11.94443874420988
 30
0.0
 11
15.69022327325142
 21
13.00693874420988
 31
0.0
  0
LINE
  5
7B4
330
66C
100
AcDbEntity
  8
DAMAN
100
AcDbLine
 10
15.37772327325142
 20
12.11686781420826
 30
0.0
 11
15.37772327325142
 21
12.8345096742115
 31
0.0
  0
ARC
  5
7B5
330
66C
100
AcDbEntity
  8
DAMAN
100
AcDbCircle
 10
15.50272327325142
 20
12.15092921779072
 30
0.0
 40
0.1250000000000008
100
AcDbArc
 50
119.9999999999996
 51
239.9999999999996
  0
LINE
  5
7B6
330
66C
100
AcDbEntity
  8
DAMAN
100
AcDbLine
 10
15.42055791272411
 20
12.04267604231766
 30
0.0
 11
15.37772327325142
 21
12.11686781420826
 31
0.0
  0
LINE
  5
7B7
330
66C
100
AcDbEntity
  8
DAMAN
100
AcDbLine
 10
15.69022327325142
 20
12.04267604231766
 30
0.0
 11
15.42055791272411
 21
12.04267604231766
 31
0.0
  0
LINE
  5
7B8
330
66C
100
AcDbEntity
  8
DAMAN
100
AcDbLine
 10
15.75272327325142
 20
11.94443874420988
 30
0.0
 11
15.69022327325142
 21
11.94443874420988
 31
0.0
  0
LINE
  5
7B9
330
66C
100
AcDbEntity
  8
DAMAN
100
AcDbLine
 10
15.69022327325142
 20
12.25918239326376
 30
0.0
 11
15.44022327325148
 21
12.25918239326376
 31
0.0
  0
ARC
  5
7BA
330
66C
100
AcDbEntity
  8
DAMAN
100
AcDbCircle
 10
15.50272327325142
 20
12.80044827062903
 30
0.0
 40
0.1250000000000008
100
AcDbArc
 50
120.0000000000003
 51
240.0000000000004
  0
LINE
  5
7BB
330
66C
100
AcDbEntity
  8
DAMAN
100
AcDbLine
 10
15.69022327325142
 20
12.69219509515599
 30
0.0
 11
15.44022327325142
 21
12.69219509515599
 31
0.0
  0
LINE
  5
7BC
330
66C
100
AcDbEntity
  8
DAMAN
100
AcDbLine
 10
15.42055791272411
 20
12.90870144610208
 30
0.0
 11
15.69022327325142
 21
12.90870144610208
 31
0.0
  0
LINE
  5
7BD
330
66C
100
AcDbEntity
  8
DAMAN
100
AcDbLine
 10
15.69022327325142
 20
13.00693874420988
 30
0.0
 11
15.75272327325142
 21
13.00693874420988
 31
0.0
  0
LINE
  5
7BE
330
66C
100
AcDbEntity
  8
DAMAN
100
AcDbLine
 10
15.42055791272411
 20
12.90870144610208
 30
0.0
 11
15.37772327325142
 21
12.8345096742115
 31
0.0
  0
CIRCLE
  5
7BF
330
66C
100
AcDbEntity
  8
DAMAN
100
AcDbCircle
 10
14.87772327325142
 20
12.47568874420988
 30
0.0
 40
0.53125
  0
CIRCLE
  5
7C0
330
66C
100
AcDbEntity
  8
DAMAN
100
AcDbCircle
 10
14.87772327325142
 20
17.35068874420988
 30
0.0
 40
0.53125
  0
LWPOLYLINE
  5
7C1
330
66C
100
AcDbEntity
  8
DAMAN
100
AcDbPolyline
 90
        6
 70
     1
 43
0.0
 10
14.50272327325142
 20
12.25918239326376
 10
14.87772327325142
 20
12.04267604231766
 10
15.25272327325142
 20
12.25918239326376
 10
15.25272327325142
 20
12.69219509515599
 10
14.87772327325142
 20
12.90870144610209
 10
14.50272327325142
 20
12.69219509515599
  0
CIRCLE
  5
7C9
330
66C
100
AcDbEntity
  8
DAMAN
100
AcDbCircle
 10
14.87772327325142
 20
12.47568874420988
 30
0.0
 40
0.375
  0
CIRCLE
  5
7CA
330
66C
100
AcDbEntity
  8
DAMAN
100
AcDbCircle
 10
14.87772327325142
 20
17.35068874420988
 30
0.0
 40
0.375
  0
LWPOLYLINE
  5
7CB
330
66C
100
AcDbEntity
  8
DAMAN
100
AcDbPolyline
 90
        6
 70
     1
 43
0.0
 10
14.50272327325142
 20
17.13418239326377
 10
14.87772327325142
 20
16.91767604231765
 10
15.25272327325142
 20
17.13418239326377
 10
15.25272327325142
 20
17.56719509515599
 10
14.87772327325142
 20
17.7837014461021
 10
14.50272327325142
 20
17.56719509515599
  0
LINE
  5
7D3
330
66C
100
AcDbEntity
  8
DAMAN
100
AcDbLine
 10
13.31522327325142
 20
11.91318874420988
 30
0.0
 11
13.31522327325142
 21
17.91318874420988
 31
0.0
  0
LINE
  5
7D4
330
66C
100
AcDbEntity
  8
DAMAN
100
AcDbLine
 10
15.94022327325142
 20
10.78818874420988
 30
0.0
 11
22.94022327325142
 21
10.78818874420988
 31
0.0
  0
LINE
  5
7D5
330
66C
100
AcDbEntity
  8
DAMAN
100
AcDbLine
 10
15.94022327325142
 20
6.038188744209881
 30
0.0
 11
22.94022327325142
 21
6.038188744209881
 31
0.0
  0
LINE
  5
7D6
330
66C
100
AcDbEntity
  8
DAMAN
100
AcDbLine
 10
15.94022327325142
 20
10.78818874420988
 30
0.0
 11
15.94022327325142
 21
6.038188744209881
 31
0.0
  0
LINE
  5
7D7
330
66C
100
AcDbEntity
  8
DAMAN
100
AcDbLine
 10
22.94022327325142
 20
10.78818874420988
 30
0.0
 11
22.94022327325142
 21
6.038188744209881
 31
0.0
  0
INSERT
  5
7D8
330
66C
100
AcDbEntity
  8
APIPE
100
AcDbBlockReference
  2
100NPTFT
 10
10.94022327325142
 20
13.97818874420988
 30
0.0
  0
INSERT
  5
7D9
330
66C
100
AcDbEntity
  8
APIPE
100
AcDbBlockReference
  2
050NPTFT
 10
16.81522327325183
 20
8.413188744209932
 30
0.0
  0
INSERT
  5
7DA
330
66C
100
AcDbEntity
  8
ASAE
100
AcDbBlockReference
  2
16SAET
 10
10.94022327325142
 20
13.97818874420988
 30
0.0
  0
INSERT
  5
7DB
330
66C
100
AcDbEntity
  8
ASAE
100
AcDbBlockReference
  2
08SAET
 10
16.81522327325183
 20
8.413188744209932
 30
0.0
  0
INSERT
  5
7DC
330
66C
100
AcDbEntity
  8
ABSPP
100
AcDbBlockReference
  2
100BSPPT
 10
10.94022327325139
 20
13.97818874420986
 30
0.0
  0
INSERT
  5
7DD
330
66C
100
AcDbEntity
  8
ABSPP
100
AcDbBlockReference
  2
0500BSPPT
 10
16.8152232732518
 20
8.413188744209909
 30
0.0
  0
INSERT
  5
7DE
330
66C
100
AcDbEntity
  8
AISO
100
AcDbBlockReference
  2
M33T
 10
10.94022327325137
 20
13.97818874420982
 30
0.0
  0
INSERT
  5
7DF
330
66C
100
AcDbEntity
  8
AISO
100
AcDbBlockReference
  2
M14T
 10
16.81522327325176
 20
8.413188744209872
 30
0.0
 41
1.094
 42
1.094
 43
1.094
  0
TEXT
  5
7E0
330
66C
100
AcDbEntity
  8
DAMAN
100
AcDbText
 10
11.57721177788623
 20
13.07814586733438
 30
0.0
 40
0.2
  1
P
 50
270.0
100
AcDbText
  0
TEXT
  5
7E1
330
66C
100
AcDbEntity
  8
DAMAN
100
AcDbText
 10
11.92965532001374
 20
17.57199596740342
 30
0.0
 40
0.2
  1
T
 50
270.0
100
AcDbText
  0
INSERT
  5
7E2
330
66C
100
AcDbEntity
  8
APIPE
100
AcDbBlockReference
  2
125NPTFT
 10
10.94022327325142
 20
16.73818874420988
 30
0.0
  0
INSERT
  5
7E3
330
66C
100
AcDbEntity
  8
ASAE
100
AcDbBlockReference
  2
20SAET
 10
10.94022327325142
 20
16.73818874420988
 30
0.0
  0
INSERT
  5
7E4
330
66C
100
AcDbEntity
  8
AISO
100
AcDbBlockReference
  2
M42T
 10
10.94022327325142
 20
16.73818874420988
 30
0.0
  0
INSERT
  5
7E5
330
66C
100
AcDbEntity
  8
ABSPP
100
AcDbBlockReference
  2
125BSPPT
 10
10.94022327325142
 20
16.73818874420988
 30
0.0
  0
INSERT
  5
7E6
330
66C
100
AcDbEntity
  8
ASAE
100
AcDbBlockReference
  2
16SAET
 10
27.94022327325142
 20
13.97818874420988
 30
0.0
 41
-1.0
  0
INSERT
  5
7E7
330
66C
100
AcDbEntity
  8
ABSPP
100
AcDbBlockReference
  2
125BSPPT
 10
26.56522327325143
 20
16.73818874420988
 30
0.0
 41
-1.0
  0
LINE
  5
7E8
330
66C
100
AcDbEntity
  8
DAMAN
  6
HIDDEN
100
AcDbLine
 10
30.31522327325143
 20
11.78818874420988
 30
0.0
 11
30.31522327325143
 21
18.03818874420987
 31
0.0
  0
INSERT
  5
7E9
330
66C
100
AcDbEntity
  8
DAMAN
100
AcDbBlockReference
  2
600MKT
 10
30.31272327325142
 20
11.91318874420988
 30
0.0
 41
-1.0
  0
LINE
  5
7EA
330
66C
100
AcDbEntity
  8
DAMAN
100
AcDbLine
 10
25.56522327325143
 20
11.78818874420988
 30
0.0
 11
25.56522327325143
 21
18.03818874420987
 31
0.0
  0
LINE
  5
7EB
330
66C
100
AcDbEntity
  8
DAMAN
100
AcDbLine
 10
25.56522327325143
 20
11.91318874420988
 30
0.0
 11
25.56522327325143
 21
17.91318874420988
 31
0.0
  0
LINE
  5
7EC
330
66C
100
AcDbEntity
  8
DAMAN
100
AcDbLine
 10
30.31522327325143
 20
11.78818874420988
 30
0.0
 11
25.56522327325143
 21
11.78818874420988
 31
0.0
  0
INSERT
  5
7ED
330
66C
100
AcDbEntity
  8
APIPE
100
AcDbBlockReference
  2
100NPTFT
 10
26.56522327325143
 20
13.97818874420988
 30
0.0
 41
-1.0
  0
INSERT
  5
7EE
330
66C
100
AcDbEntity
  8
AISO
100
AcDbBlockReference
  2
M33T
 10
26.56522327325149
 20
13.97818874420982
 30
0.0
 41
-1.0
  0
INSERT
  5
7EF
330
66C
100
AcDbEntity
  8
ABSPP
100
AcDbBlockReference
  2
100BSPPT
 10
26.56522327325145
 20
13.97818874420986
 30
0.0
 41
-1.0
  0
LINE
  5
7F0
330
66C
100
AcDbEntity
  8
DAMAN
100
AcDbLine
 10
30.31522327325143
 20
18.03818874420987
 30
0.0
 11
25.56522327325143
 21
18.03818874420987
 31
0.0
  0
INSERT
  5
7F1
330
66C
100
AcDbEntity
  8
AISO
100
AcDbBlockReference
  2
M42T
 10
26.56522327325143
 20
16.73818874420988
 30
0.0
 41
-1.0
  0
INSERT
  5
7F2
330
66C
100
AcDbEntity
  8
ASAE
100
AcDbBlockReference
  2
20SAET
 10
27.94022327325142
 20
16.73818874420988
 30
0.0
 41
-1.0
  0
INSERT
  5
7F3
330
66C
100
AcDbEntity
  8
APIPE
100
AcDbBlockReference
  2
125NPTFT
 10
26.56522327325143
 20
16.73818874420988
 30
0.0
 41
-1.0
  0
INSERT
  5
7F4
330
66C
100
AcDbEntity
  8
DAMAN
100
AcDbBlockReference
  2
600MKST
 10
22.94022327325142
 20
6.038188744209881
 30
0.0
 41
-1.0
  0
LINE
  5
7F5
330
66C
100
AcDbEntity
  8
DAMAN
100
AcDbLine
 10
23.12772327325143
 20
17.91318874420988
 30
0.0
 11
23.12772327325143
 21
11.91318874420988
 31
0.0
  0
LINE
  5
7F6
330
66C
100
AcDbEntity
  8
DAMAN
100
AcDbLine
 10
22.94022327325142
 20
11.78818874420988
 30
0.0
 11
22.94022327325142
 21
18.03818874420987
 31
0.0
  0
LINE
  5
7F7
330
66C
100
AcDbEntity
  8
DAMAN
100
AcDbLine
 10
24.56522327325143
 20
11.91318874420988
 30
0.0
 11
24.56522327325143
 21
17.91318874420988
 31
0.0
  0
LINE
  5
7F8
330
66C
100
AcDbEntity
  8
DAMAN
100
AcDbLine
 10
22.94022327325142
 20
11.91318874420988
 30
0.0
 11
24.56522327325143
 21
11.91318874420988
 31
0.0
  0
CIRCLE
  5
7F9
330
66C
100
AcDbEntity
  8
DAMAN
100
AcDbCircle
 10
24.00272327325143
 20
12.47568874420988
 30
0.0
 40
0.375
  0
LWPOLYLINE
  5
7FA
330
66C
100
AcDbEntity
  8
DAMAN
100
AcDbPolyline
 90
        6
 70
     1
 43
0.0
 10
24.37772327325143
 20
12.25918239326376
 10
24.00272327325143
 20
12.04267604231766
 10
23.62772327325143
 20
12.25918239326376
 10
23.62772327325143
 20
12.69219509515599
 10
24.00272327325143
 20
12.90870144610209
 10
24.37772327325143
 20
12.69219509515599
  0
CIRCLE
  5
802
330
66C
100
AcDbEntity
  8
DAMAN
100
AcDbCircle
 10
24.00272327325143
 20
12.47568874420988
 30
0.0
 40
0.53125
  0
ARC
  5
803
330
66C
100
AcDbEntity
  8
DAMAN
100
AcDbCircle
 10
23.09647327325142
 20
12.47568874420988
 30
0.0
 40
0.4062499999999964
100
AcDbArc
 50
327.7957724960277
 51
32.20422750397233
  0
LINE
  5
804
330
66C
100
AcDbEntity
  8
DAMAN
100
AcDbLine
 10
23.19022327325142
 20
11.94443874420988
 30
0.0
 11
23.19022327325142
 21
13.00693874420988
 31
0.0
  0
LINE
  5
805
330
66C
100
AcDbEntity
  8
DAMAN
100
AcDbLine
 10
23.50272327325142
 20
12.11686781420826
 30
0.0
 11
23.50272327325142
 21
12.8345096742115
 31
0.0
  0
LINE
  5
806
330
66C
100
AcDbEntity
  8
DAMAN
100
AcDbLine
 10
23.45988863377872
 20
12.04267604231766
 30
0.0
 11
23.50272327325142
 21
12.11686781420826
 31
0.0
  0
ARC
  5
807
330
66C
100
AcDbEntity
  8
DAMAN
100
AcDbCircle
 10
23.37772327325143
 20
12.15092921779072
 30
0.0
 40
0.1250000000000008
100
AcDbArc
 50
300.0000000000003
 51
60.00000000000034
  0
LINE
  5
808
330
66C
100
AcDbEntity
  8
DAMAN
100
AcDbLine
 10
23.19022327325142
 20
12.25918239326376
 30
0.0
 11
23.44022327325137
 21
12.25918239326376
 31
0.0
  0
LINE
  5
809
330
66C
100
AcDbEntity
  8
DAMAN
100
AcDbLine
 10
23.19022327325142
 20
12.04267604231766
 30
0.0
 11
23.45988863377872
 21
12.04267604231766
 31
0.0
  0
LINE
  5
80A
330
66C
100
AcDbEntity
  8
DAMAN
100
AcDbLine
 10
23.12772327325143
 20
11.94443874420988
 30
0.0
 11
23.19022327325142
 21
11.94443874420988
 31
0.0
  0
LINE
  5
80B
330
66C
100
AcDbEntity
  8
DAMAN
100
AcDbLine
 10
23.45988863377872
 20
12.90870144610208
 30
0.0
 11
23.50272327325142
 21
12.8345096742115
 31
0.0
  0
ARC
  5
80C
330
66C
100
AcDbEntity
  8
DAMAN
100
AcDbCircle
 10
23.37772327325143
 20
12.80044827062903
 30
0.0
 40
0.1250000000000008
100
AcDbArc
 50
299.9999999999995
 51
59.9999999999997
  0
LINE
  5
80D
330
66C
100
AcDbEntity
  8
DAMAN
100
AcDbLine
 10
23.45988863377872
 20
12.90870144610208
 30
0.0
 11
23.19022327325142
 21
12.90870144610208
 31
0.0
  0
LINE
  5
80E
330
66C
100
AcDbEntity
  8
DAMAN
100
AcDbLine
 10
23.19022327325142
 20
12.69219509515599
 30
0.0
 11
23.44022327325144
 21
12.69219509515599
 31
0.0
  0
LINE
  5
80F
330
66C
100
AcDbEntity
  8
DAMAN
100
AcDbLine
 10
23.19022327325142
 20
13.00693874420988
 30
0.0
 11
23.12772327325143
 21
13.00693874420988
 31
0.0
  0
LINE
  5
810
330
66C
100
AcDbEntity
  8
DAMAN
100
AcDbLine
 10
24.56522327325143
 20
17.91318874420988
 30
0.0
 11
22.94022327325142
 21
17.91318874420988
 31
0.0
  0
LWPOLYLINE
  5
811
330
66C
100
AcDbEntity
  8
DAMAN
100
AcDbPolyline
 90
        6
 70
     1
 43
0.0
 10
24.37772327325143
 20
17.13418239326377
 10
24.00272327325143
 20
16.91767604231765
 10
23.62772327325143
 20
17.13418239326377
 10
23.62772327325143
 20
17.56719509515599
 10
24.00272327325143
 20
17.7837014461021
 10
24.37772327325143
 20
17.56719509515599
  0
CIRCLE
  5
819
330
66C
100
AcDbEntity
  8
DAMAN
100
AcDbCircle
 10
24.00272327325143
 20
17.35068874420988
 30
0.0
 40
0.375
  0
CIRCLE
  5
81A
330
66C
100
AcDbEntity
  8
DAMAN
100
AcDbCircle
 10
24.00272327325143
 20
17.35068874420988
 30
0.0
 40
0.53125
  0
ARC
  5
81B
330
66C
100
AcDbEntity
  8
DAMAN
100
AcDbCircle
 10
23.37772327325143
 20
17.67544827062904
 30
0.0
 40
0.1250000000000008
100
AcDbArc
 50
299.9999999999995
 51
59.9999999999997
  0
LINE
  5
81C
330
66C
100
AcDbEntity
  8
DAMAN
100
AcDbLine
 10
23.19022327325142
 20
16.81943874420988
 30
0.0
 11
23.19022327325142
 21
17.88193874420987
 31
0.0
  0
LINE
  5
81D
330
66C
100
AcDbEntity
  8
DAMAN
100
AcDbLine
 10
23.50272327325142
 20
16.99186781420825
 30
0.0
 11
23.50272327325142
 21
17.7095096742115
 31
0.0
  0
LINE
  5
81E
330
66C
100
AcDbEntity
  8
DAMAN
100
AcDbLine
 10
23.45988863377872
 20
16.91767604231765
 30
0.0
 11
23.50272327325142
 21
16.99186781420825
 31
0.0
  0
ARC
  5
81F
330
66C
100
AcDbEntity
  8
DAMAN
100
AcDbCircle
 10
23.37772327325143
 20
17.02592921779071
 30
0.0
 40
0.1250000000000008
100
AcDbArc
 50
300.0000000000003
 51
60.00000000000034
  0
ARC
  5
820
330
66C
100
AcDbEntity
  8
DAMAN
100
AcDbCircle
 10
23.09647327325142
 20
17.35068874420988
 30
0.0
 40
0.4062499999999964
100
AcDbArc
 50
327.7957724960277
 51
32.20422750397233
  0
LINE
  5
821
330
66C
100
AcDbEntity
  8
DAMAN
100
AcDbLine
 10
23.19022327325142
 20
17.56719509515599
 30
0.0
 11
23.44022327325144
 21
17.56719509515599
 31
0.0
  0
LINE
  5
822
330
66C
100
AcDbEntity
  8
DAMAN
100
AcDbLine
 10
23.19022327325142
 20
17.13418239326377
 30
0.0
 11
23.44022327325137
 21
17.13418239326377
 31
0.0
  0
LINE
  5
823
330
66C
100
AcDbEntity
  8
DAMAN
100
AcDbLine
 10
23.19022327325142
 20
16.91767604231765
 30
0.0
 11
23.45988863377872
 21
16.91767604231765
 31
0.0
  0
LINE
  5
824
330
66C
100
AcDbEntity
  8
DAMAN
100
AcDbLine
 10
23.12772327325143
 20
16.81943874420988
 30
0.0
 11
23.19022327325142
 21
16.81943874420988
 31
0.0
  0
LINE
  5
825
330
66C
100
AcDbEntity
  8
DAMAN
100
AcDbLine
 10
23.45988863377872
 20
17.78370144610208
 30
0.0
 11
23.50272327325142
 21
17.7095096742115
 31
0.0
  0
LINE
  5
826
330
66C
100
AcDbEntity
  8
DAMAN
100
AcDbLine
 10
23.45988863377872
 20
17.78370144610208
 30
0.0
 11
23.19022327325142
 21
17.78370144610208
 31
0.0
  0
LINE
  5
827
330
66C
100
AcDbEntity
  8
DAMAN
100
AcDbLine
 10
23.19022327325142
 20
17.88193874420987
 30
0.0
 11
23.12772327325143
 21
17.88193874420987
 31
0.0
  0
INSERT
  5
828
330
66C
100
AcDbEntity
  8
ABSPP
100
AcDbBlockReference
  2
0500BSPPT
 10
18.62772327325179
 20
7.09818874420991
 30
0.0
  0
INSERT
  5
829
330
66C
100
AcDbEntity
  8
AISO
100
AcDbBlockReference
  2
M14T
 10
18.62772327325176
 20
7.098188744209871
 30
0.0
 41
1.094
 42
1.094
 43
1.094
  0
INSERT
  5
82A
330
66C
100
AcDbEntity
  8
APIPE
100
AcDbBlockReference
  2
050NPTFT
 10
18.62772327325183
 20
7.098188744209933
 30
0.0
  0
INSERT
  5
82B
330
66C
100
AcDbEntity
  8
ABSPP
100
AcDbBlockReference
  2
0500BSPPT
 10
18.62772327325147
 20
9.725688744209922
 30
0.0
  0
INSERT
  5
82C
330
66C
100
AcDbEntity
  8
APIPE
100
AcDbBlockReference
  2
050NPTFT
 10
18.62772327325148
 20
9.725688744209943
 30
0.0
  0
INSERT
  5
82D
330
66C
100
AcDbEntity
  8
AISO
100
AcDbBlockReference
  2
M14T
 10
18.62772327325142
 20
9.725688744209879
 30
0.0
 41
1.094
 42
1.094
 43
1.094
  0
TEXT
  5
82E
330
66C
100
AcDbEntity
  8
DAMAN
100
AcDbText
 10
19.62444446731609
 20
7.578729218248916
 30
0.0
 40
0.2
  1
A
100
AcDbText
  0
TEXT
  5
82F
330
66C
100
AcDbEntity
  8
DAMAN
100
AcDbText
 10
19.62444455487442
 20
10.20935991502861
 30
0.0
 40
0.2
  1
B
100
AcDbText
  0
TEXT
  5
830
330
66C
100
AcDbEntity
  8
DAMAN
100
AcDbText
 10
27.1023436852421
 20
13.18165820257931
 30
0.0
 40
0.2
  1
P
 50
90.0
100
AcDbText
  0
TEXT
  5
831
330
66C
100
AcDbEntity
  8
DAMAN
100
AcDbText
 10
27.09897925703337
 20
17.70525813807626
 30
0.0
 40
0.2
  1
T
 50
90.0
100
AcDbText
  0
TEXT
  5
832
330
66C
100
AcDbEntity
  8
DAMAN
100
AcDbText
 10
19.30778622068699
 20
8.522522518897901
 30
0.0
 40
0.2
  1
DAMAN ****
100
AcDbText
  0
TEXT
  5
833
330
66C
100
AcDbEntity
  8
DAMAN
100
AcDbText
 10
17.22803700904177
 20
8.803555271405301
 30
0.0
 40
0.2
  1
Y
100
AcDbText
  0
LINE
  5
834
330
66C
100
AcDbEntity
  8
DAMAN
100
AcDbLine
 10
15.94022327325142
 20
23.78818874420987
 30
0.0
 11
22.94022327325142
 21
23.78818874420987
 31
0.0
  0
LINE
  5
835
330
66C
100
AcDbEntity
  8
DAMAN
100
AcDbLine
 10
22.94022327325142
 20
19.03818874420988
 30
0.0
 11
22.94022327325142
 21
23.78818874420987
 31
0.0
  0
INSERT
  5
836
330
66C
100
AcDbEntity
  8
DAMAN
100
AcDbBlockReference
  2
600MKST
 10
22.94022327325142
 20
23.78818874420987
 30
0.0
 50
180.0
  0
LINE
  5
837
330
66C
100
AcDbEntity
  8
DAMAN
100
AcDbLine
 10
15.94022327325142
 20
19.03818874420988
 30
0.0
 11
15.94022327325142
 21
23.78818874420987
 31
0.0
  0
INSERT
  5
838
330
66C
100
AcDbEntity
  8
DAMAN
100
AcDbBlockReference
  2
600MKST
 10
15.94022327325142
 20
23.78818874420987
 30
0.0
 41
-1.0
 50
180.0
  0
LINE
  5
839
330
66C
100
AcDbEntity
  8
DAMAN
100
AcDbLine
 10
15.94022327325142
 20
19.03818874420988
 30
0.0
 11
22.94022327325142
 21
19.03818874420988
 31
0.0
  0
INSERT
  5
83A
330
66C
100
AcDbEntity
  8
ASAE
100
AcDbBlockReference
  2
16SAET
 10
18.62772327325145
 20
9.725688744209904
 30
0.0
  0
INSERT
  5
83B
330
66C
100
AcDbEntity
  8
ASAE
100
AcDbBlockReference
  2
16SAET
 10
18.62772327325183
 20
7.098188744209933
 30
0.0
  0
INSERT
  5
83C
330
66C
100
AcDbEntity
  8
DAMAN
100
AcDbBlockReference
  2
T16AT
 10
20.75272327325142
 20
22.60018874420988
 30
0.0
  0
CIRCLE
  5
83E
330
66C
100
AcDbEntity
  8
DAMAN
100
AcDbCircle
 10
19.5652232732514
 20
15.91218874420988
 30
0.0
 40
0.3439999999999999
  0
CIRCLE
  5
83F
330
66C
100
AcDbEntity
  8
DAMAN
100
AcDbCircle
 10
19.5652232732514
 20
14.66318874420988
 30
0.0
 40
0.3439999999999999
  0
INSERT
  5
840
330
66C
100
AcDbEntity
  8
DAMAN
100
AcDbBlockReference
  2
100CROSS
 10
19.5652232732514
 20
15.91218874420988
 30
0.0
 41
0.5625
 42
0.5625
  0
INSERT
  5
841
330
66C
100
AcDbEntity
  8
DAMAN
100
AcDbBlockReference
  2
100CROSS
 10
19.5652232732514
 20
14.66318874420988
 30
0.0
 41
0.5625
 42
0.5625
  0
INSERT
  5
842
330
66C
100
AcDbEntity
  8
DAMAN
100
AcDbBlockReference
  2
100CROSS
 10
17.31472327325141
 20
14.66218874420988
 30
0.0
 41
0.25
 42
0.25
  0
CIRCLE
  5
843
330
66C
100
AcDbEntity
  8
DAMAN
100
AcDbCircle
 10
17.3772232732514
 20
12.63118874420988
 30
0.0
 40
0.1875
  0
CIRCLE
  5
844
330
66C
100
AcDbEntity
  8
DAMAN
100
AcDbCircle
 10
17.3772232732514
 20
12.63118874420988
 30
0.0
 40
0.15625
  0
INSERT
  5
845
330
66C
100
AcDbEntity
  8
DAMAN
100
AcDbBlockReference
  2
100CROSS
 10
17.3772232732514
 20
12.63118874420988
 30
0.0
 41
0.375
 42
0.375
  0
CIRCLE
  5
846
330
66C
100
AcDbEntity
  8
DAMAN
100
AcDbCircle
 10
17.3142232732514
 20
14.66243874420988
 30
0.0
 40
0.125
  0
CIRCLE
  5
847
330
66C
100
AcDbEntity
  8
DAMAN
100
AcDbCircle
 10
17.31472327325141
 20
14.66218874420988
 30
0.0
 40
0.1055
  0
CIRCLE
  5
848
330
66C
100
AcDbEntity
  8
DAMAN
100
AcDbCircle
 10
17.9392232732514
 20
14.03718874420988
 30
0.0
 40
0.3439999999999999
  0
INSERT
  5
849
330
66C
100
AcDbEntity
  8
DAMAN
100
AcDbBlockReference
  2
100CROSS
 10
17.9392232732514
 20
14.03718874420988
 30
0.0
 41
0.5625
 42
0.5625
  0
CIRCLE
  5
84A
330
66C
100
AcDbEntity
  8
DAMAN
100
AcDbCircle
 10
17.8772232732514
 20
13.16318874420988
 30
0.0
 40
0.125
  0
INSERT
  5
84B
330
66C
100
AcDbEntity
  8
DAMAN
100
AcDbBlockReference
  2
100CROSS
 10
17.8772232732514
 20
13.16318874420988
 30
0.0
 41
0.375
 42
0.375
  0
TEXT
  5
84C
330
66C
100
AcDbEntity
  8
DAMAN
100
AcDbText
 10
18.0022232732514
 20
13.34993874420988
 30
0.0
 40
0.12
  1
Y
100
AcDbText
  0
TEXT
  5
84D
330
66C
100
AcDbEntity
  8
DAMAN
100
AcDbText
 10
18.25222327325141
 20
14.44368874420988
 30
0.0
 40
0.12
  1
B
100
AcDbText
  0
CIRCLE
  5
84E
330
66C
100
AcDbEntity
  8
DAMAN
100
AcDbCircle
 10
17.3772232732514
 20
15.91218874420988
 30
0.0
 40
0.0845
  0
CIRCLE
  5
84F
330
66C
100
AcDbEntity
  8
DAMAN
100
AcDbCircle
 10
17.3772232732514
 20
16.63118874420988
 30
0.0
 40
0.1875
  0
CIRCLE
  5
850
330
66C
100
AcDbEntity
  8
DAMAN
100
AcDbCircle
 10
17.3772232732514
 20
16.63118874420988
 30
0.0
 40
0.15625
  0
INSERT
  5
851
330
66C
100
AcDbEntity
  8
DAMAN
100
AcDbBlockReference
  2
100CROSS
 10
17.3772232732514
 20
16.63118874420988
 30
0.0
 41
0.375
 42
0.375
  0
INSERT
  5
852
330
66C
100
AcDbEntity
  8
DAMAN
100
AcDbBlockReference
  2
100CROSS
 10
17.3772232732514
 20
15.91218874420988
 30
0.0
 41
0.25
 42
0.25
  0
CIRCLE
  5
853
330
66C
100
AcDbEntity
  8
DAMAN
100
AcDbCircle
 10
17.9392232732514
 20
15.28718874420988
 30
0.0
 40
0.3439999999999999
  0
INSERT
  5
854
330
66C
100
AcDbEntity
  8
DAMAN
100
AcDbBlockReference
  2
100CROSS
 10
17.9392232732514
 20
15.28718874420988
 30
0.0
 41
0.5625
 42
0.5625
  0
TEXT
  5
855
330
66C
100
AcDbEntity
  8
DAMAN
100
AcDbText
 10
18.2209732732514
 20
15.69368874420988
 30
0.0
 40
0.12
  1
A
100
AcDbText
  0
INSERT
  5
856
330
66C
100
AcDbEntity
  8
DAMAN
100
AcDbBlockReference
  2
100CROSS
 10
20.1272232732514
 20
12.63118874420988
 30
0.0
 41
0.375
 42
0.375
  0
CIRCLE
  5
857
330
66C
100
AcDbEntity
  8
DAMAN
100
AcDbCircle
 10
20.1272232732514
 20
12.63118874420988
 30
0.0
 40
0.1875
  0
CIRCLE
  5
858
330
66C
100
AcDbEntity
  8
DAMAN
100
AcDbCircle
 10
20.1272232732514
 20
12.63118874420988
 30
0.0
 40
0.15625
  0
INSERT
  5
859
330
66C
100
AcDbEntity
  8
DAMAN
100
AcDbBlockReference
  2
100CROSS
 10
20.1272232732514
 20
13.61618874420988
 30
0.0
 41
0.25
 42
0.25
  0
CIRCLE
  5
85A
330
66C
100
AcDbEntity
  8
DAMAN
100
AcDbCircle
 10
20.1272232732514
 20
13.61618874420988
 30
0.0
 40
0.0845
  0
INSERT
  5
85B
330
66C
100
AcDbEntity
  8
DAMAN
100
AcDbBlockReference
  2
100CROSS
 10
20.1272232732514
 20
16.63118874420988
 30
0.0
 41
0.375
 42
0.375
  0
INSERT
  5
85C
330
66C
100
AcDbEntity
  8
DAMAN
100
AcDbBlockReference
  2
100CROSS
 10
20.1897232732514
 20
15.28718874420988
 30
0.0
 41
0.25
 42
0.25
  0
TEXT
  5
85D
330
66C
100
AcDbEntity
  8
DAMAN
100
AcDbText
 10
19.7834732732514
 20
15.13118874420988
 30
0.0
 40
0.12
  1
P
100
AcDbText
  0
CIRCLE
  5
85E
330
66C
100
AcDbEntity
  8
DAMAN
100
AcDbCircle
 10
20.1892232732514
 20
15.28743874420988
 30
0.0
 40
0.125
  0
CIRCLE
  5
85F
330
66C
100
AcDbEntity
  8
DAMAN
100
AcDbCircle
 10
20.1897232732514
 20
15.28718874420988
 30
0.0
 40
0.1055
  0
TEXT
  5
860
330
66C
100
AcDbEntity
  8
DAMAN
100
AcDbText
 10
19.81472327325141
 20
16.38118874420988
 30
0.0
 40
0.12
  1
T
100
AcDbText
  0
CIRCLE
  5
861
330
66C
100
AcDbEntity
  8
DAMAN
100
AcDbCircle
 10
20.1272232732514
 20
16.63118874420988
 30
0.0
 40
0.1875
  0
CIRCLE
  5
862
330
66C
100
AcDbEntity
  8
DAMAN
100
AcDbCircle
 10
20.1272232732514
 20
16.63118874420988
 30
0.0
 40
0.15625
  0
INSERT
  5
863
330
66C
100
AcDbEntity
  8
DAMAN
100
AcDbBlockReference
  2
100CROSS
 10
12.8152232732514
 20
14.91318874420988
 30
0.0
 41
0.4999875
 42
0.4999875
 43
1.333299999999999
  0
CIRCLE
  5
864
330
66C
100
AcDbEntity
  8
DAMAN
100
AcDbCircle
 10
12.8152232732514
 20
14.91318874420988
 30
0.0
 40
0.208328125
  0
CIRCLE
  5
865
330
66C
100
AcDbEntity
  8
DAMAN
100
AcDbCircle
 10
12.8152232732514
 20
14.91318874420988
 30
0.0
 40
0.24999375
  0
CIRCLE
  5
866
330
66C
100
AcDbEntity
  8
DAMAN
100
AcDbCircle
 10
26.0652232732514
 20
14.91318874420988
 30
0.0
 40
0.208328125
  0
INSERT
  5
867
330
66C
100
AcDbEntity
  8
DAMAN
100
AcDbBlockReference
  2
100CROSS
 10
26.0652232732514
 20
14.91318874420988
 30
0.0
 41
0.4999875
 42
0.4999875
 43
1.333299999999999
  0
CIRCLE
  5
868
330
66C
100
AcDbEntity
  8
DAMAN
100
AcDbCircle
 10
26.0652232732514
 20
14.91318874420988
 30
0.0
 40
0.24999375
  0
ENDSEC
  0
SECTION
  2
OBJECTS
  0
DICTIONARY
  5
65A
330
0
100
AcDbDictionary
  3
ACAD_GROUP
350
65B
  3
ACAD_LAYOUT
350
667
  3
ACAD_MLINESTYLE
350
664
  3
ACAD_PLOTSETTINGS
350
666
  3
ACAD_PLOTSTYLENAME
350
65C
  3
ACDBHEADERROUNDTRIPXREC
350
86A
  0
DICTIONARY
  5
88C
330
66C
100
AcDbDictionary
280
     1
  3
ACAD_LAYOUTSELFREF
360
88D
  0
DICTIONARY
  5
88A
330
668
100
AcDbDictionary
280
     1
  3
ACAD_LAYOUTSELFREF
360
88B
  0
DICTIONARY
  5
65B
102
{ACAD_REACTORS
330
65A
102
}
330
65A
100
AcDbDictionary
  0
DICTIONARY
  5
667
102
{ACAD_REACTORS
330
65A
102
}
330
65A
100
AcDbDictionary
  0
DICTIONARY
  5
664
102
{ACAD_REACTORS
330
65A
102
}
330
65A
100
AcDbDictionary
  3
STANDARD
350
665
  0
DICTIONARY
  5
666
102
{ACAD_REACTORS
330
65A
102
}
330
65A
100
AcDbDictionary
  0
ACDBDICTIONARYWDFLT
  5
65C
102
{ACAD_REACTORS
330
65A
102
}
330
65A
100
AcDbDictionary
281
     1
  3
Normal
350
65D
100
AcDbDictionaryWithDefault
340
65D
  0
DICTIONARY
  5
86A
102
{ACAD_REACTORS
330
65A
102
}
330
65A
100
AcDbDictionary
  3
CEPSNTYPE
350
874
  3
FINGERPRINTGUID
350
875
  3
HYPERLINKBASE
350
86D
  3
INSUNITS
350
873
  3
LAYOUTDICT
350
86F
  3
LWETCUNION
350
872
  3
PLOTSETDICT
350
870
  3
PLOTSTYLNAMDICT
350
871
  3
PSVPSCALE
350
877
  3
PUCSBASE
350
87A
  3
PUCSORGBACK
350
880
  3
PUCSORGBOTTOM
350
87C
  3
PUCSORGFRONT
350
87F
  3
PUCSORGLEFT
350
87D
  3
PUCSORGRIGHT
350
87E
  3
PUCSORGTOP
350
87B
  3
PUCSORTHOREF
350
878
  3
PUCSORTHOVIEW
350
879
  3
STYLESHEET
350
86E
  3
TSTACKALIGN
350
86B
  3
TSTACKSIZE
350
86C
  3
UCSBASE
350
883
  3
UCSORGBACK
350
889
  3
UCSORGBOTTOM
350
885
  3
UCSORGFRONT
350
888
  3
UCSORGLEFT
350
886
  3
UCSORGRIGHT
350
887
  3
UCSORGTOP
350
884
  3
UCSORTHOREF
350
881
  3
UCSORTHOVIEW
350
882
  3
VERSIONGUID
350
876
  0
XRECORD
  5
88D
102
{ACAD_REACTORS
330
88C
102
}
330
88C
100
AcDbXrecord
340
66C
  0
XRECORD
  5
88B
102
{ACAD_REACTORS
330
88A
102
}
330
88A
100
AcDbXrecord
340
668
  0
MLINESTYLE
  5
665
102
{ACAD_REACTORS
330
664
102
}
330
664
100
AcDbMlineStyle
  2
STANDARD
 70
     0
  3

 62
   256
 51
90.0
 52
90.0
 71
     2
 49
0.5
 62
   256
  6
BYLAYER
 49
-0.5
 62
   256
  6
BYLAYER
  0
ACDBPLACEHOLDER
  5
65D
102
{ACAD_REACTORS
330
65C
102
}
330
65C
100
AcDbPlaceHolder
280
     0
  0
XRECORD
  5
874
102
{ACAD_REACTORS
330
86A
102
}
330
86A
100
AcDbXrecord
 90
        0
  0
XRECORD
  5
875
102
{ACAD_REACTORS
330
86A
102
}
330
86A
100
AcDbXrecord
  1
{865B68FF-1F74-4EC9-B326-857BD7027CB9}
  0
XRECORD
  5
86D
102
{ACAD_REACTORS
330
86A
102
}
330
86A
100
AcDbXrecord
  1

  0
XRECORD
  5
873
102
{ACAD_REACTORS
330
86A
102
}
330
86A
100
AcDbXrecord
 90
        0
  0
XRECORD
  5
86F
102
{ACAD_REACTORS
330
86A
102
}
330
86A
100
AcDbXrecord
340
667
  0
XRECORD
  5
872
102
{ACAD_REACTORS
330
86A
102
}
330
86A
100
AcDbXrecord
 90
    10781
  0
XRECORD
  5
870
102
{ACAD_REACTORS
330
86A
102
}
330
86A
100
AcDbXrecord
340
666
  0
XRECORD
  5
871
102
{ACAD_REACTORS
330
86A
102
}
330
86A
100
AcDbXrecord
340
65C
  0
XRECORD
  5
877
102
{ACAD_REACTORS
330
86A
102
}
330
86A
100
AcDbXrecord
 40
0.0
  0
XRECORD
  5
87A
102
{ACAD_REACTORS
330
86A
102
}
330
86A
100
AcDbXrecord
340
0
  0
XRECORD
  5
880
102
{ACAD_REACTORS
330
86A
102
}
330
86A
100
AcDbXrecord
 10
0.0
 20
0.0
 30
0.0
  0
XRECORD
  5
87C
102
{ACAD_REACTORS
330
86A
102
}
330
86A
100
AcDbXrecord
 10
0.0
 20
0.0
 30
0.0
  0
XRECORD
  5
87F
102
{ACAD_REACTORS
330
86A
102
}
330
86A
100
AcDbXrecord
 10
0.0
 20
0.0
 30
0.0
  0
XRECORD
  5
87D
102
{ACAD_REACTORS
330
86A
102
}
330
86A
100
AcDbXrecord
 10
0.0
 20
0.0
 30
0.0
  0
XRECORD
  5
87E
102
{ACAD_REACTORS
330
86A
102
}
330
86A
100
AcDbXrecord
 10
0.0
 20
0.0
 30
0.0
  0
XRECORD
  5
87B
102
{ACAD_REACTORS
330
86A
102
}
330
86A
100
AcDbXrecord
 10
0.0
 20
0.0
 30
0.0
  0
XRECORD
  5
878
102
{ACAD_REACTORS
330
86A
102
}
330
86A
100
AcDbXrecord
340
0
  0
XRECORD
  5
879
102
{ACAD_REACTORS
330
86A
102
}
330
86A
100
AcDbXrecord
 70
     0
  0
XRECORD
  5
86E
102
{ACAD_REACTORS
330
86A
102
}
330
86A
100
AcDbXrecord
  1

  0
XRECORD
  5
86B
102
{ACAD_REACTORS
330
86A
102
}
330
86A
100
AcDbXrecord
 90
        1
  0
XRECORD
  5
86C
102
{ACAD_REACTORS
330
86A
102
}
330
86A
100
AcDbXrecord
 90
       70
  0
XRECORD
  5
883
102
{ACAD_REACTORS
330
86A
102
}
330
86A
100
AcDbXrecord
340
0
  0
XRECORD
  5
889
102
{ACAD_REACTORS
330
86A
102
}
330
86A
100
AcDbXrecord
 10
0.0
 20
0.0
 30
0.0
  0
XRECORD
  5
885
102
{ACAD_REACTORS
330
86A
102
}
330
86A
100
AcDbXrecord
 10
0.0
 20
0.0
 30
0.0
  0
XRECORD
  5
888
102
{ACAD_REACTORS
330
86A
102
}
330
86A
100
AcDbXrecord
 10
0.0
 20
0.0
 30
0.0
  0
XRECORD
  5
886
102
{ACAD_REACTORS
330
86A
102
}
330
86A
100
AcDbXrecord
 10
0.0
 20
0.0
 30
0.0
  0
XRECORD
  5
887
102
{ACAD_REACTORS
330
86A
102
}
330
86A
100
AcDbXrecord
 10
0.0
 20
0.0
 30
0.0
  0
XRECORD
  5
884
102
{ACAD_REACTORS
330
86A
102
}
330
86A
100
AcDbXrecord
 10
0.0
 20
0.0
 30
0.0
  0
XRECORD
  5
881
102
{ACAD_REACTORS
330
86A
102
}
330
86A
100
AcDbXrecord
340
0
  0
XRECORD
  5
882
102
{ACAD_REACTORS
330
86A
102
}
330
86A
100
AcDbXrecord
 70
     0
  0
XRECORD
  5
876
102
{ACAD_REACTORS
330
86A
102
}
330
86A
100
AcDbXrecord
  1
{35B9B315-EE1A-4E2A-8B3F-4CE7A501BC76}
  0
ENDSEC
  0
EOF
