  0
SECTION
  2
HEADER
  9
$ACADVER
  1
AC1014
  9
$ACADMAINTVER
 70
     9
  9
$DWGCODEPAGE
  3
ANSI_1252
  9
$INSBASE
 10
0.0
 20
0.0
 30
0.0
  9
$EXTMIN
 10
-1.906720129933638
 20
-1.500030494877172
 30
-0.0015258207003583
  9
$EXTMAX
 10
7.969347504062866
 20
9.000305199064673
 30
0.0000000349246037
  9
$LIMMIN
 10
0.0
 20
0.0
  9
$LIMMAX
 10
12.0
 20
9.0
  9
$ORTHOMODE
 70
     1
  9
$REGENMODE
 70
     1
  9
$FILLMODE
 70
     1
  9
$QTEXTMODE
 70
     0
  9
$MIRRTEXT
 70
     1
  9
$DRAGMODE
 70
     2
  9
$LTSCALE
 40
1.0
  9
$OSMODE
 70
    37
  9
$ATTMODE
 70
     1
  9
$TEXTSIZE
 40
0.188
  9
$TRACEWID
 40
0.05
  9
$TEXTSTYLE
  7
STANDARD
  9
$CLAYER
  8
DAMAN
  9
$CELTYPE
  6
BYLAYER
  9
$CECOLOR
 62
   256
  9
$CELTSCALE
 40
1.0
  9
$DELOBJ
 70
     1
  9
$DISPSILH
 70
     0
  9
$DIMSCALE
 40
1.0
  9
$DIMASZ
 40
0.18
  9
$DIMEXO
 40
0.0625
  9
$DIMDLI
 40
0.38
  9
$DIMRND
 40
0.0
  9
$DIMDLE
 40
0.0
  9
$DIMEXE
 40
0.18
  9
$DIMTP
 40
0.0
  9
$DIMTM
 40
0.0
  9
$DIMTXT
 40
0.18
  9
$DIMCEN
 40
0.09
  9
$DIMTSZ
 40
0.0
  9
$DIMTOL
 70
     0
  9
$DIMLIM
 70
     0
  9
$DIMTIH
 70
     1
  9
$DIMTOH
 70
     1
  9
$DIMSE1
 70
     0
  9
$DIMSE2
 70
     0
  9
$DIMTAD
 70
     0
  9
$DIMZIN
 70
     0
  9
$DIMBLK
  1

  9
$DIMASO
 70
     1
  9
$DIMSHO
 70
     1
  9
$DIMPOST
  1

  9
$DIMAPOST
  1

  9
$DIMALT
 70
     0
  9
$DIMALTD
 70
     2
  9
$DIMALTF
 40
25.4
  9
$DIMLFAC
 40
1.0
  9
$DIMTOFL
 70
     0
  9
$DIMTVP
 40
0.0
  9
$DIMTIX
 70
     0
  9
$DIMSOXD
 70
     0
  9
$DIMSAH
 70
     0
  9
$DIMBLK1
  1

  9
$DIMBLK2
  1

  9
$DIMSTYLE
  2
STANDARD
  9
$DIMCLRD
 70
     0
  9
$DIMCLRE
 70
     0
  9
$DIMCLRT
 70
     0
  9
$DIMTFAC
 40
1.0
  9
$DIMGAP
 40
0.09
  9
$DIMJUST
 70
     0
  9
$DIMSD1
 70
     0
  9
$DIMSD2
 70
     0
  9
$DIMTOLJ
 70
     1
  9
$DIMTZIN
 70
     0
  9
$DIMALTZ
 70
     0
  9
$DIMALTTZ
 70
     0
  9
$DIMFIT
 70
     3
  9
$DIMUPT
 70
     0
  9
$DIMUNIT
 70
     2
  9
$DIMDEC
 70
     4
  9
$DIMTDEC
 70
     4
  9
$DIMALTU
 70
     2
  9
$DIMALTTD
 70
     2
  9
$DIMTXSTY
  7
STANDARD
  9
$DIMAUNIT
 70
     0
  9
$LUNITS
 70
     2
  9
$LUPREC
 70
     4
  9
$SKETCHINC
 40
0.1
  9
$FILLETRAD
 40
0.0
  9
$AUNITS
 70
     0
  9
$AUPREC
 70
     0
  9
$MENU
  1
tom
  9
$ELEVATION
 40
0.0
  9
$PELEVATION
 40
0.0
  9
$THICKNESS
 40
0.0
  9
$LIMCHECK
 70
     0
  9
$BLIPMODE
 70
     0
  9
$CHAMFERA
 40
0.0
  9
$CHAMFERB
 40
0.0
  9
$CHAMFERC
 40
0.0
  9
$CHAMFERD
 40
0.0
  9
$SKPOLY
 70
     0
  9
$TDCREATE
 40
2449753.423461863
  9
$TDUPDATE
 40
2453424.241037534
  9
$TDINDWG
 40
0.0026875694
  9
$TDUSRTIMER
 40
0.0026875694
  9
$USRTIMER
 70
     1
  9
$ANGBASE
 50
0.0
  9
$ANGDIR
 70
     0
  9
$PDMODE
 70
     0
  9
$PDSIZE
 40
0.0
  9
$PLINEWID
 40
0.0
  9
$COORDS
 70
     1
  9
$SPLFRAME
 70
     0
  9
$SPLINETYPE
 70
     6
  9
$SPLINESEGS
 70
     8
  9
$ATTDIA
 70
     0
  9
$ATTREQ
 70
     1
  9
$HANDLING
 70
-16383
  9
$HANDSEED
  5
158
  9
$SURFTAB1
 70
     6
  9
$SURFTAB2
 70
     6
  9
$SURFTYPE
 70
     6
  9
$SURFU
 70
     6
  9
$SURFV
 70
     6
  9
$UCSNAME
  2

  9
$UCSORG
 10
0.0
 20
0.0
 30
0.0
  9
$UCSXDIR
 10
1.0
 20
0.0
 30
0.0
  9
$UCSYDIR
 10
0.0
 20
1.0
 30
0.0
  9
$PUCSNAME
  2

  9
$PUCSORG
 10
0.0
 20
0.0
 30
0.0
  9
$PUCSXDIR
 10
1.0
 20
0.0
 30
0.0
  9
$PUCSYDIR
 10
0.0
 20
1.0
 30
0.0
  9
$USERI1
 70
     0
  9
$USERI2
 70
     0
  9
$USERI3
 70
     0
  9
$USERI4
 70
     0
  9
$USERI5
 70
     0
  9
$USERR1
 40
0.0
  9
$USERR2
 40
0.0
  9
$USERR3
 40
0.0
  9
$USERR4
 40
0.0
  9
$USERR5
 40
0.0
  9
$WORLDVIEW
 70
     1
  9
$SHADEDGE
 70
     3
  9
$SHADEDIF
 70
    70
  9
$TILEMODE
 70
     1
  9
$MAXACTVP
 70
    16
  9
$PINSBASE
 10
0.0
 20
0.0
 30
0.0
  9
$PLIMCHECK
 70
     0
  9
$PEXTMIN
 10
1.000000000000000E+20
 20
1.000000000000000E+20
 30
1.000000000000000E+20
  9
$PEXTMAX
 10
-1.000000000000000E+20
 20
-1.000000000000000E+20
 30
-1.000000000000000E+20
  9
$PLIMMIN
 10
0.0
 20
0.0
  9
$PLIMMAX
 10
12.0
 20
9.0
  9
$UNITMODE
 70
     0
  9
$VISRETAIN
 70
     0
  9
$PLINEGEN
 70
     0
  9
$PSLTSCALE
 70
     1
  9
$TREEDEPTH
 70
  3020
  9
$PICKSTYLE
 70
     1
  9
$CMLSTYLE
  2
STANDARD
  9
$CMLJUST
 70
     0
  9
$CMLSCALE
 40
1.0
  9
$PROXYGRAPHICS
 70
     1
  9
$MEASUREMENT
 70
     0
  0
ENDSEC
  0
SECTION
  2
CLASSES
  0
CLASS
  1
ACDBDICTIONARYWDFLT
  2
AcDbDictionaryWithDefault
  3
AutoCAD 2000
 90
        0
280
     0
281
     0
  0
CLASS
  1
ACDBPLACEHOLDER
  2
AcDbPlaceHolder
  3
AutoCAD 2000
 90
        0
280
     0
281
     0
  0
CLASS
  1
LAYOUT
  2
AcDbLayout
  3
AutoCAD 2000
 90
        0
280
     0
281
     0
  0
CLASS
  1
LONG_TRANSACTION
  2
AcDbLongTransaction
  3
AutoCAD 2000
 90
        0
280
     0
281
     0
  0
CLASS
  1
LWPOLYLINE
  2
AcDbPolyline
  3
AutoCAD 2000
 90
        0
280
     0
281
     1
  0
CLASS
  1
HATCH
  2
AcDbHatch
  3
AutoCAD 2000
 90
        0
280
     0
281
     1
  0
CLASS
  1
XRECORD
  2
AcDbXrecord
  3
AutoCAD 2000
 90
        0
280
     0
281
     0
  0
ENDSEC
  0
SECTION
  2
TABLES
  0
TABLE
  2
VPORT
  5
8
330
0
100
AcDbSymbolTable
 70
     3
  0
VPORT
  5
133
330
8
100
AcDbSymbolTableRecord
100
AcDbViewportTableRecord
  2
*ACTIVE
 70
     0
 10
0.0
 20
0.0
 11
1.0
 21
1.0
 12
3.03131371475057
 22
3.686164707293421
 13
0.0
 23
0.0
 14
0.03125
 24
0.03125
 15
0.0
 25
0.0
 16
0.0
 26
0.0
 36
1.0
 17
0.0
 27
0.0
 37
0.0
 40
11.66041536411313
 41
1.647569444444444
 42
50.0
 43
0.0
 44
0.0
 50
0.0
 51
0.0
 71
     0
 72
   100
 73
     1
 74
     1
 75
     1
 76
     0
 77
     0
 78
     0
  0
ENDTAB
  0
TABLE
  2
LTYPE
  5
5
330
0
100
AcDbSymbolTable
 70
     4
  0
LTYPE
  5
13
330
5
100
AcDbSymbolTableRecord
100
AcDbLinetypeTableRecord
  2
BYBLOCK
 70
     0
  3

 72
    65
 73
     0
 40
0.0
  0
LTYPE
  5
14
330
5
100
AcDbSymbolTableRecord
100
AcDbLinetypeTableRecord
  2
BYLAYER
 70
     0
  3

 72
    65
 73
     0
 40
0.0
  0
LTYPE
  5
15
330
5
100
AcDbSymbolTableRecord
100
AcDbLinetypeTableRecord
  2
CONTINUOUS
 70
     0
  3
Solid line
 72
    65
 73
     0
 40
0.0
  0
LTYPE
  5
24
330
5
100
AcDbSymbolTableRecord
100
AcDbLinetypeTableRecord
  2
HIDDEN
 70
     0
  3
_ _ _ _ _ _ _ _ _ _ _ _ _ _ _ _ _ _ _ _ _ _ _
 72
    65
 73
     2
 40
0.375
 49
0.25
 74
     0
 49
-0.125
 74
     0
  0
LTYPE
  5
25
330
5
100
AcDbSymbolTableRecord
100
AcDbLinetypeTableRecord
  2
CENTER
 70
     0
  3
____ _ ____ _ ____ _ ____ _ ____ _ ____ _ ____
 72
    65
 73
     4
 40
2.0
 49
1.25
 74
     0
 49
-0.25
 74
     0
 49
0.25
 74
     0
 49
-0.25
 74
     0
  0
LTYPE
  5
26
330
5
100
AcDbSymbolTableRecord
100
AcDbLinetypeTableRecord
  2
PHANTOM
 70
     0
  3
_____ _ _ _____ _ _ _____ _ _ _____ _ _ ____
 72
    65
 73
     6
 40
2.5
 49
1.25
 74
     0
 49
-0.25
 74
     0
 49
0.25
 74
     0
 49
-0.25
 74
     0
 49
0.25
 74
     0
 49
-0.25
 74
     0
  0
ENDTAB
  0
TABLE
  2
LAYER
  5
2
330
0
100
AcDbSymbolTable
 70
     8
  0
LAYER
  5
10
330
2
100
AcDbSymbolTableRecord
100
AcDbLayerTableRecord
  2
0
 70
     0
 62
     7
  6
CONTINUOUS
  0
LAYER
  5
22
330
2
100
AcDbSymbolTableRecord
100
AcDbLayerTableRecord
  2
DAMAN
 70
     0
 62
     5
  6
CONTINUOUS
  0
LAYER
  5
27
330
2
100
AcDbSymbolTableRecord
100
AcDbLayerTableRecord
  2
BORDER
 70
     0
 62
     7
  6
CONTINUOUS
  0
LAYER
  5
28
330
2
100
AcDbSymbolTableRecord
100
AcDbLayerTableRecord
  2
CSOLID
 70
     0
 62
     3
  6
CONTINUOUS
  0
LAYER
  5
29
330
2
100
AcDbSymbolTableRecord
100
AcDbLayerTableRecord
  2
CHIDDEN
 70
     0
 62
     3
  6
HIDDEN
  0
LAYER
  5
2A
330
2
100
AcDbSymbolTableRecord
100
AcDbLayerTableRecord
  2
CDIM
 70
     0
 62
     2
  6
CONTINUOUS
  0
LAYER
  5
2B
330
2
100
AcDbSymbolTableRecord
100
AcDbLayerTableRecord
  2
CCENTER
 70
     0
 62
     4
  6
CENTER
  0
LAYER
  5
2C
330
2
100
AcDbSymbolTableRecord
100
AcDbLayerTableRecord
  2
PHANTOM
 70
     0
 62
     1
  6
PHANTOM
  0
ENDTAB
  0
TABLE
  2
STYLE
  5
3
330
0
100
AcDbSymbolTable
 70
     2
  0
STYLE
  5
11
330
3
100
AcDbSymbolTableRecord
100
AcDbTextStyleTableRecord
  2
STANDARD
 70
     0
 40
0.0
 41
1.0
 50
0.0
 71
     0
 42
0.188
  3
txt
  4

  0
STYLE
  5
2D
330
3
100
AcDbSymbolTableRecord
100
AcDbTextStyleTableRecord
  2
STR
 70
     0
 40
0.0
 41
1.0
 50
0.0
 71
     0
 42
0.25
  3
SIMPLEX
  4

  0
ENDTAB
  0
TABLE
  2
VIEW
  5
6
330
0
100
AcDbSymbolTable
 70
     0
  0
ENDTAB
  0
TABLE
  2
UCS
  5
7
330
0
100
AcDbSymbolTable
 70
     0
  0
ENDTAB
  0
TABLE
  2
APPID
  5
9
330
0
100
AcDbSymbolTable
 70
     1
  0
APPID
  5
12
330
9
100
AcDbSymbolTableRecord
100
AcDbRegAppTableRecord
  2
ACAD
 70
     0
  0
ENDTAB
  0
TABLE
  2
DIMSTYLE
  5
A
330
0
100
AcDbSymbolTable
 70
     1
  0
DIMSTYLE
105
129
330
A
100
AcDbSymbolTableRecord
100
AcDbDimStyleTableRecord
  2
STANDARD
 70
     0
  3

  4

  5

  6

  7

 40
1.0
 41
0.18
 42
0.0625
 43
0.38
 44
0.18
 45
0.0
 46
0.0
 47
0.0
 48
0.0
140
0.18
141
0.09
142
0.0
143
25.4
144
1.0
145
0.0
146
1.0
147
0.09
 71
     0
 72
     0
 73
     1
 74
     1
 75
     0
 76
     0
 77
     0
 78
     0
170
     0
171
     2
172
     0
173
     0
174
     0
175
     0
176
     0
177
     0
178
     0
270
     2
271
     4
272
     4
273
     2
274
     2
340
11
275
     0
280
     0
281
     0
282
     0
283
     1
284
     0
285
     0
286
     0
287
     3
288
     0
  0
ENDTAB
  0
TABLE
  2
BLOCK_RECORD
  5
1
330
0
100
AcDbSymbolTable
 70
    10
  0
BLOCK_RECORD
  5
1E
102
{ACAD_XDICTIONARY
360
156
102
}
330
1
100
AcDbSymbolTableRecord
100
AcDbBlockTableRecord
  2
*MODEL_SPACE
  0
BLOCK_RECORD
  5
1A
102
{ACAD_XDICTIONARY
360
154
102
}
330
1
100
AcDbSymbolTableRecord
100
AcDbBlockTableRecord
  2
*PAPER_SPACE
  0
BLOCK_RECORD
  5
30
330
1
100
AcDbSymbolTableRecord
100
AcDbBlockTableRecord
  2
D07CPPG
  0
BLOCK_RECORD
  5
52
330
1
100
AcDbSymbolTableRecord
100
AcDbBlockTableRecord
  2
100CROSS
  0
BLOCK_RECORD
  5
73
330
1
100
AcDbSymbolTableRecord
100
AcDbBlockTableRecord
  2
025NPTFT
  0
BLOCK_RECORD
  5
A9
330
1
100
AcDbSymbolTableRecord
100
AcDbBlockTableRecord
  2
050CROSS
  0
BLOCK_RECORD
  5
B5
330
1
100
AcDbSymbolTableRecord
100
AcDbBlockTableRecord
  2
250NPTFT
  0
BLOCK_RECORD
  5
B8
330
1
100
AcDbSymbolTableRecord
100
AcDbBlockTableRecord
  2
375SHCST
  0
BLOCK_RECORD
  5
C6
330
1
100
AcDbSymbolTableRecord
100
AcDbBlockTableRecord
  2
012NPTFT
  0
BLOCK_RECORD
  5
CD
330
1
100
AcDbSymbolTableRecord
100
AcDbBlockTableRecord
  2
250SHCST
  0
BLOCK_RECORD
  5
E4
330
1
100
AcDbSymbolTableRecord
100
AcDbBlockTableRecord
  2
250SHCS
  0
BLOCK_RECORD
  5
EE
330
1
100
AcDbSymbolTableRecord
100
AcDbBlockTableRecord
  2
375SHCS
  0
ENDTAB
  0
ENDSEC
  0
SECTION
  2
BLOCKS
  0
BLOCK
  5
1F
330
1E
100
AcDbEntity
  8
0
100
AcDbBlockBegin
  2
*MODEL_SPACE
 70
     0
 10
0.0
 20
0.0
 30
0.0
  3
*MODEL_SPACE
  1

  0
ENDBLK
  5
20
330
1E
100
AcDbEntity
  8
0
100
AcDbBlockEnd
  0
BLOCK
  5
1B
330
1A
100
AcDbEntity
 67
     1
  8
0
100
AcDbBlockBegin
  2
*PAPER_SPACE
 70
     0
 10
0.0
 20
0.0
 30
0.0
  3
*PAPER_SPACE
  1

  0
ENDBLK
  5
1C
330
1A
100
AcDbEntity
 67
     1
  8
0
100
AcDbBlockEnd
  0
BLOCK
  5
31
330
30
100
AcDbEntity
  8
0
100
AcDbBlockBegin
  2
D07CPPG
 70
     0
 10
0.0
 20
0.0
 30
0.0
  3
D07CPPG
  1

  0
LWPOLYLINE
  5
32
330
30
100
AcDbEntity
  8
BORDER
100
AcDbPolyline
 90
        4
 70
     1
 43
0.0
 10
8.65625
 20
5.25
 10
12.15625
 20
5.25
 10
12.15625
 20
0.25
 10
8.65625
 20
0.25
  0
LWPOLYLINE
  5
38
330
30
100
AcDbEntity
  8
BORDER
100
AcDbPolyline
 90
        4
 70
     1
 43
0.0
 10
5.40625
 20
0.25
 10
5.40625
 20
5.25
 10
6.40625
 20
5.25
 10
6.40625
 20
0.25
  0
CIRCLE
  5
3E
330
30
100
AcDbEntity
  8
CSOLID
100
AcDbCircle
 10
9.59375
 20
3.90625
 30
0.0
 40
0.210938
  0
CIRCLE
  5
3F
330
30
100
AcDbEntity
  8
CSOLID
100
AcDbCircle
 10
11.21874999999999
 20
3.28125
 30
0.0
 40
0.210938
  0
CIRCLE
  5
40
330
30
100
AcDbEntity
  8
CSOLID
100
AcDbCircle
 10
11.21874999999999
 20
2.03125
 30
0.0
 40
0.210938
  0
CIRCLE
  5
41
330
30
100
AcDbEntity
  8
CSOLID
100
AcDbCircle
 10
9.59375
 20
2.65625
 30
0.0
 40
0.210938
  0
CIRCLE
  5
42
330
30
100
AcDbEntity
  8
CSOLID
100
AcDbCircle
 10
9.65625
 20
1.60925
 30
0.0
 40
0.2189999999999999
  0
CIRCLE
  5
43
330
30
100
AcDbEntity
  8
CSOLID
100
AcDbCircle
 10
11.28125
 20
1.15625
 30
0.0
 40
0.2189999999999999
  0
CIRCLE
  5
44
330
30
100
AcDbEntity
  8
CSOLID
100
AcDbCircle
 10
11.21874999999999
 20
2.03125
 30
0.0
 40
0.5
  0
CIRCLE
  5
45
330
30
100
AcDbEntity
  8
CSOLID
100
AcDbCircle
 10
11.21874999999999
 20
3.28125
 30
0.0
 40
0.5
  0
CIRCLE
  5
46
330
30
100
AcDbEntity
  8
CSOLID
100
AcDbCircle
 10
9.59375
 20
2.65625
 30
0.0
 40
0.5
  0
CIRCLE
  5
47
330
30
100
AcDbEntity
  8
CSOLID
100
AcDbCircle
 10
9.59375
 20
3.90625
 30
0.0
 40
0.5
  0
CIRCLE
  5
48
330
30
100
AcDbEntity
  8
CSOLID
100
AcDbCircle
 10
11.84374999999999
 20
2.65625
 30
0.0
 40
0.1405
  0
CIRCLE
  5
49
330
30
100
AcDbEntity
  8
CSOLID
100
AcDbCircle
 10
8.96875
 20
3.28125
 30
0.0
 40
0.1405
  0
CIRCLE
  5
4A
330
30
100
AcDbEntity
  8
CSOLID
100
AcDbCircle
 10
11.78125
 20
0.625
 30
0.0
 40
0.203
  0
CIRCLE
  5
4B
330
30
100
AcDbEntity
  8
CSOLID
100
AcDbCircle
 10
11.78125
 20
4.625
 30
0.0
 40
0.203
  0
CIRCLE
  5
4C
330
30
100
AcDbEntity
  8
CSOLID
100
AcDbCircle
 10
9.03125
 20
0.625
 30
0.0
 40
0.203
  0
CIRCLE
  5
4D
330
30
100
AcDbEntity
  8
CSOLID
100
AcDbCircle
 10
9.03125
 20
4.625
 30
0.0
 40
0.203
  0
CIRCLE
  5
4E
330
30
100
AcDbEntity
  8
CSOLID
100
AcDbCircle
 10
11.78125
 20
3.90625
 30
0.0
 40
0.0855
  0
CIRCLE
  5
4F
330
30
100
AcDbEntity
  8
CSOLID
100
AcDbCircle
 10
9.03125
 20
1.60925
 30
0.0
 40
0.0855
  0
CIRCLE
  5
50
330
30
100
AcDbEntity
  8
CSOLID
100
AcDbCircle
 10
11.28125
 20
1.157
 30
0.0
 40
0.125
  0
CIRCLE
  5
51
330
30
100
AcDbEntity
  8
CSOLID
100
AcDbCircle
 10
9.65625
 20
1.61
 30
0.0
 40
0.125
  0
INSERT
  5
53
330
30
100
AcDbEntity
  8
CCENTER
100
AcDbBlockReference
  2
100CROSS
 10
11.78125
 20
4.625
 30
0.0
 41
-0.375
 42
0.375
  0
INSERT
  5
54
330
30
100
AcDbEntity
  8
CCENTER
100
AcDbBlockReference
  2
100CROSS
 10
11.78125
 20
3.90625
 30
0.0
 41
-0.171
 42
0.171
  0
INSERT
  5
55
330
30
100
AcDbEntity
  8
CCENTER
100
AcDbBlockReference
  2
100CROSS
 10
11.84325
 20
2.656
 30
0.0
 41
-0.25
 42
0.25
  0
INSERT
  5
56
330
30
100
AcDbEntity
  8
CCENTER
100
AcDbBlockReference
  2
100CROSS
 10
11.78125
 20
0.625
 30
0.0
 41
-0.375
 42
0.375
  0
INSERT
  5
57
330
30
100
AcDbEntity
  8
CCENTER
100
AcDbBlockReference
  2
100CROSS
 10
11.28125
 20
1.15625
 30
0.0
 41
-0.3779999999999999
 42
0.3779999999999999
  0
INSERT
  5
58
330
30
100
AcDbEntity
  8
CCENTER
100
AcDbBlockReference
  2
100CROSS
 10
11.21925
 20
2.031
 30
0.0
 41
-0.6879999999999999
 42
0.6879999999999999
  0
INSERT
  5
59
330
30
100
AcDbEntity
  8
CCENTER
100
AcDbBlockReference
  2
100CROSS
 10
11.21925
 20
3.281
 30
0.0
 41
-0.6879999999999999
 42
0.6879999999999999
  0
INSERT
  5
5A
330
30
100
AcDbEntity
  8
CCENTER
100
AcDbBlockReference
  2
100CROSS
 10
9.59425
 20
3.906
 30
0.0
 41
-0.6879999999999999
 42
0.6879999999999999
  0
INSERT
  5
5B
330
30
100
AcDbEntity
  8
CCENTER
100
AcDbBlockReference
  2
100CROSS
 10
9.03125
 20
4.625
 30
0.0
 41
-0.375
 42
0.375
  0
INSERT
  5
5C
330
30
100
AcDbEntity
  8
CCENTER
100
AcDbBlockReference
  2
100CROSS
 10
8.968249999999999
 20
3.281
 30
0.0
 41
-0.25
 42
0.25
  0
INSERT
  5
5D
330
30
100
AcDbEntity
  8
CCENTER
100
AcDbBlockReference
  2
100CROSS
 10
9.59425
 20
2.656
 30
0.0
 41
-0.6879999999999999
 42
0.6879999999999999
  0
INSERT
  5
5E
330
30
100
AcDbEntity
  8
CCENTER
100
AcDbBlockReference
  2
100CROSS
 10
9.65625
 20
1.60925
 30
0.0
 41
-0.3779999999999999
 42
0.3779999999999999
  0
INSERT
  5
5F
330
30
100
AcDbEntity
  8
CCENTER
100
AcDbBlockReference
  2
100CROSS
 10
9.03125
 20
0.625
 30
0.0
 41
-0.375
 42
0.375
  0
INSERT
  5
60
330
30
100
AcDbEntity
  8
CCENTER
100
AcDbBlockReference
  2
100CROSS
 10
9.03125
 20
1.60925
 30
0.0
 41
-0.171
 42
0.171
  0
LWPOLYLINE
  5
61
330
30
100
AcDbEntity
  8
BORDER
100
AcDbPolyline
 90
        4
 70
     1
 43
0.0
 10
3.71875
 20
5.25
 10
0.21875
 20
5.25
 10
0.21875
 20
0.25
 10
3.71875
 20
0.25
  0
INSERT
  5
67
330
30
100
AcDbEntity
  8
CCENTER
100
AcDbBlockReference
  2
100CROSS
 10
3.34375
 20
0.625
 30
0.0
 41
0.375
 42
0.375
  0
INSERT
  5
68
330
30
100
AcDbEntity
  8
CCENTER
100
AcDbBlockReference
  2
100CROSS
 10
0.59375
 20
0.625
 30
0.0
 41
0.375
 42
0.375
  0
INSERT
  5
69
330
30
100
AcDbEntity
  8
CCENTER
100
AcDbBlockReference
  2
100CROSS
 10
3.40675
 20
3.281
 30
0.0
 41
0.25
 42
0.25
  0
INSERT
  5
6A
330
30
100
AcDbEntity
  8
CCENTER
100
AcDbBlockReference
  2
100CROSS
 10
0.5317499999999999
 20
2.656
 30
0.0
 41
0.25
 42
0.25
  0
INSERT
  5
6B
330
30
100
AcDbEntity
  8
CCENTER
100
AcDbBlockReference
  2
100CROSS
 10
0.59375
 20
4.625
 30
0.0
 41
0.375
 42
0.375
  0
INSERT
  5
6C
330
30
100
AcDbEntity
  8
CCENTER
100
AcDbBlockReference
  2
100CROSS
 10
3.34375
 20
4.625
 30
0.0
 41
0.375
 42
0.375
  0
CIRCLE
  5
6D
330
30
100
AcDbEntity
  8
CSOLID
100
AcDbCircle
 10
3.34375
 20
4.625
 30
0.0
 40
0.203
  0
CIRCLE
  5
6E
330
30
100
AcDbEntity
  8
CSOLID
100
AcDbCircle
 10
0.59375
 20
4.625
 30
0.0
 40
0.203
  0
CIRCLE
  5
6F
330
30
100
AcDbEntity
  8
CSOLID
100
AcDbCircle
 10
3.40625
 20
3.28125
 30
0.0
 40
0.1405
  0
CIRCLE
  5
70
330
30
100
AcDbEntity
  8
CSOLID
100
AcDbCircle
 10
0.53125
 20
2.65625
 30
0.0
 40
0.1405
  0
CIRCLE
  5
71
330
30
100
AcDbEntity
  8
CSOLID
100
AcDbCircle
 10
3.34375
 20
0.625
 30
0.0
 40
0.203
  0
CIRCLE
  5
72
330
30
100
AcDbEntity
  8
CSOLID
100
AcDbCircle
 10
0.59375
 20
0.625
 30
0.0
 40
0.203
  0
INSERT
  5
74
330
30
100
AcDbEntity
  8
BORDER
100
AcDbBlockReference
  2
025NPTFT
 10
2.78125
 20
2.65625
 30
0.0
  0
TEXT
  5
75
330
30
100
AcDbEntity
  8
CDIM
100
AcDbText
 10
2.40625
 20
2.90625
 30
0.0
 40
0.25
  1
P
  7
STR
100
AcDbText
  0
LINE
  5
76
330
30
100
AcDbEntity
  8
CDIM
100
AcDbLine
 10
0.21875
 20
5.361606
 30
0.0
 11
0.21875
 21
6.035712999999999
 31
0.0
  0
LINE
  5
77
330
30
100
AcDbEntity
  8
CDIM
100
AcDbLine
 10
2.78125
 20
3.040856
 30
0.0
 11
2.78125
 21
6.035712999999999
 31
0.0
  0
LINE
  5
78
330
30
100
AcDbEntity
  8
CDIM
100
AcDbLine
 10
0.441962
 20
5.8125
 30
0.0
 11
0.901791
 21
5.8125
 31
0.0
  0
LINE
  5
79
330
30
100
AcDbEntity
  8
CDIM
100
AcDbLine
 10
2.558038
 20
5.8125
 30
0.0
 11
2.098209999999999
 21
5.8125
 31
0.0
  0
SOLID
  5
7A
330
30
100
AcDbEntity
  8
CDIM
100
AcDbTrace
 10
0.441962
 20
5.775298
 30
0.0
 11
0.441962
 21
5.849701999999999
 31
0.0
 12
0.21875
 22
5.8125
 32
0.0
 13
0.21875
 23
5.8125
 33
0.0
  0
SOLID
  5
7B
330
30
100
AcDbEntity
  8
CDIM
100
AcDbTrace
 10
2.558038
 20
5.775298
 30
0.0
 11
2.558038
 21
5.849701999999999
 31
0.0
 12
2.78125
 22
5.8125
 32
0.0
 13
2.78125
 23
5.8125
 33
0.0
  0
TEXT
  5
7C
330
30
100
AcDbEntity
  8
CDIM
100
AcDbText
 10
1.125002999999999
 20
5.687501
 30
0.0
 40
0.249998
  1
2.56
  7
STR
100
AcDbText
  0
LINE
  5
7D
330
30
100
AcDbEntity
  8
CDIM
100
AcDbLine
 10
5.40625
 20
5.361606
 30
0.0
 11
5.40625
 21
6.035712999999999
 31
0.0
  0
LINE
  5
7E
330
30
100
AcDbEntity
  8
CDIM
100
AcDbLine
 10
6.40625
 20
5.361606
 30
0.0
 11
6.40625
 21
6.035712999999999
 31
0.0
  0
LINE
  5
7F
330
30
100
AcDbEntity
  8
CDIM
100
AcDbLine
 10
6.629463
 20
5.8125
 30
0.0
 11
6.852674999999999
 21
5.8125
 31
0.0
  0
LINE
  5
80
330
30
100
AcDbEntity
  8
CDIM
100
AcDbLine
 10
5.183037999999999
 20
5.8125
 30
0.0
 11
4.959825
 21
5.8125
 31
0.0
  0
SOLID
  5
81
330
30
100
AcDbEntity
  8
CDIM
100
AcDbTrace
 10
6.629463
 20
5.775298
 30
0.0
 11
6.629463
 21
5.849701999999999
 31
0.0
 12
6.40625
 22
5.8125
 32
0.0
 13
6.40625
 23
5.8125
 33
0.0
  0
SOLID
  5
82
330
30
100
AcDbEntity
  8
CDIM
100
AcDbTrace
 10
5.183037999999999
 20
5.775298
 30
0.0
 11
5.183037999999999
 21
5.849701999999999
 31
0.0
 12
5.40625
 22
5.8125
 32
0.0
 13
5.40625
 23
5.8125
 33
0.0
  0
TEXT
  5
83
330
30
100
AcDbEntity
  8
CDIM
100
AcDbText
 10
5.544637999999999
 20
5.687501
 30
0.0
 40
0.249998
  1
1.00
  7
STR
100
AcDbText
  0
LINE
  5
84
330
30
100
AcDbEntity
  8
CDIM
100
AcDbLine
 10
3.830355999999999
 20
5.25
 30
0.0
 11
4.504462999999999
 21
5.25
 31
0.0
  0
LINE
  5
85
330
30
100
AcDbEntity
  8
CDIM
100
AcDbLine
 10
3.103855999999999
 20
2.65625
 30
0.0
 11
4.504462999999999
 21
2.65625
 31
0.0
  0
LINE
  5
86
330
30
100
AcDbEntity
  8
CDIM
100
AcDbLine
 10
4.28125
 20
5.026787999999999
 30
0.0
 11
4.28125
 21
4.301337
 31
0.0
  0
LINE
  5
87
330
30
100
AcDbEntity
  8
CDIM
100
AcDbLine
 10
4.28125
 20
2.879462999999999
 30
0.0
 11
4.28125
 21
3.604913999999999
 31
0.0
  0
SOLID
  5
88
330
30
100
AcDbEntity
  8
CDIM
100
AcDbTrace
 10
4.318451999999999
 20
5.026787999999999
 30
0.0
 11
4.244048
 21
5.026787999999999
 31
0.0
 12
4.28125
 22
5.25
 32
0.0
 13
4.28125
 23
5.25
 33
0.0
  0
SOLID
  5
89
330
30
100
AcDbEntity
  8
CDIM
100
AcDbTrace
 10
4.318451999999999
 20
2.879462999999999
 30
0.0
 11
4.244048
 21
2.879462999999999
 31
0.0
 12
4.28125
 22
2.65625
 32
0.0
 13
4.28125
 23
2.65625
 33
0.0
  0
TEXT
  5
8A
330
30
100
AcDbEntity
  8
CDIM
100
AcDbText
 10
3.906252999999999
 20
3.828126
 30
0.0
 40
0.249998
  1
2.59
  7
STR
100
AcDbText
  0
LINE
  5
8B
330
30
100
AcDbEntity
  8
CDIM
100
AcDbLine
 10
8.544643999999999
 20
5.25
 30
0.0
 11
7.870538
 21
5.25
 31
0.0
  0
LINE
  5
8C
330
30
100
AcDbEntity
  8
CDIM
100
AcDbLine
 10
9.271205999999999
 20
2.65625
 30
0.0
 11
7.870538
 21
2.65625
 31
0.0
  0
LINE
  5
8D
330
30
100
AcDbEntity
  8
CDIM
100
AcDbLine
 10
8.09375
 20
5.026787999999999
 30
0.0
 11
8.09375
 21
4.301337
 31
0.0
  0
LINE
  5
8E
330
30
100
AcDbEntity
  8
CDIM
100
AcDbLine
 10
8.09375
 20
2.879462999999999
 30
0.0
 11
8.09375
 21
3.604913999999999
 31
0.0
  0
SOLID
  5
8F
330
30
100
AcDbEntity
  8
CDIM
100
AcDbTrace
 10
8.130952
 20
5.026787999999999
 30
0.0
 11
8.056547999999999
 21
5.026787999999999
 31
0.0
 12
8.09375
 22
5.25
 32
0.0
 13
8.09375
 23
5.25
 33
0.0
  0
SOLID
  5
90
330
30
100
AcDbEntity
  8
CDIM
100
AcDbTrace
 10
8.130952
 20
2.879462999999999
 30
0.0
 11
8.056547999999999
 21
2.879462999999999
 31
0.0
 12
8.09375
 22
2.65625
 32
0.0
 13
8.09375
 23
2.65625
 33
0.0
  0
TEXT
  5
91
330
30
100
AcDbEntity
  8
CDIM
100
AcDbText
 10
7.718752999999999
 20
3.828126
 30
0.0
 40
0.249998
  1
2.59
  7
STR
100
AcDbText
  0
LINE
  5
92
330
30
100
AcDbEntity
  8
CDIM
100
AcDbLine
 10
8.544643999999999
 20
5.25
 30
0.0
 11
7.200899999999999
 21
5.25
 31
0.0
  0
LINE
  5
93
330
30
100
AcDbEntity
  8
CDIM
100
AcDbLine
 10
8.544643999999999
 20
0.25
 30
0.0
 11
7.200899999999999
 21
0.25
 31
0.0
  0
LINE
  5
94
330
30
100
AcDbEntity
  8
CDIM
100
AcDbLine
 10
7.424113
 20
5.026787999999999
 30
0.0
 11
7.424113
 21
2.629461999999999
 31
0.0
  0
LINE
  5
95
330
30
100
AcDbEntity
  8
CDIM
100
AcDbLine
 10
7.424113
 20
0.473212
 30
0.0
 11
7.424113
 21
1.933038999999999
 31
0.0
  0
SOLID
  5
96
330
30
100
AcDbEntity
  8
CDIM
100
AcDbTrace
 10
7.461314999999999
 20
5.026787999999999
 30
0.0
 11
7.38691
 21
5.026787999999999
 31
0.0
 12
7.424113
 22
5.25
 32
0.0
 13
7.424113
 23
5.25
 33
0.0
  0
SOLID
  5
97
330
30
100
AcDbEntity
  8
CDIM
100
AcDbTrace
 10
7.461314999999999
 20
0.473212
 30
0.0
 11
7.38691
 21
0.473212
 31
0.0
 12
7.424113
 22
0.25
 32
0.0
 13
7.424113
 23
0.25
 33
0.0
  0
TEXT
  5
98
330
30
100
AcDbEntity
  8
CDIM
100
AcDbText
 10
7.043163
 20
2.156250999999999
 30
0.0
 40
0.249998
  1
5.00
  7
STR
100
AcDbText
  0
LINE
  5
99
330
30
100
AcDbEntity
  8
CDIM
100
AcDbLine
 10
12.15625
 20
5.361606
 30
0.0
 11
12.15625
 21
6.035712999999999
 31
0.0
  0
LINE
  5
9A
330
30
100
AcDbEntity
  8
CDIM
100
AcDbLine
 10
9.59375
 20
4.228794
 30
0.0
 11
9.59375
 21
6.035712999999999
 31
0.0
  0
LINE
  5
9B
330
30
100
AcDbEntity
  8
CDIM
100
AcDbLine
 10
11.933038
 20
5.8125
 30
0.0
 11
11.47321
 21
5.8125
 31
0.0
  0
LINE
  5
9C
330
30
100
AcDbEntity
  8
CDIM
100
AcDbLine
 10
9.816963000000001
 20
5.8125
 30
0.0
 11
10.276791
 21
5.8125
 31
0.0
  0
SOLID
  5
9D
330
30
100
AcDbEntity
  8
CDIM
100
AcDbTrace
 10
11.933038
 20
5.775298
 30
0.0
 11
11.933038
 21
5.849701999999999
 31
0.0
 12
12.15625
 22
5.8125
 32
0.0
 13
12.15625
 23
5.8125
 33
0.0
  0
SOLID
  5
9E
330
30
100
AcDbEntity
  8
CDIM
100
AcDbTrace
 10
9.816963000000001
 20
5.775298
 30
0.0
 11
9.816963000000001
 21
5.849701999999999
 31
0.0
 12
9.59375
 22
5.8125
 32
0.0
 13
9.59375
 23
5.8125
 33
0.0
  0
TEXT
  5
9F
330
30
100
AcDbEntity
  8
CDIM
100
AcDbText
 10
10.50000299999999
 20
5.687501
 30
0.0
 40
0.249998
  1
2.56
  7
STR
100
AcDbText
  0
LINE
  5
A0
330
30
100
AcDbEntity
  8
CDIM
100
AcDbLine
 10
12.15625
 20
5.361606
 30
0.0
 11
12.15625
 21
6.70535
 31
0.0
  0
LINE
  5
A1
330
30
100
AcDbEntity
  8
CDIM
100
AcDbLine
 10
8.65625
 20
5.361606
 30
0.0
 11
8.65625
 21
6.70535
 31
0.0
  0
LINE
  5
A2
330
30
100
AcDbEntity
  8
CDIM
100
AcDbLine
 10
11.933038
 20
6.482137999999999
 30
0.0
 11
11.01041199999999
 21
6.482137999999999
 31
0.0
  0
LINE
  5
A3
330
30
100
AcDbEntity
  8
CDIM
100
AcDbLine
 10
8.879463000000001
 20
6.482137999999999
 30
0.0
 11
9.802088000000001
 21
6.482137999999999
 31
0.0
  0
SOLID
  5
A4
330
30
100
AcDbEntity
  8
CDIM
100
AcDbTrace
 10
11.933038
 20
6.444935
 30
0.0
 11
11.933038
 21
6.51934
 31
0.0
 12
12.15625
 22
6.482137999999999
 32
0.0
 13
12.15625
 23
6.482137999999999
 33
0.0
  0
SOLID
  5
A5
330
30
100
AcDbEntity
  8
CDIM
100
AcDbTrace
 10
8.879463000000001
 20
6.444935
 30
0.0
 11
8.879463000000001
 21
6.51934
 31
0.0
 12
8.65625
 22
6.482137999999999
 32
0.0
 13
8.65625
 23
6.482137999999999
 33
0.0
  0
TEXT
  5
A6
330
30
100
AcDbEntity
  8
CDIM
100
AcDbText
 10
10.02530099999999
 20
6.357139
 30
0.0
 40
0.249998
  1
3.50
  7
STR
100
AcDbText
  0
ENDBLK
  5
A7
330
30
100
AcDbEntity
  8
0
100
AcDbBlockEnd
  0
BLOCK
  5
A8
330
52
100
AcDbEntity
  8
0
100
AcDbBlockBegin
  2
100CROSS
 70
     0
 10
5.625
 20
4.59375
 30
0.0
  3
100CROSS
  1

  0
INSERT
  5
AA
330
52
100
AcDbEntity
  8
0
100
AcDbBlockReference
  2
050CROSS
 10
5.625
 20
4.59375
 30
0.0
  0
ENDBLK
  5
AB
330
52
100
AcDbEntity
  8
0
100
AcDbBlockEnd
  0
BLOCK
  5
B4
330
73
100
AcDbEntity
  8
0
100
AcDbBlockBegin
  2
025NPTFT
 70
     0
 10
0.0
 20
0.0
 30
0.0
  3
025NPTFT
  1

  0
INSERT
  5
B6
330
73
100
AcDbEntity
  8
DAMAN
100
AcDbBlockReference
  2
250NPTFT
 10
0.0
 20
0.0
 30
0.0
  0
ENDBLK
  5
B7
330
73
100
AcDbEntity
  8
0
100
AcDbBlockEnd
  0
BLOCK
  5
AC
330
A9
100
AcDbEntity
  8
0
100
AcDbBlockBegin
  2
050CROSS
 70
     0
 10
5.0
 20
5.0
 30
0.0
  3
050CROSS
  1

  0
LINE
  5
AD
330
A9
100
AcDbEntity
  8
0
100
AcDbLine
 10
5.0
 20
5.28125
 30
0.0
 11
5.0
 21
5.78125
 31
0.0
  0
LINE
  5
AE
330
A9
100
AcDbEntity
  8
0
100
AcDbLine
 10
5.0
 20
4.875
 30
0.0
 11
5.0
 21
5.125
 31
0.0
  0
LINE
  5
AF
330
A9
100
AcDbEntity
  8
0
100
AcDbLine
 10
5.0
 20
4.15625
 30
0.0
 11
5.0
 21
4.71875
 31
0.0
  0
LINE
  5
B0
330
A9
100
AcDbEntity
  8
0
100
AcDbLine
 10
5.25
 20
5.0
 30
0.0
 11
5.8125
 21
5.0
 31
0.0
  0
LINE
  5
B1
330
A9
100
AcDbEntity
  8
0
100
AcDbLine
 10
4.90625
 20
5.0
 30
0.0
 11
5.09375
 21
5.0
 31
0.0
  0
LINE
  5
B2
330
A9
100
AcDbEntity
  8
0
100
AcDbLine
 10
4.1875
 20
5.0
 30
0.0
 11
4.75
 21
5.0
 31
0.0
  0
ENDBLK
  5
B3
330
A9
100
AcDbEntity
  8
0
100
AcDbBlockEnd
  0
BLOCK
  5
DB
330
B5
100
AcDbEntity
  8
0
100
AcDbBlockBegin
  2
250NPTFT
 70
     0
 10
0.0
 20
0.0
 30
0.0
  3
250NPTFT
  1

  0
CIRCLE
  5
DC
330
B5
100
AcDbEntity
  8
DAMAN
100
AcDbCircle
 10
0.0
 20
0.0
 30
0.0
 40
0.273
  0
CIRCLE
  5
DD
330
B5
100
AcDbEntity
  8
DAMAN
100
AcDbCircle
 10
0.0
 20
0.0
 30
0.0
 40
0.211
  0
INSERT
  5
DE
330
B5
100
AcDbEntity
  8
DAMAN
100
AcDbBlockReference
  2
100CROSS
 10
0.0
 20
0.0
 30
0.0
 41
0.4220000000000001
 42
0.4220000000000001
  0
CIRCLE
  5
DF
330
B5
100
AcDbEntity
  8
DAMAN
100
AcDbCircle
 10
0.0
 20
0.0
 30
0.0
 40
0.242251
  0
POINT
  5
E0
330
B5
100
AcDbEntity
  8
CHIDDEN
100
AcDbPoint
 10
-0.087928
 20
0.191806
 30
0.0
  0
POINT
  5
E1
330
B5
100
AcDbEntity
  8
CHIDDEN
100
AcDbPoint
 10
-0.137717
 20
-0.15986
 30
0.0
  0
POINT
  5
E2
330
B5
100
AcDbEntity
  8
CHIDDEN
100
AcDbPoint
 10
0.202707
 20
-0.058572
 30
0.0
  0
ENDBLK
  5
E3
330
B5
100
AcDbEntity
  8
0
100
AcDbBlockEnd
  0
BLOCK
  5
B9
330
B8
100
AcDbEntity
  8
0
100
AcDbBlockBegin
  2
375SHCST
 70
     0
 10
0.0
 20
0.0
 30
0.0
  3
375SHCST
  1

  0
CIRCLE
  5
BA
330
B8
100
AcDbEntity
  8
DAMAN
100
AcDbCircle
 10
0.0
 20
0.0
 30
0.0
 40
0.281
  0
CIRCLE
  5
BB
330
B8
100
AcDbEntity
  8
DAMAN
100
AcDbCircle
 10
0.0
 20
0.0
 30
0.0
 40
0.25
  0
CIRCLE
  5
BC
330
B8
100
AcDbEntity
  8
DAMAN
100
AcDbCircle
 10
0.0
 20
0.0
 30
0.0
 40
0.18
  0
LWPOLYLINE
  5
BD
330
B8
100
AcDbEntity
  8
DAMAN
100
AcDbPolyline
 90
        6
 70
     1
 43
0.0
 10
-0.09
 20
0.155885
 10
-0.18
 20
0.0
 10
-0.09
 20
-0.155885
 10
0.09
 20
-0.155885
 10
0.18
 20
0.0
 10
0.09
 20
0.155885
  0
ENDBLK
  5
C5
330
B8
100
AcDbEntity
  8
0
100
AcDbBlockEnd
  0
BLOCK
  5
C7
330
C6
100
AcDbEntity
  8
0
100
AcDbBlockBegin
  2
012NPTFT
 70
     0
 10
0.0
 20
0.0
 30
0.0
  3
012NPTFT
  1

  0
CIRCLE
  5
C8
330
C6
100
AcDbEntity
  8
DAMAN
  6
HIDDEN
100
AcDbCircle
 10
0.0
 20
0.0
 30
0.0
 40
0.1875
  0
CIRCLE
  5
C9
330
C6
100
AcDbEntity
  8
DAMAN
100
AcDbCircle
 10
0.0
 20
0.0
 30
0.0
 40
0.2105
  0
CIRCLE
  5
CA
330
C6
100
AcDbEntity
  8
DAMAN
100
AcDbCircle
 10
0.0
 20
0.0
 30
0.0
 40
0.1695
  0
INSERT
  5
CB
330
C6
100
AcDbEntity
  8
DAMAN
100
AcDbBlockReference
  2
100CROSS
 10
0.0
 20
0.0
 30
0.0
 41
0.43
 42
0.43
  0
ENDBLK
  5
CC
330
C6
100
AcDbEntity
  8
0
100
AcDbBlockEnd
  0
BLOCK
  5
CE
330
CD
100
AcDbEntity
  8
0
100
AcDbBlockBegin
  2
250SHCST
 70
     0
 10
0.0
 20
0.0
 30
0.0
  3
250SHCST
  1

  0
CIRCLE
  5
CF
330
CD
100
AcDbEntity
  8
DAMAN
100
AcDbCircle
 10
0.0
 20
0.0
 30
0.0
 40
0.1875
  0
CIRCLE
  5
D0
330
CD
100
AcDbEntity
  8
DAMAN
100
AcDbCircle
 10
0.0
 20
0.0
 30
0.0
 40
0.156
  0
CIRCLE
  5
D1
330
CD
100
AcDbEntity
  8
DAMAN
100
AcDbCircle
 10
0.0
 20
0.0
 30
0.0
 40
0.1085
  0
LWPOLYLINE
  5
D2
330
CD
100
AcDbEntity
  8
DAMAN
100
AcDbPolyline
 90
        6
 70
     1
 43
0.0
 10
-0.054
 20
0.093531
 10
-0.108
 20
0.0
 10
-0.054
 20
-0.093531
 10
0.054
 20
-0.093531
 10
0.108
 20
0.0
 10
0.054
 20
0.093531
  0
ENDBLK
  5
DA
330
CD
100
AcDbEntity
  8
0
100
AcDbBlockEnd
  0
BLOCK
  5
E5
330
E4
100
AcDbEntity
  8
0
100
AcDbBlockBegin
  2
250SHCS
 70
     0
 10
0.0
 20
0.0
 30
0.0
  3
250SHCS
  1

  0
LINE
  5
E6
330
E4
100
AcDbEntity
  8
DAMAN
100
AcDbLine
 10
-0.1875
 20
0.0
 30
0.0
 11
-0.1875
 21
0.21875
 31
0.0
  0
LINE
  5
E7
330
E4
100
AcDbEntity
  8
DAMAN
100
AcDbLine
 10
-0.15625
 20
0.25
 30
0.0
 11
0.15625
 21
0.25
 31
0.0
  0
LINE
  5
E8
330
E4
100
AcDbEntity
  8
DAMAN
100
AcDbLine
 10
0.1875
 20
0.21875
 30
0.0
 11
0.1875
 21
0.0
 31
0.0
  0
LINE
  5
E9
330
E4
100
AcDbEntity
  8
DAMAN
100
AcDbLine
 10
-0.1875
 20
0.21875
 30
0.0
 11
0.1875
 21
0.21875
 31
0.0
  0
LINE
  5
EA
330
E4
100
AcDbEntity
  8
DAMAN
100
AcDbLine
 10
0.1875
 20
0.0
 30
0.0
 11
-0.1875
 21
0.0
 31
0.0
  0
LINE
  5
EB
330
E4
100
AcDbEntity
  8
DAMAN
100
AcDbLine
 10
0.15625
 20
0.25
 30
0.0
 11
0.1875
 21
0.21875
 31
0.0
  0
LINE
  5
EC
330
E4
100
AcDbEntity
  8
DAMAN
100
AcDbLine
 10
-0.15625
 20
0.25
 30
0.0
 11
-0.1875
 21
0.21875
 31
0.0
  0
ENDBLK
  5
ED
330
E4
100
AcDbEntity
  8
0
100
AcDbBlockEnd
  0
BLOCK
  5
EF
330
EE
100
AcDbEntity
  8
0
100
AcDbBlockBegin
  2
375SHCS
 70
     0
 10
0.0
 20
0.0
 30
0.0
  3
375SHCS
  1

  0
LINE
  5
F0
330
EE
100
AcDbEntity
  8
DAMAN
100
AcDbLine
 10
-0.28125
 20
0.0
 30
0.0
 11
-0.28125
 21
0.328125
 31
0.0
  0
LINE
  5
F1
330
EE
100
AcDbEntity
  8
DAMAN
100
AcDbLine
 10
-0.234375
 20
0.375
 30
0.0
 11
0.234375
 21
0.375
 31
0.0
  0
LINE
  5
F2
330
EE
100
AcDbEntity
  8
DAMAN
100
AcDbLine
 10
0.28125
 20
0.328125
 30
0.0
 11
0.28125
 21
0.0
 31
0.0
  0
LINE
  5
F3
330
EE
100
AcDbEntity
  8
DAMAN
100
AcDbLine
 10
-0.28125
 20
0.328125
 30
0.0
 11
0.28125
 21
0.328125
 31
0.0
  0
LINE
  5
F4
330
EE
100
AcDbEntity
  8
DAMAN
100
AcDbLine
 10
0.28125
 20
0.0
 30
0.0
 11
-0.28125
 21
0.0
 31
0.0
  0
LINE
  5
F5
330
EE
100
AcDbEntity
  8
DAMAN
100
AcDbLine
 10
0.234375
 20
0.375
 30
0.0
 11
0.28125
 21
0.328125
 31
0.0
  0
LINE
  5
F6
330
EE
100
AcDbEntity
  8
DAMAN
100
AcDbLine
 10
-0.234375
 20
0.375
 30
0.0
 11
-0.28125
 21
0.328125
 31
0.0
  0
ENDBLK
  5
F7
330
EE
100
AcDbEntity
  8
0
100
AcDbBlockEnd
  0
ENDSEC
  0
SECTION
  2
ENTITIES
  0
LWPOLYLINE
  5
FE
330
1E
100
AcDbEntity
  8
DAMAN
100
AcDbPolyline
 90
        4
 70
     1
 43
0.0
 10
4.78125
 20
6.5
 10
1.28125
 20
6.5
 10
1.28125
 20
1.0
 10
4.78125
 20
1.0
  0
INSERT
  5
104
330
1E
100
AcDbEntity
  8
DAMAN
100
AcDbBlockReference
  2
100CROSS
 10
4.40625
 20
1.625
 30
0.0
 41
0.375
 42
0.375
  0
INSERT
  5
105
330
1E
100
AcDbEntity
  8
DAMAN
100
AcDbBlockReference
  2
100CROSS
 10
1.65625
 20
1.625
 30
0.0
 41
0.375
 42
0.375
  0
INSERT
  5
106
330
1E
100
AcDbEntity
  8
DAMAN
100
AcDbBlockReference
  2
100CROSS
 10
4.469249999999999
 20
4.281
 30
0.0
 41
0.25
 42
0.25
  0
INSERT
  5
107
330
1E
100
AcDbEntity
  8
DAMAN
100
AcDbBlockReference
  2
100CROSS
 10
1.594249999999999
 20
3.656
 30
0.0
 41
0.25
 42
0.25
  0
INSERT
  5
108
330
1E
100
AcDbEntity
  8
DAMAN
100
AcDbBlockReference
  2
100CROSS
 10
1.65625
 20
5.625
 30
0.0
 41
0.375
 42
0.375
  0
INSERT
  5
109
330
1E
100
AcDbEntity
  8
DAMAN
100
AcDbBlockReference
  2
100CROSS
 10
4.40625
 20
5.625
 30
0.0
 41
0.375
 42
0.375
  0
INSERT
  5
110
330
1E
100
AcDbEntity
  8
DAMAN
100
AcDbBlockReference
  2
375SHCST
 10
1.65625
 20
5.625
 30
0.0
  0
INSERT
  5
111
330
1E
100
AcDbEntity
  8
DAMAN
100
AcDbBlockReference
  2
375SHCST
 10
1.65625
 20
1.625
 30
0.0
  0
INSERT
  5
112
330
1E
100
AcDbEntity
  8
DAMAN
100
AcDbBlockReference
  2
375SHCST
 10
4.40625
 20
1.625
 30
0.0
  0
INSERT
  5
113
330
1E
100
AcDbEntity
  8
DAMAN
100
AcDbBlockReference
  2
375SHCST
 10
4.40625
 20
5.625
 30
0.0
  0
INSERT
  5
114
330
1E
100
AcDbEntity
  8
DAMAN
100
AcDbBlockReference
  2
250SHCST
 10
1.594249999999999
 20
3.656
 30
0.0
  0
INSERT
  5
115
330
1E
100
AcDbEntity
  8
DAMAN
100
AcDbBlockReference
  2
250SHCST
 10
4.469249999999999
 20
4.281
 30
0.0
  0
LINE
  5
116
330
1E
100
AcDbEntity
  8
DAMAN
100
AcDbLine
 10
1.28125
 20
-1.5
 30
0.0
 11
4.78125
 21
-1.5
 31
0.0
  0
LINE
  5
117
330
1E
100
AcDbEntity
  8
DAMAN
100
AcDbLine
 10
4.78125
 20
-1.5
 30
0.0
 11
4.78125
 21
0.0
 31
0.0
  0
LINE
  5
118
330
1E
100
AcDbEntity
  8
DAMAN
100
AcDbLine
 10
4.78125
 20
0.0
 30
0.0
 11
1.28125
 21
0.0
 31
0.0
  0
LINE
  5
119
330
1E
100
AcDbEntity
  8
DAMAN
100
AcDbLine
 10
1.28125
 20
0.0
 30
0.0
 11
1.28125
 21
-1.5
 31
0.0
  0
LINE
  5
11A
330
1E
100
AcDbEntity
  8
DAMAN
100
AcDbLine
 10
4.78125
 20
7.5
 30
0.0
 11
1.28125
 21
7.5
 31
0.0
  0
LINE
  5
11B
330
1E
100
AcDbEntity
  8
DAMAN
100
AcDbLine
 10
1.28125
 20
9.0
 30
0.0
 11
4.78125
 21
9.0
 31
0.0
  0
LINE
  5
11C
330
1E
100
AcDbEntity
  8
DAMAN
100
AcDbLine
 10
1.28125
 20
7.5
 30
0.0
 11
1.28125
 21
9.0
 31
0.0
  0
LINE
  5
11D
330
1E
100
AcDbEntity
  8
DAMAN
100
AcDbLine
 10
4.78125
 20
9.0
 30
0.0
 11
4.78125
 21
7.5
 31
0.0
  0
TEXT
  5
11E
330
1E
100
AcDbEntity
  8
DAMAN
100
AcDbText
 10
1.410497606697099
 20
-0.3002287735175138
 30
0.0
 40
0.188
  1
DAMAN ****
100
AcDbText
  0
INSERT
  5
11F
330
1E
100
AcDbEntity
  8
DAMAN
100
AcDbBlockReference
  2
250SHCS
 10
-0.40625
 20
3.65625
 30
0.0
 50
270.0
  0
INSERT
  5
120
330
1E
100
AcDbEntity
  8
DAMAN
100
AcDbBlockReference
  2
250SHCS
 10
6.46875
 20
4.25
 30
0.0
 50
90.0
  0
INSERT
  5
121
330
1E
100
AcDbEntity
  8
DAMAN
100
AcDbBlockReference
  2
375SHCS
 10
-0.40625
 20
5.625
 30
0.0
 50
270.0
  0
INSERT
  5
122
330
1E
100
AcDbEntity
  8
DAMAN
100
AcDbBlockReference
  2
375SHCS
 10
6.46875
 20
5.602291
 30
0.0
 50
90.0
  0
INSERT
  5
123
330
1E
100
AcDbEntity
  8
DAMAN
100
AcDbBlockReference
  2
375SHCS
 10
1.655711
 20
7.489539999999998
 30
0.0
 50
180.0
  0
INSERT
  5
124
330
1E
100
AcDbEntity
  8
DAMAN
100
AcDbBlockReference
  2
375SHCS
 10
-0.40625
 20
1.625
 30
0.0
 50
270.0
  0
INSERT
  5
125
330
1E
100
AcDbEntity
  8
DAMAN
100
AcDbBlockReference
  2
375SHCS
 10
6.46875
 20
1.625
 30
0.0
 50
90.0
  0
INSERT
  5
126
330
1E
100
AcDbEntity
  8
DAMAN
100
AcDbBlockReference
  2
375SHCS
 10
1.655711
 20
0.0
 30
0.0
  0
INSERT
  5
127
330
1E
100
AcDbEntity
  8
DAMAN
100
AcDbBlockReference
  2
375SHCS
 10
4.40625
 20
0.0
 30
0.0
  0
INSERT
  5
128
330
1E
100
AcDbEntity
  8
DAMAN
100
AcDbBlockReference
  2
375SHCS
 10
4.40625
 20
7.489539999999998
 30
0.0
 50
180.0
  0
LINE
  5
12A
330
1E
100
AcDbEntity
  8
DAMAN
100
AcDbLine
 10
6.46875
 20
1.0
 30
0.0
 11
6.46875
 21
6.5
 31
0.0
  0
LINE
  5
12B
330
1E
100
AcDbEntity
  8
DAMAN
100
AcDbLine
 10
6.46875
 20
6.5
 30
0.0
 11
7.96875
 21
6.5
 31
0.0
  0
LINE
  5
12C
330
1E
100
AcDbEntity
  8
DAMAN
100
AcDbLine
 10
7.96875
 20
6.5
 30
0.0
 11
7.96875
 21
1.0
 31
0.0
  0
LINE
  5
12D
330
1E
100
AcDbEntity
  8
DAMAN
100
AcDbLine
 10
7.96875
 20
1.0
 30
0.0
 11
6.46875
 21
1.0
 31
0.0
  0
LINE
  5
12E
330
1E
100
AcDbEntity
  8
DAMAN
100
AcDbLine
 10
-0.40625
 20
1.0
 30
0.0
 11
-0.40625
 21
6.5
 31
0.0
  0
LINE
  5
12F
330
1E
100
AcDbEntity
  8
DAMAN
100
AcDbLine
 10
-0.40625
 20
6.5
 30
0.0
 11
-1.90625
 21
6.5
 31
0.0
  0
LINE
  5
130
330
1E
100
AcDbEntity
  8
DAMAN
100
AcDbLine
 10
-1.90625
 20
6.5
 30
0.0
 11
-1.90625
 21
1.0
 31
0.0
  0
LINE
  5
131
330
1E
100
AcDbEntity
  8
DAMAN
100
AcDbLine
 10
-1.90625
 20
1.0
 30
0.0
 11
-0.40625
 21
1.0
 31
0.0
  0
ENDSEC
  0
SECTION
  2
OBJECTS
  0
DICTIONARY
  5
C
330
0
100
AcDbDictionary
  3
ACAD_GROUP
350
D
  3
ACAD_LAYOUT
350
19
  3
ACAD_MLINESTYLE
350
16
  3
ACAD_PLOTSETTINGS
350
18
  3
ACAD_PLOTSTYLENAME
350
E
  3
ACDBHEADERROUNDTRIPXREC
350
134
  0
DICTIONARY
  5
156
330
1E
100
AcDbDictionary
280
     1
  3
ACAD_LAYOUTSELFREF
360
157
  0
DICTIONARY
  5
154
330
1A
100
AcDbDictionary
280
     1
  3
ACAD_LAYOUTSELFREF
360
155
  0
DICTIONARY
  5
D
102
{ACAD_REACTORS
330
C
102
}
330
C
100
AcDbDictionary
  0
DICTIONARY
  5
19
102
{ACAD_REACTORS
330
C
102
}
330
C
100
AcDbDictionary
  0
DICTIONARY
  5
16
102
{ACAD_REACTORS
330
C
102
}
330
C
100
AcDbDictionary
  3
STANDARD
350
17
  0
DICTIONARY
  5
18
102
{ACAD_REACTORS
330
C
102
}
330
C
100
AcDbDictionary
  0
ACDBDICTIONARYWDFLT
  5
E
102
{ACAD_REACTORS
330
C
102
}
330
C
100
AcDbDictionary
281
     1
  3
Normal
350
F
100
AcDbDictionaryWithDefault
340
F
  0
DICTIONARY
  5
134
102
{ACAD_REACTORS
330
C
102
}
330
C
100
AcDbDictionary
  3
CEPSNTYPE
350
13E
  3
FINGERPRINTGUID
350
13F
  3
HYPERLINKBASE
350
137
  3
INSUNITS
350
13D
  3
LAYOUTDICT
350
139
  3
LWETCUNION
350
13C
  3
PLOTSETDICT
350
13A
  3
PLOTSTYLNAMDICT
350
13B
  3
PSVPSCALE
350
141
  3
PUCSBASE
350
144
  3
PUCSORGBACK
350
14A
  3
PUCSORGBOTTOM
350
146
  3
PUCSORGFRONT
350
149
  3
PUCSORGLEFT
350
147
  3
PUCSORGRIGHT
350
148
  3
PUCSORGTOP
350
145
  3
PUCSORTHOREF
350
142
  3
PUCSORTHOVIEW
350
143
  3
STYLESHEET
350
138
  3
TSTACKALIGN
350
135
  3
TSTACKSIZE
350
136
  3
UCSBASE
350
14D
  3
UCSORGBACK
350
153
  3
UCSORGBOTTOM
350
14F
  3
UCSORGFRONT
350
152
  3
UCSORGLEFT
350
150
  3
UCSORGRIGHT
350
151
  3
UCSORGTOP
350
14E
  3
UCSORTHOREF
350
14B
  3
UCSORTHOVIEW
350
14C
  3
VERSIONGUID
350
140
  0
XRECORD
  5
157
102
{ACAD_REACTORS
330
156
102
}
330
156
100
AcDbXrecord
340
1E
  0
XRECORD
  5
155
102
{ACAD_REACTORS
330
154
102
}
330
154
100
AcDbXrecord
340
1A
  0
MLINESTYLE
  5
17
102
{ACAD_REACTORS
330
16
102
}
330
16
100
AcDbMlineStyle
  2
STANDARD
 70
     0
  3

 62
   256
 51
90.0
 52
90.0
 71
     2
 49
0.5
 62
   256
  6
BYLAYER
 49
-0.5
 62
   256
  6
BYLAYER
  0
ACDBPLACEHOLDER
  5
F
102
{ACAD_REACTORS
330
E
102
}
330
E
100
AcDbPlaceHolder
280
     0
  0
XRECORD
  5
13E
102
{ACAD_REACTORS
330
134
102
}
330
134
100
AcDbXrecord
 90
        0
  0
XRECORD
  5
13F
102
{ACAD_REACTORS
330
134
102
}
330
134
100
AcDbXrecord
  1
{ED8F7BC7-6173-47E8-902A-942E2C3E34B8}
  0
XRECORD
  5
137
102
{ACAD_REACTORS
330
134
102
}
330
134
100
AcDbXrecord
  1

  0
XRECORD
  5
13D
102
{ACAD_REACTORS
330
134
102
}
330
134
100
AcDbXrecord
 90
        0
  0
XRECORD
  5
139
102
{ACAD_REACTORS
330
134
102
}
330
134
100
AcDbXrecord
340
19
  0
XRECORD
  5
13C
102
{ACAD_REACTORS
330
134
102
}
330
134
100
AcDbXrecord
 90
    10781
  0
XRECORD
  5
13A
102
{ACAD_REACTORS
330
134
102
}
330
134
100
AcDbXrecord
340
18
  0
XRECORD
  5
13B
102
{ACAD_REACTORS
330
134
102
}
330
134
100
AcDbXrecord
340
E
  0
XRECORD
  5
141
102
{ACAD_REACTORS
330
134
102
}
330
134
100
AcDbXrecord
 40
0.0
  0
XRECORD
  5
144
102
{ACAD_REACTORS
330
134
102
}
330
134
100
AcDbXrecord
340
0
  0
XRECORD
  5
14A
102
{ACAD_REACTORS
330
134
102
}
330
134
100
AcDbXrecord
 10
0.0
 20
0.0
 30
0.0
  0
XRECORD
  5
146
102
{ACAD_REACTORS
330
134
102
}
330
134
100
AcDbXrecord
 10
0.0
 20
0.0
 30
0.0
  0
XRECORD
  5
149
102
{ACAD_REACTORS
330
134
102
}
330
134
100
AcDbXrecord
 10
0.0
 20
0.0
 30
0.0
  0
XRECORD
  5
147
102
{ACAD_REACTORS
330
134
102
}
330
134
100
AcDbXrecord
 10
0.0
 20
0.0
 30
0.0
  0
XRECORD
  5
148
102
{ACAD_REACTORS
330
134
102
}
330
134
100
AcDbXrecord
 10
0.0
 20
0.0
 30
0.0
  0
XRECORD
  5
145
102
{ACAD_REACTORS
330
134
102
}
330
134
100
AcDbXrecord
 10
0.0
 20
0.0
 30
0.0
  0
XRECORD
  5
142
102
{ACAD_REACTORS
330
134
102
}
330
134
100
AcDbXrecord
340
0
  0
XRECORD
  5
143
102
{ACAD_REACTORS
330
134
102
}
330
134
100
AcDbXrecord
 70
     0
  0
XRECORD
  5
138
102
{ACAD_REACTORS
330
134
102
}
330
134
100
AcDbXrecord
  1

  0
XRECORD
  5
135
102
{ACAD_REACTORS
330
134
102
}
330
134
100
AcDbXrecord
 90
        1
  0
XRECORD
  5
136
102
{ACAD_REACTORS
330
134
102
}
330
134
100
AcDbXrecord
 90
       70
  0
XRECORD
  5
14D
102
{ACAD_REACTORS
330
134
102
}
330
134
100
AcDbXrecord
340
0
  0
XRECORD
  5
153
102
{ACAD_REACTORS
330
134
102
}
330
134
100
AcDbXrecord
 10
0.0
 20
0.0
 30
0.0
  0
XRECORD
  5
14F
102
{ACAD_REACTORS
330
134
102
}
330
134
100
AcDbXrecord
 10
0.0
 20
0.0
 30
0.0
  0
XRECORD
  5
152
102
{ACAD_REACTORS
330
134
102
}
330
134
100
AcDbXrecord
 10
0.0
 20
0.0
 30
0.0
  0
XRECORD
  5
150
102
{ACAD_REACTORS
330
134
102
}
330
134
100
AcDbXrecord
 10
0.0
 20
0.0
 30
0.0
  0
XRECORD
  5
151
102
{ACAD_REACTORS
330
134
102
}
330
134
100
AcDbXrecord
 10
0.0
 20
0.0
 30
0.0
  0
XRECORD
  5
14E
102
{ACAD_REACTORS
330
134
102
}
330
134
100
AcDbXrecord
 10
0.0
 20
0.0
 30
0.0
  0
XRECORD
  5
14B
102
{ACAD_REACTORS
330
134
102
}
330
134
100
AcDbXrecord
340
0
  0
XRECORD
  5
14C
102
{ACAD_REACTORS
330
134
102
}
330
134
100
AcDbXrecord
 70
     0
  0
XRECORD
  5
140
102
{ACAD_REACTORS
330
134
102
}
330
134
100
AcDbXrecord
  1
{152C0314-45EA-46DE-A7DE-1E9702711979}
  0
ENDSEC
  0
EOF
