  0
SECTION
  2
HEADER
  9
$ACADVER
  1
AC1009
  9
$INSBASE
 10
0.0
 20
0.0
 30
0.0
  9
$EXTMIN
 10
4.41125
 20
3.9475
 30
0.0
  9
$EXTMAX
 10
16.15125
 20
16.5625
 30
0.0
  9
$LIMMIN
 10
0.0
 20
0.0
  9
$LIMMAX
 10
12.0
 20
9.0
  9
$ORTHOMODE
 70
     1
  9
$REGENMODE
 70
     1
  9
$FILLMODE
 70
     1
  9
$QTEXTMODE
 70
     0
  9
$MIRRTEXT
 70
     1
  9
$DRAGMODE
 70
     2
  9
$LTSCALE
 40
1.0
  9
$OSMODE
 70
     0
  9
$ATTMODE
 70
     1
  9
$TEXTSIZE
 40
0.125
  9
$TRACEWID
 40
0.05
  9
$TEXTSTYLE
  7
STANDARD
  9
$CLAYER
  8
DAMAN
  9
$CELTYPE
  6
BYLAYER
  9
$CECOLOR
 62
   256
  9
$DIMSCALE
 40
1.0
  9
$DIMASZ
 40
0.18
  9
$DIMEXO
 40
0.0625
  9
$DIMDLI
 40
0.38
  9
$DIMRND
 40
0.0
  9
$DIMDLE
 40
0.0
  9
$DIMEXE
 40
0.18
  9
$DIMTP
 40
0.0
  9
$DIMTM
 40
0.0
  9
$DIMTXT
 40
0.18
  9
$DIMCEN
 40
0.09
  9
$DIMTSZ
 40
0.0
  9
$DIMTOL
 70
     0
  9
$DIMLIM
 70
     0
  9
$DIMTIH
 70
     1
  9
$DIMTOH
 70
     1
  9
$DIMSE1
 70
     0
  9
$DIMSE2
 70
     0
  9
$DIMTAD
 70
     0
  9
$DIMZIN
 70
     0
  9
$DIMBLK
  1

  9
$DIMASO
 70
     1
  9
$DIMSHO
 70
     1
  9
$DIMPOST
  1

  9
$DIMAPOST
  1

  9
$DIMALT
 70
     0
  9
$DIMALTD
 70
     2
  9
$DIMALTF
 40
25.4
  9
$DIMLFAC
 40
1.0
  9
$DIMTOFL
 70
     0
  9
$DIMTVP
 40
0.0
  9
$DIMTIX
 70
     0
  9
$DIMSOXD
 70
     0
  9
$DIMSAH
 70
     0
  9
$DIMBLK1
  1

  9
$DIMBLK2
  1

  9
$DIMSTYLE
  2
*UNNAMED
  9
$DIMCLRD
 70
     0
  9
$DIMCLRE
 70
     0
  9
$DIMCLRT
 70
     0
  9
$DIMTFAC
 40
1.0
  9
$DIMGAP
 40
0.09
  9
$LUNITS
 70
     2
  9
$LUPREC
 70
     4
  9
$SKETCHINC
 40
0.1
  9
$FILLETRAD
 40
0.0
  9
$AUNITS
 70
     0
  9
$AUPREC
 70
     0
  9
$MENU
  1
tom
  9
$ELEVATION
 40
0.0
  9
$PELEVATION
 40
0.0
  9
$THICKNESS
 40
0.0
  9
$LIMCHECK
 70
     0
  9
$BLIPMODE
 70
     1
  9
$CHAMFERA
 40
0.0
  9
$CHAMFERB
 40
0.0
  9
$SKPOLY
 70
     0
  9
$TDCREATE
 40
2449741.219422708
  9
$TDUPDATE
 40
2449741.219422708
  9
$TDINDWG
 40
0.0000000000
  9
$TDUSRTIMER
 40
0.0000000000
  9
$USRTIMER
 70
     1
  9
$ANGBASE
 50
0.0
  9
$ANGDIR
 70
     0
  9
$PDMODE
 70
     0
  9
$PDSIZE
 40
0.0
  9
$PLINEWID
 40
0.0
  9
$COORDS
 70
     1
  9
$SPLFRAME
 70
     0
  9
$SPLINETYPE
 70
     6
  9
$SPLINESEGS
 70
     8
  9
$ATTDIA
 70
     0
  9
$ATTREQ
 70
     1
  9
$HANDLING
 70
     0
  9
$HANDSEED
  5
0
  9
$SURFTAB1
 70
     6
  9
$SURFTAB2
 70
     6
  9
$SURFTYPE
 70
     6
  9
$SURFU
 70
     6
  9
$SURFV
 70
     6
  9
$UCSNAME
  2

  9
$UCSORG
 10
0.0
 20
0.0
 30
0.0
  9
$UCSXDIR
 10
1.0
 20
0.0
 30
0.0
  9
$UCSYDIR
 10
0.0
 20
1.0
 30
0.0
  9
$PUCSNAME
  2

  9
$PUCSORG
 10
0.0
 20
0.0
 30
0.0
  9
$PUCSXDIR
 10
1.0
 20
0.0
 30
0.0
  9
$PUCSYDIR
 10
0.0
 20
1.0
 30
0.0
  9
$USERI1
 70
     0
  9
$USERI2
 70
     0
  9
$USERI3
 70
     0
  9
$USERI4
 70
     0
  9
$USERI5
 70
     0
  9
$USERR1
 40
0.0
  9
$USERR2
 40
0.0
  9
$USERR3
 40
0.0
  9
$USERR4
 40
0.0
  9
$USERR5
 40
0.0
  9
$WORLDVIEW
 70
     1
  9
$SHADEDGE
 70
     3
  9
$SHADEDIF
 70
    70
  9
$TILEMODE
 70
     1
  9
$MAXACTVP
 70
    16
  9
$PINSBASE
 10
0.0
 20
0.0
 30
0.0
  9
$PLIMCHECK
 70
     0
  9
$PEXTMIN
 10
1.000000E+20
 20
1.000000E+20
 30
1.000000E+20
  9
$PEXTMAX
 10
-1.000000E+20
 20
-1.000000E+20
 30
-1.000000E+20
  9
$PLIMMIN
 10
0.0
 20
0.0
  9
$PLIMMAX
 10
12.0
 20
9.0
  9
$UNITMODE
 70
     0
  9
$VISRETAIN
 70
     0
  9
$PLINEGEN
 70
     0
  9
$PSLTSCALE
 70
     1
  9
$TREEDEPTH
 70
  3020
  9
$DWGCODEPAGE
  3
ascii
  0
ENDSEC
  0
SECTION
  2
TABLES
  0
TABLE
  2
VPORT
 70
     2
  0
VPORT
  2
*ACTIVE
 70
     0
 10
0.0
 20
0.0
 11
1.0
 21
1.0
 12
10.375
 22
10.25
 13
0.0
 23
0.0
 14
0.03125
 24
0.03125
 15
0.0
 25
0.0
 16
0.0
 26
0.0
 36
1.0
 17
0.0
 27
0.0
 37
0.0
 40
16.5625
 41
1.365662
 42
50.0
 43
0.0
 44
0.0
 50
0.0
 51
0.0
 71
     0
 72
   100
 73
     1
 74
     1
 75
     1
 76
     0
 77
     0
 78
     0
  0
ENDTAB
  0
TABLE
  2
LTYPE
 70
     4
  0
LTYPE
  2
CONTINUOUS
 70
    64
  3
Solid line
 72
    65
 73
     0
 40
0.0
  0
LTYPE
  2
HIDDEN
 70
    64
  3
_ _ _ _ _ _ _ _ _ _ _ _ _ _ _ _ _ _ _ _ _ _ _
 72
    65
 73
     2
 40
0.375
 49
0.25
 49
-0.125
  0
LTYPE
  2
CENTER
 70
    64
  3
____ _ ____ _ ____ _ ____ _ ____ _ ____ _ ____
 72
    65
 73
     4
 40
2.0
 49
1.25
 49
-0.25
 49
0.25
 49
-0.25
  0
LTYPE
  2
PHANTOM
 70
    64
  3
_____ _ _ _____ _ _ _____ _ _ _____ _ _ ____
 72
    65
 73
     6
 40
2.5
 49
1.25
 49
-0.25
 49
0.25
 49
-0.25
 49
0.25
 49
-0.25
  0
ENDTAB
  0
TABLE
  2
LAYER
 70
     9
  0
LAYER
  2
0
 70
     0
 62
     7
  6
CONTINUOUS
  0
LAYER
  2
DAMAN
 70
     0
 62
     5
  6
CONTINUOUS
  0
LAYER
  2
BORDER
 70
    64
 62
     7
  6
CONTINUOUS
  0
LAYER
  2
CSOLID
 70
    64
 62
     3
  6
CONTINUOUS
  0
LAYER
  2
CHIDDEN
 70
    64
 62
     3
  6
HIDDEN
  0
LAYER
  2
CDIM
 70
    64
 62
     2
  6
CONTINUOUS
  0
LAYER
  2
DIM
 70
    64
 62
     5
  6
CONTINUOUS
  0
LAYER
  2
CCENTER
 70
    64
 62
     4
  6
CENTER
  0
LAYER
  2
PHANTOM
 70
     0
 62
     1
  6
PHANTOM
  0
ENDTAB
  0
TABLE
  2
STYLE
 70
     2
  0
STYLE
  2
STANDARD
 70
    64
 40
0.0
 41
1.0
 50
0.0
 71
     0
 42
0.125
  3
txt
  4

  0
STYLE
  2
STR
 70
    64
 40
0.0
 41
1.0
 50
0.0
 71
     0
 42
0.25
  3
SIMPLEX
  4

  0
ENDTAB
  0
TABLE
  2
VIEW
 70
     0
  0
ENDTAB
  0
TABLE
  2
UCS
 70
     0
  0
ENDTAB
  0
TABLE
  2
APPID
 70
     1
  0
APPID
  2
ACAD
 70
    64
  0
ENDTAB
  0
TABLE
  2
DIMSTYLE
 70
     0
  0
ENDTAB
  0
ENDSEC
  0
SECTION
  2
BLOCKS
  0
BLOCK
  8
0
  2
D05SPS
 70
    64
 10
0.0
 20
0.0
 30
0.0
  3
D05SPS
  0
POLYLINE
  8
BORDER
 66
     1
 10
0.0
 20
0.0
 30
0.0
 70
     1
  0
VERTEX
  8
BORDER
 10
3.0
 20
7.25
 30
0.0
  0
VERTEX
  8
BORDER
 10
3.0
 20
11.25
 30
0.0
  0
VERTEX
  8
BORDER
 10
4.25
 20
11.25
 30
0.0
  0
VERTEX
  8
BORDER
 10
4.25
 20
7.25
 30
0.0
  0
SEQEND
  8
BORDER
  0
POLYLINE
  8
BORDER
 66
     1
 10
0.0
 20
0.0
 30
0.0
 70
     1
  0
VERTEX
  8
BORDER
 10
13.375
 20
7.25
 30
0.0
  0
VERTEX
  8
BORDER
 10
13.375
 20
11.25
 30
0.0
  0
VERTEX
  8
BORDER
 10
14.625
 20
11.25
 30
0.0
  0
VERTEX
  8
BORDER
 10
14.625
 20
7.25
 30
0.0
  0
SEQEND
  8
BORDER
  0
POLYLINE
  8
BORDER
 66
     1
 10
0.0
 20
0.0
 30
0.0
 70
     1
  0
VERTEX
  8
BORDER
 10
7.25
 20
7.25
 30
0.0
  0
VERTEX
  8
BORDER
 10
7.25
 20
11.25
 30
0.0
  0
VERTEX
  8
BORDER
 10
10.375
 20
11.25
 30
0.0
  0
VERTEX
  8
BORDER
 10
10.375
 20
7.25
 30
0.0
  0
SEQEND
  8
BORDER
  0
POLYLINE
  8
BORDER
 66
     1
 10
0.0
 20
0.0
 30
0.0
 70
     1
  0
VERTEX
  8
BORDER
 10
7.25
 20
3.0
 30
0.0
  0
VERTEX
  8
BORDER
 10
7.25
 20
4.25
 30
0.0
  0
VERTEX
  8
BORDER
 10
10.375
 20
4.25
 30
0.0
  0
VERTEX
  8
BORDER
 10
10.375
 20
3.0
 30
0.0
  0
SEQEND
  8
BORDER
  0
POLYLINE
  8
BORDER
 66
     1
 10
0.0
 20
0.0
 30
0.0
 70
     1
  0
VERTEX
  8
BORDER
 10
7.25
 20
14.25
 30
0.0
  0
VERTEX
  8
BORDER
 10
7.25
 20
15.5
 30
0.0
  0
VERTEX
  8
BORDER
 10
10.375
 20
15.5
 30
0.0
  0
VERTEX
  8
BORDER
 10
10.375
 20
14.25
 30
0.0
  0
SEQEND
  8
BORDER
  0
INSERT
  8
CCENTER
  2
100CROSS
 10
9.5
 20
9.25025
 30
0.0
 41
0.438
 42
0.438
 43
0.0
  0
CIRCLE
  8
CSOLID
 10
9.5
 20
9.25025
 30
0.0
 40
0.21875
  0
CIRCLE
  8
CSOLID
 10
8.906
 20
8.844
 30
0.0
 40
0.21875
  0
INSERT
  8
CCENTER
  2
100CROSS
 10
8.906
 20
8.844
 30
0.0
 41
0.438
 42
0.438
 43
0.0
  0
INSERT
  8
CCENTER
  2
100CROSS
 10
8.906
 20
9.6565
 30
0.0
 41
0.438
 42
0.438
 43
0.0
  0
CIRCLE
  8
CSOLID
 10
8.906
 20
9.6565
 30
0.0
 40
0.21875
  0
CIRCLE
  8
CSOLID
 10
8.4685
 20
10.1875
 30
0.0
 40
0.21875
  0
INSERT
  8
CCENTER
  2
100CROSS
 10
8.4685
 20
10.1875
 30
0.0
 41
0.438
 42
0.438
 43
0.0
  0
INSERT
  8
CCENTER
  2
100CROSS
 10
9.75
 20
8.1875
 30
0.0
 41
0.25
 42
0.25
 43
0.0
  0
CIRCLE
  8
CSOLID
 10
9.75
 20
8.1875
 30
0.0
 40
0.1055
  0
INSERT
  8
CCENTER
  2
100CROSS
 10
9.75
 20
10.3125
 30
0.0
 41
0.25
 42
0.25
 43
0.0
  0
CIRCLE
  8
CSOLID
 10
9.75
 20
10.3125
 30
0.0
 40
0.1055
  0
INSERT
  8
CCENTER
  2
100CROSS
 10
7.9375
 20
8.1875
 30
0.0
 41
0.25
 42
0.25
 43
0.0
  0
CIRCLE
  8
CSOLID
 10
7.9375
 20
8.1875
 30
0.0
 40
0.1055
  0
CIRCLE
  8
CSOLID
 10
7.9375
 20
10.3125
 30
0.0
 40
0.1055
  0
INSERT
  8
CCENTER
  2
100CROSS
 10
7.9375
 20
10.3125
 30
0.0
 41
0.25
 42
0.25
 43
0.0
  0
CIRCLE
  8
CHIDDEN
 10
7.9375
 20
8.1875
 30
0.0
 40
0.125
  0
CIRCLE
  8
CHIDDEN
 10
7.9375
 20
10.3125
 30
0.0
 40
0.125
  0
CIRCLE
  8
CHIDDEN
 10
9.75
 20
8.1875
 30
0.0
 40
0.125
  0
CIRCLE
  8
CHIDDEN
 10
9.75
 20
10.3125
 30
0.0
 40
0.125
  0
INSERT
  8
CCENTER
  2
100CROSS
 10
10.0
 20
10.875
 30
0.0
 41
0.625
 42
0.625
 43
0.625
  0
INSERT
  8
CCENTER
  2
100CROSS
 10
7.625
 20
7.625
 30
0.0
 41
0.625
 42
0.625
 43
0.625
  0
CIRCLE
  8
CSOLID
 10
7.625
 20
7.625
 30
0.0
 40
0.3125
  0
CIRCLE
  8
CSOLID
 10
7.625
 20
7.625
 30
0.0
 40
0.203125
  0
CIRCLE
  8
CSOLID
 10
10.0
 20
10.875
 30
0.0
 40
0.3125
  0
CIRCLE
  8
CSOLID
 10
10.0
 20
10.875
 30
0.0
 40
0.203125
  0
INSERT
  8
CSOLID
  2
038NPTFT
 10
8.875
 20
3.625
 30
0.0
  0
INSERT
  8
CSOLID
  2
038NPTFT
 10
14.0
 20
9.25
 30
0.0
  0
INSERT
  8
CSOLID
  2
038NPTFT
 10
8.625
 20
14.875
 30
0.0
  0
CIRCLE
  8
CSOLID
 10
3.625
 20
9.46875
 30
0.0
 40
0.28125
  0
CIRCLE
  8
CSOLID
 10
3.625
 20
9.46875
 30
0.0
 40
0.344
  0
CIRCLE
  8
CSOLID
 10
3.625
 20
9.46875
 30
0.0
 40
0.594
  0
INSERT
  8
CCENTER
  2
100CROSS
 10
3.625
 20
9.46875
 30
0.0
 41
1.1
 42
1.1
 43
0.0
  0
CIRCLE
  8
CHIDDEN
 10
3.625
 20
9.46875
 30
0.0
 40
0.375
  0
TEXT
  8
CDIM
 10
7.9375
 20
14.71875
 30
0.0
 40
0.25
  1
T
 50
180.0
  7
STR
  0
TEXT
  8
CDIM
 10
3.84375
 20
8.78125
 30
0.0
 40
0.25
  1
A
 50
270.0
  7
STR
  0
TEXT
  8
CDIM
 10
9.625
 20
3.875
 30
0.0
 40
0.25
  1
B
  7
STR
  0
TEXT
  8
CDIM
 10
13.78125
 20
9.9375
 30
0.0
 40
0.25
  1
P
 50
90.0
  7
STR
  0
LINE
  8
CDIM
 10
3.0
 20
11.349194
 30
0.0
 11
3.0
 21
11.948388
 31
0.0
  0
LINE
  8
CDIM
 10
3.625
 20
10.036694
 30
0.0
 11
3.625
 21
11.948388
 31
0.0
  0
LINE
  8
CDIM
 10
3.823388
 20
11.75
 30
0.0
 11
4.021775
 21
11.75
 31
0.0
  0
LINE
  8
CDIM
 10
2.801613
 20
11.75
 30
0.0
 11
2.603225
 21
11.75
 31
0.0
  0
SOLID
  8
CDIM
 10
3.823388
 20
11.716935
 30
0.0
 11
3.823388
 21
11.783065
 31
0.0
 12
3.625
 22
11.75
 32
0.0
 13
3.625
 23
11.75
 33
0.0
  0
SOLID
  8
CDIM
 10
2.801613
 20
11.716935
 30
0.0
 11
2.801613
 21
11.783065
 31
0.0
 12
3.0
 22
11.75
 32
0.0
 13
3.0
 23
11.75
 33
0.0
  0
TEXT
  8
CDIM
 10
4.220163
 20
11.638903
 30
0.0
 40
0.222194
  1
0.63
  7
STR
  0
LINE
  8
CDIM
 10
3.0
 20
11.349194
 30
0.0
 11
3.0
 21
12.54355
 31
0.0
  0
LINE
  8
CDIM
 10
4.25
 20
11.349194
 30
0.0
 11
4.25
 21
11.53125
 31
0.0
  0
LINE
  8
CDIM
 10
4.448388
 20
12.345163
 30
0.0
 11
4.646775
 21
12.345163
 31
0.0
  0
LINE
  8
CDIM
 10
2.801613
 20
12.345163
 30
0.0
 11
2.603225
 21
12.345163
 31
0.0
  0
SOLID
  8
CDIM
 10
4.448388
 20
12.312098
 30
0.0
 11
4.448388
 21
12.378227
 31
0.0
 12
4.25
 22
12.345163
 32
0.0
 13
4.25
 23
12.345163
 33
0.0
  0
SOLID
  8
CDIM
 10
2.801613
 20
12.312098
 30
0.0
 11
2.801613
 21
12.378227
 31
0.0
 12
3.0
 22
12.345163
 32
0.0
 13
3.0
 23
12.345163
 33
0.0
  0
TEXT
  8
CDIM
 10
3.282663
 20
12.234066
 30
0.0
 40
0.222194
  1
1.25
  7
STR
  0
LINE
  8
CDIM
 10
7.150806
 20
11.25
 30
0.0
 11
6.489113
 21
11.25
 31
0.0
  0
LINE
  8
CDIM
 10
9.400806
 20
9.25025
 30
0.0
 11
6.489113
 21
9.25025
 31
0.0
  0
LINE
  8
CDIM
 10
6.6875
 20
11.051613
 30
0.0
 11
6.6875
 21
10.559609
 31
0.0
  0
LINE
  8
CDIM
 10
6.6875
 20
9.448637
 30
0.0
 11
6.6875
 21
9.94064
 31
0.0
  0
SOLID
  8
CDIM
 10
6.720565
 20
11.051613
 30
0.0
 11
6.654435
 21
11.051613
 31
0.0
 12
6.6875
 22
11.25
 32
0.0
 13
6.6875
 23
11.25
 33
0.0
  0
SOLID
  8
CDIM
 10
6.720565
 20
9.448637
 30
0.0
 11
6.654435
 21
9.448637
 31
0.0
 12
6.6875
 22
9.25025
 32
0.0
 13
6.6875
 23
9.25025
 33
0.0
  0
TEXT
  8
CDIM
 10
6.348919
 20
10.139028
 30
0.0
 40
0.222194
  1
2.00
  7
STR
  0
LINE
  8
CDIM
 10
7.150806
 20
11.25
 30
0.0
 11
5.89395
 21
11.25
 31
0.0
  0
LINE
  8
CDIM
 10
7.150806
 20
7.25
 30
0.0
 11
5.89395
 21
7.25
 31
0.0
  0
LINE
  8
CDIM
 10
6.092338
 20
11.051613
 30
0.0
 11
6.092338
 21
9.090735
 31
0.0
  0
LINE
  8
CDIM
 10
6.092338
 20
7.448388
 30
0.0
 11
6.092338
 21
8.471766
 31
0.0
  0
SOLID
  8
CDIM
 10
6.125402
 20
11.051613
 30
0.0
 11
6.059273
 21
11.051613
 31
0.0
 12
6.092338
 22
11.25
 32
0.0
 13
6.092338
 23
11.25
 33
0.0
  0
SOLID
  8
CDIM
 10
6.125402
 20
7.448388
 30
0.0
 11
6.059273
 21
7.448388
 31
0.0
 12
6.092338
 22
7.25
 32
0.0
 13
6.092338
 23
7.25
 33
0.0
  0
TEXT
  8
CDIM
 10
5.753756
 20
8.670153
 30
0.0
 40
0.222194
  1
4.00
  7
STR
  0
LINE
  8
CDIM
 10
4.349194
 20
11.25
 30
0.0
 11
5.010888
 21
11.25
 31
0.0
  0
LINE
  8
CDIM
 10
4.099194
 20
9.46875
 30
0.0
 11
5.010888
 21
9.46875
 31
0.0
  0
LINE
  8
CDIM
 10
4.8125
 20
11.051613
 30
0.0
 11
4.8125
 21
10.66886
 31
0.0
  0
LINE
  8
CDIM
 10
4.8125
 20
9.667138
 30
0.0
 11
4.8125
 21
10.049891
 31
0.0
  0
SOLID
  8
CDIM
 10
4.845565
 20
11.051613
 30
0.0
 11
4.779435
 21
11.051613
 31
0.0
 12
4.8125
 22
11.25
 32
0.0
 13
4.8125
 23
11.25
 33
0.0
  0
SOLID
  8
CDIM
 10
4.845565
 20
9.667138
 30
0.0
 11
4.779435
 21
9.667138
 31
0.0
 12
4.8125
 22
9.46875
 32
0.0
 13
4.8125
 23
9.46875
 33
0.0
  0
TEXT
  8
CDIM
 10
4.49508
 20
10.248278
 30
0.0
 40
0.222194
  1
1.78
  7
STR
  0
LINE
  8
CDIM
 10
7.25
 20
11.349194
 30
0.0
 11
7.25
 21
11.948388
 31
0.0
  0
LINE
  8
CDIM
 10
9.5
 20
9.349444
 30
0.0
 11
9.5
 21
11.948388
 31
0.0
  0
LINE
  8
CDIM
 10
7.448388
 20
11.75
 30
0.0
 11
7.838031
 21
11.75
 31
0.0
  0
LINE
  8
CDIM
 10
9.301612
 20
11.75
 30
0.0
 11
8.911969
 21
11.75
 31
0.0
  0
SOLID
  8
CDIM
 10
7.448388
 20
11.716935
 30
0.0
 11
7.448388
 21
11.783065
 31
0.0
 12
7.25
 22
11.75
 32
0.0
 13
7.25
 23
11.75
 33
0.0
  0
SOLID
  8
CDIM
 10
9.301612
 20
11.716935
 30
0.0
 11
9.301612
 21
11.783065
 31
0.0
 12
9.5
 22
11.75
 32
0.0
 13
9.5
 23
11.75
 33
0.0
  0
TEXT
  8
CDIM
 10
8.036419
 20
11.638903
 30
0.0
 40
0.222194
  1
2.25
  7
STR
  0
LINE
  8
CDIM
 10
7.25
 20
11.349194
 30
0.0
 11
7.25
 21
12.54355
 31
0.0
  0
LINE
  8
CDIM
 10
10.375
 20
11.349194
 30
0.0
 11
10.375
 21
12.54355
 31
0.0
  0
LINE
  8
CDIM
 10
7.448388
 20
12.345163
 30
0.0
 11
8.296693
 21
12.345163
 31
0.0
  0
LINE
  8
CDIM
 10
10.176613
 20
12.345163
 30
0.0
 11
9.328307
 21
12.345163
 31
0.0
  0
SOLID
  8
CDIM
 10
7.448388
 20
12.312098
 30
0.0
 11
7.448388
 21
12.378227
 31
0.0
 12
7.25
 22
12.345163
 32
0.0
 13
7.25
 23
12.345163
 33
0.0
  0
SOLID
  8
CDIM
 10
10.176613
 20
12.312098
 30
0.0
 11
10.176613
 21
12.378227
 31
0.0
 12
10.375
 22
12.345163
 32
0.0
 13
10.375
 23
12.345163
 33
0.0
  0
TEXT
  8
CDIM
 10
8.49508
 20
12.234066
 30
0.0
 40
0.222194
  1
3.13
  7
STR
  0
LINE
  8
CDIM
 10
7.25
 20
7.150806
 30
0.0
 11
7.25
 21
6.551613
 31
0.0
  0
LINE
  8
CDIM
 10
7.625
 20
7.525806
 30
0.0
 11
7.625
 21
6.551613
 31
0.0
  0
LINE
  8
CDIM
 10
7.823388
 20
6.75
 30
0.0
 11
8.021775
 21
6.75
 31
0.0
  0
LINE
  8
CDIM
 10
7.051613
 20
6.75
 30
0.0
 11
6.853225
 21
6.75
 31
0.0
  0
SOLID
  8
CDIM
 10
7.823388
 20
6.716935
 30
0.0
 11
7.823388
 21
6.783065
 31
0.0
 12
7.625
 22
6.75
 32
0.0
 13
7.625
 23
6.75
 33
0.0
  0
SOLID
  8
CDIM
 10
7.051613
 20
6.716935
 30
0.0
 11
7.051613
 21
6.783065
 31
0.0
 12
7.25
 22
6.75
 32
0.0
 13
7.25
 23
6.75
 33
0.0
  0
TEXT
  8
CDIM
 10
8.220163
 20
6.638903
 30
0.0
 40
0.222194
  1
0.37
  7
STR
  0
LINE
  8
CDIM
 10
7.25
 20
7.150806
 30
0.0
 11
7.25
 21
5.95645
 31
0.0
  0
LINE
  8
CDIM
 10
10.0
 20
10.775806
 30
0.0
 11
10.0
 21
5.95645
 31
0.0
  0
LINE
  8
CDIM
 10
7.448388
 20
6.154838
 30
0.0
 11
8.088031
 21
6.154838
 31
0.0
  0
LINE
  8
CDIM
 10
9.801612
 20
6.154838
 30
0.0
 11
9.161969
 21
6.154838
 31
0.0
  0
SOLID
  8
CDIM
 10
7.448388
 20
6.121773
 30
0.0
 11
7.448388
 21
6.187902
 31
0.0
 12
7.25
 22
6.154838
 32
0.0
 13
7.25
 23
6.154838
 33
0.0
  0
SOLID
  8
CDIM
 10
9.801612
 20
6.121773
 30
0.0
 11
9.801612
 21
6.187902
 31
0.0
 12
10.0
 22
6.154838
 32
0.0
 13
10.0
 23
6.154838
 33
0.0
  0
TEXT
  8
CDIM
 10
8.286419
 20
6.043741
 30
0.0
 40
0.222194
  1
2.75
  7
STR
  0
LINE
  8
CDIM
 10
10.474194
 20
11.25
 30
0.0
 11
11.073388
 21
11.25
 31
0.0
  0
LINE
  8
CDIM
 10
10.099194
 20
10.875
 30
0.0
 11
11.073388
 21
10.875
 31
0.0
  0
LINE
  8
CDIM
 10
10.875
 20
10.676613
 30
0.0
 11
10.875
 21
10.478225
 31
0.0
  0
LINE
  8
CDIM
 10
10.875
 20
11.448388
 30
0.0
 11
10.875
 21
11.646775
 31
0.0
  0
SOLID
  8
CDIM
 10
10.908065
 20
10.676613
 30
0.0
 11
10.841935
 21
10.676613
 31
0.0
 12
10.875
 22
10.875
 32
0.0
 13
10.875
 23
10.875
 33
0.0
  0
SOLID
  8
CDIM
 10
10.908065
 20
11.448388
 30
0.0
 11
10.841935
 21
11.448388
 31
0.0
 12
10.875
 22
11.25
 32
0.0
 13
10.875
 23
11.25
 33
0.0
  0
TEXT
  8
CDIM
 10
10.551062
 20
10.179628
 30
0.0
 40
0.222194
  1
0.37
  7
STR
  0
LINE
  8
CDIM
 10
10.474194
 20
11.25
 30
0.0
 11
11.66855
 21
11.25
 31
0.0
  0
LINE
  8
CDIM
 10
7.724194
 20
7.625
 30
0.0
 11
11.66855
 21
7.625
 31
0.0
  0
LINE
  8
CDIM
 10
11.470163
 20
11.051613
 30
0.0
 11
11.470163
 21
9.746985
 31
0.0
  0
LINE
  8
CDIM
 10
11.470163
 20
7.823388
 30
0.0
 11
11.470163
 21
9.128016
 31
0.0
  0
SOLID
  8
CDIM
 10
11.503227
 20
11.051613
 30
0.0
 11
11.437098
 21
11.051613
 31
0.0
 12
11.470163
 22
11.25
 32
0.0
 13
11.470163
 23
11.25
 33
0.0
  0
SOLID
  8
CDIM
 10
11.503227
 20
7.823388
 30
0.0
 11
11.437098
 21
7.823388
 31
0.0
 12
11.470163
 22
7.625
 32
0.0
 13
11.470163
 23
7.625
 33
0.0
  0
TEXT
  8
CDIM
 10
11.131581
 20
9.326403
 30
0.0
 40
0.222194
  1
3.62
  7
STR
  0
LINE
  8
CDIM
 10
13.275806
 20
11.25
 30
0.0
 11
12.645363
 21
11.25
 31
0.0
  0
LINE
  8
CDIM
 10
13.588306
 20
9.25
 30
0.0
 11
12.645363
 21
9.25
 31
0.0
  0
LINE
  8
CDIM
 10
12.84375
 20
11.051613
 30
0.0
 11
12.84375
 21
10.559484
 31
0.0
  0
LINE
  8
CDIM
 10
12.84375
 20
9.448387
 30
0.0
 11
12.84375
 21
9.940515
 31
0.0
  0
SOLID
  8
CDIM
 10
12.876815
 20
11.051613
 30
0.0
 11
12.810685
 21
11.051613
 31
0.0
 12
12.84375
 22
11.25
 32
0.0
 13
12.84375
 23
11.25
 33
0.0
  0
SOLID
  8
CDIM
 10
12.876815
 20
9.448387
 30
0.0
 11
12.810685
 21
9.448387
 31
0.0
 12
12.84375
 22
9.25
 32
0.0
 13
12.84375
 23
9.25
 33
0.0
  0
TEXT
  8
CDIM
 10
12.505169
 20
10.138903
 30
0.0
 40
0.222194
  1
2.00
  7
STR
  0
LINE
  8
CDIM
 10
14.625
 20
11.349194
 30
0.0
 11
14.625
 21
11.948388
 31
0.0
  0
LINE
  8
CDIM
 10
14.0
 20
9.693194
 30
0.0
 11
14.0
 21
11.948388
 31
0.0
  0
LINE
  8
CDIM
 10
13.801612
 20
11.75
 30
0.0
 11
13.603225
 21
11.75
 31
0.0
  0
LINE
  8
CDIM
 10
14.823388
 20
11.75
 30
0.0
 11
15.021775
 21
11.75
 31
0.0
  0
SOLID
  8
CDIM
 10
13.801612
 20
11.716935
 30
0.0
 11
13.801612
 21
11.783065
 31
0.0
 12
14.0
 22
11.75
 32
0.0
 13
14.0
 23
11.75
 33
0.0
  0
SOLID
  8
CDIM
 10
14.823388
 20
11.716935
 30
0.0
 11
14.823388
 21
11.783065
 31
0.0
 12
14.625
 22
11.75
 32
0.0
 13
14.625
 23
11.75
 33
0.0
  0
TEXT
  8
CDIM
 10
12.727675
 20
11.638903
 30
0.0
 40
0.222194
  1
0.63
  7
STR
  0
LINE
  8
CDIM
 10
7.25
 20
4.349194
 30
0.0
 11
7.25
 21
4.979638
 31
0.0
  0
LINE
  8
CDIM
 10
8.875
 20
4.036694
 30
0.0
 11
8.875
 21
4.979638
 31
0.0
  0
LINE
  8
CDIM
 10
7.448388
 20
4.78125
 30
0.0
 11
7.546692
 21
4.78125
 31
0.0
  0
LINE
  8
CDIM
 10
8.676612
 20
4.78125
 30
0.0
 11
8.578307
 21
4.78125
 31
0.0
  0
SOLID
  8
CDIM
 10
7.448388
 20
4.748185
 30
0.0
 11
7.448388
 21
4.814315
 31
0.0
 12
7.25
 22
4.78125
 32
0.0
 13
7.25
 23
4.78125
 33
0.0
  0
SOLID
  8
CDIM
 10
8.676612
 20
4.748185
 30
0.0
 11
8.676612
 21
4.814315
 31
0.0
 12
8.875
 22
4.78125
 32
0.0
 13
8.875
 23
4.78125
 33
0.0
  0
TEXT
  8
CDIM
 10
7.74508
 20
4.670153
 30
0.0
 40
0.222194
  1
1.62
  7
STR
  0
LINE
  8
CDIM
 10
7.150806
 20
3.0
 30
0.0
 11
6.489113
 21
3.0
 31
0.0
  0
LINE
  8
CDIM
 10
8.463306
 20
3.625
 30
0.0
 11
6.489113
 21
3.625
 31
0.0
  0
LINE
  8
CDIM
 10
6.6875
 20
3.823387
 30
0.0
 11
6.6875
 21
4.021775
 31
0.0
  0
LINE
  8
CDIM
 10
6.6875
 20
2.801613
 30
0.0
 11
6.6875
 21
2.603225
 31
0.0
  0
SOLID
  8
CDIM
 10
6.720565
 20
3.823387
 30
0.0
 11
6.654435
 21
3.823387
 31
0.0
 12
6.6875
 22
3.625
 32
0.0
 13
6.6875
 23
3.625
 33
0.0
  0
SOLID
  8
CDIM
 10
6.720565
 20
2.801613
 30
0.0
 11
6.654435
 21
2.801613
 31
0.0
 12
6.6875
 22
3.0
 32
0.0
 13
6.6875
 23
3.0
 33
0.0
  0
TEXT
  8
CDIM
 10
6.365525
 20
3.191928
 30
0.0
 40
0.222194
  1
0.62
  7
STR
  0
LINE
  8
CDIM
 10
7.150806
 20
15.5
 30
0.0
 11
6.489113
 21
15.5
 31
0.0
  0
LINE
  8
CDIM
 10
8.181806
 20
14.875
 30
0.0
 11
6.489113
 21
14.875
 31
0.0
  0
LINE
  8
CDIM
 10
6.6875
 20
14.676612
 30
0.0
 11
6.6875
 21
14.478225
 31
0.0
  0
LINE
  8
CDIM
 10
6.6875
 20
15.698388
 30
0.0
 11
6.6875
 21
15.896775
 31
0.0
  0
SOLID
  8
CDIM
 10
6.720565
 20
14.676612
 30
0.0
 11
6.654435
 21
14.676612
 31
0.0
 12
6.6875
 22
14.875
 32
0.0
 13
6.6875
 23
14.875
 33
0.0
  0
SOLID
  8
CDIM
 10
6.720565
 20
15.698388
 30
0.0
 11
6.654435
 21
15.698388
 31
0.0
 12
6.6875
 22
15.5
 32
0.0
 13
6.6875
 23
15.5
 33
0.0
  0
TEXT
  8
CDIM
 10
6.332312
 20
15.054628
 30
0.0
 40
0.222194
  1
0.63
  7
STR
  0
LINE
  8
CDIM
 10
7.25
 20
14.150806
 30
0.0
 11
7.25
 21
13.551613
 31
0.0
  0
LINE
  8
CDIM
 10
8.625
 20
14.400806
 30
0.0
 11
8.625
 21
13.551613
 31
0.0
  0
LINE
  8
CDIM
 10
8.823388
 20
13.75
 30
0.0
 11
9.021775
 21
13.75
 31
0.0
  0
LINE
  8
CDIM
 10
7.051613
 20
13.75
 30
0.0
 11
6.853225
 21
13.75
 31
0.0
  0
SOLID
  8
CDIM
 10
8.823388
 20
13.716935
 30
0.0
 11
8.823388
 21
13.783065
 31
0.0
 12
8.625
 22
13.75
 32
0.0
 13
8.625
 23
13.75
 33
0.0
  0
SOLID
  8
CDIM
 10
7.051613
 20
13.716935
 30
0.0
 11
7.051613
 21
13.783065
 31
0.0
 12
7.25
 22
13.75
 32
0.0
 13
7.25
 23
13.75
 33
0.0
  0
TEXT
  8
CDIM
 10
7.626413
 20
13.638903
 30
0.0
 40
0.222194
  1
1.37
  7
STR
  0
LINE
  8
CDIM
 10
4.25
 20
12.0
 30
0.0
 11
4.25
 21
12.54355
 31
0.0
  0
ENDBLK
  8
0
  0
BLOCK
  8
CSOLID
  2
100CROSS
 70
    64
 10
5.625
 20
4.59375
 30
0.0
  0
INSERT
  8
0
  2
050CROSS
 10
5.625
 20
4.59375
 30
0.0
 43
0.0
  0
ENDBLK
  8
0
  0
BLOCK
  8
0
  2
050CROSS
 70
    64
 10
5.0
 20
5.0
 30
0.0
  0
LINE
  8
0
 10
5.0
 20
5.28125
 30
0.0
 11
5.0
 21
5.78125
 31
0.0
  0
LINE
  8
0
 10
5.0
 20
4.875
 30
0.0
 11
5.0
 21
5.125
 31
0.0
  0
LINE
  8
0
 10
5.0
 20
4.15625
 30
0.0
 11
5.0
 21
4.71875
 31
0.0
  0
LINE
  8
0
 10
5.25
 20
5.0
 30
0.0
 11
5.8125
 21
5.0
 31
0.0
  0
LINE
  8
0
 10
4.90625
 20
5.0
 30
0.0
 11
5.09375
 21
5.0
 31
0.0
  0
LINE
  8
0
 10
4.1875
 20
5.0
 30
0.0
 11
4.75
 21
5.0
 31
0.0
  0
ENDBLK
  8
0
  0
BLOCK
  8
0
  2
038NPTFT
 70
    64
 10
0.0
 20
0.0
 30
0.0
  3
038NPTFT
  0
INSERT
  8
DAMAN
  2
375NPTFT
 10
0.0
 20
0.0
 30
0.0
  0
ENDBLK
  8
0
  0
BLOCK
  8
0
  2
050NPTFT
 70
    64
 10
0.0
 20
0.0
 30
0.0
  3
050NPTFT
  0
INSERT
  8
DAMAN
  2
500NPTFT
 10
0.0
 20
0.0
 30
0.0
  0
ENDBLK
  8
0
  0
BLOCK
  8
0
  2
500NPTFT
 70
    64
 10
0.0
 20
0.0
 30
0.0
  3
500NPTFT
  0
INSERT
  8
DAMAN
 62
     5
  2
100CROSS
 10
0.0
 20
0.0
 30
0.0
 41
0.84
 42
0.84
 43
0.0
  0
CIRCLE
  8
DAMAN
 62
     5
 10
0.0
 20
0.0
 30
0.0
 40
0.384627
  0
CIRCLE
  8
DAMAN
 62
     5
 10
0.0
 20
0.0
 30
0.0
 40
0.344
  0
CIRCLE
  8
DAMAN
 62
     5
 10
0.0
 20
0.0
 30
0.0
 40
0.4295
  0
ENDBLK
  8
0
  0
BLOCK
  8
0
  2
375NPTFT
 70
    64
 10
0.0
 20
0.0
 30
0.0
  3
375NPTFT
  0
INSERT
  8
DAMAN
  2
100CROSS
 10
0.0
 20
0.0
 30
0.0
 41
0.68
 42
0.68
 43
0.0
  0
CIRCLE
  8
DAMAN
 10
0.0
 20
0.0
 30
0.0
 40
0.3125
  0
CIRCLE
  8
DAMAN
 10
0.0
 20
0.0
 30
0.0
 40
0.281
  0
CIRCLE
  8
DAMAN
 10
0.0
 20
0.0
 30
0.0
 40
0.344
  0
ENDBLK
  8
0
  0
ENDSEC
  0
SECTION
  2
ENTITIES
  0
POLYLINE
  8
DAMAN
 66
     1
 10
0.0
 20
0.0
 30
0.0
 70
     1
  0
VERTEX
  8
DAMAN
 10
4.46875
 20
8.28125
 30
0.0
  0
VERTEX
  8
DAMAN
 10
4.46875
 20
12.28125
 30
0.0
  0
VERTEX
  8
DAMAN
 10
5.71875
 20
12.28125
 30
0.0
  0
VERTEX
  8
DAMAN
 10
5.71875
 20
8.28125
 30
0.0
  0
SEQEND
  8
DAMAN
  0
POLYLINE
  8
DAMAN
 66
     1
 10
0.0
 20
0.0
 30
0.0
 70
     1
  0
VERTEX
  8
DAMAN
 10
14.84375
 20
8.28125
 30
0.0
  0
VERTEX
  8
DAMAN
 10
14.84375
 20
12.28125
 30
0.0
  0
VERTEX
  8
DAMAN
 10
16.09375
 20
12.28125
 30
0.0
  0
VERTEX
  8
DAMAN
 10
16.09375
 20
8.28125
 30
0.0
  0
SEQEND
  8
DAMAN
  0
POLYLINE
  8
DAMAN
 66
     1
 10
0.0
 20
0.0
 30
0.0
 70
     1
  0
VERTEX
  8
DAMAN
 10
8.71875
 20
8.28125
 30
0.0
  0
VERTEX
  8
DAMAN
 10
8.71875
 20
12.28125
 30
0.0
  0
VERTEX
  8
DAMAN
 10
11.84375
 20
12.28125
 30
0.0
  0
VERTEX
  8
DAMAN
 10
11.84375
 20
8.28125
 30
0.0
  0
SEQEND
  8
DAMAN
  0
POLYLINE
  8
DAMAN
 66
     1
 10
0.0
 20
0.0
 30
0.0
 70
     1
  0
VERTEX
  8
DAMAN
 10
8.71875
 20
4.03125
 30
0.0
  0
VERTEX
  8
DAMAN
 10
8.71875
 20
5.28125
 30
0.0
  0
VERTEX
  8
DAMAN
 10
11.84375
 20
5.28125
 30
0.0
  0
VERTEX
  8
DAMAN
 10
11.84375
 20
4.03125
 30
0.0
  0
SEQEND
  8
DAMAN
  0
POLYLINE
  8
DAMAN
 66
     1
 10
0.0
 20
0.0
 30
0.0
 70
     1
  0
VERTEX
  8
DAMAN
 10
8.71875
 20
15.28125
 30
0.0
  0
VERTEX
  8
DAMAN
 10
8.71875
 20
16.53125
 30
0.0
  0
VERTEX
  8
DAMAN
 10
11.84375
 20
16.53125
 30
0.0
  0
VERTEX
  8
DAMAN
 10
11.84375
 20
15.28125
 30
0.0
  0
SEQEND
  8
DAMAN
  0
INSERT
  8
DAMAN
  2
100CROSS
 10
10.96875
 20
10.2815
 30
0.0
 41
0.438
 42
0.438
 43
0.0
  0
CIRCLE
  8
DAMAN
 10
10.96875
 20
10.2815
 30
0.0
 40
0.21875
  0
CIRCLE
  8
DAMAN
 10
10.37475
 20
9.87525
 30
0.0
 40
0.21875
  0
INSERT
  8
DAMAN
  2
100CROSS
 10
10.37475
 20
9.87525
 30
0.0
 41
0.438
 42
0.438
 43
0.0
  0
INSERT
  8
DAMAN
  2
100CROSS
 10
10.37475
 20
10.68775
 30
0.0
 41
0.438
 42
0.438
 43
0.0
  0
CIRCLE
  8
DAMAN
 10
10.37475
 20
10.68775
 30
0.0
 40
0.21875
  0
CIRCLE
  8
DAMAN
 10
9.93725
 20
11.21875
 30
0.0
 40
0.21875
  0
INSERT
  8
DAMAN
  2
100CROSS
 10
9.93725
 20
11.21875
 30
0.0
 41
0.438
 42
0.438
 43
0.0
  0
INSERT
  8
DAMAN
  2
100CROSS
 10
11.21875
 20
9.21875
 30
0.0
 41
0.25
 42
0.25
 43
0.0
  0
CIRCLE
  8
DAMAN
 10
11.21875
 20
9.21875
 30
0.0
 40
0.1055
  0
INSERT
  8
DAMAN
  2
100CROSS
 10
11.21875
 20
11.34375
 30
0.0
 41
0.25
 42
0.25
 43
0.0
  0
CIRCLE
  8
DAMAN
 10
11.21875
 20
11.34375
 30
0.0
 40
0.1055
  0
INSERT
  8
DAMAN
  2
100CROSS
 10
9.40625
 20
9.21875
 30
0.0
 41
0.25
 42
0.25
 43
0.0
  0
CIRCLE
  8
DAMAN
 10
9.40625
 20
9.21875
 30
0.0
 40
0.1055
  0
CIRCLE
  8
DAMAN
 10
9.40625
 20
11.34375
 30
0.0
 40
0.1055
  0
INSERT
  8
DAMAN
  2
100CROSS
 10
9.40625
 20
11.34375
 30
0.0
 41
0.25
 42
0.25
 43
0.0
  0
CIRCLE
  8
DAMAN
 10
9.40625
 20
9.21875
 30
0.0
 40
0.125
  0
CIRCLE
  8
DAMAN
 10
9.40625
 20
11.34375
 30
0.0
 40
0.125
  0
CIRCLE
  8
DAMAN
 10
11.21875
 20
9.21875
 30
0.0
 40
0.125
  0
CIRCLE
  8
DAMAN
 10
11.21875
 20
11.34375
 30
0.0
 40
0.125
  0
INSERT
  8
DAMAN
  2
100CROSS
 10
11.46875
 20
11.90625
 30
0.0
 41
0.625
 42
0.625
 43
0.625
  0
INSERT
  8
DAMAN
  2
100CROSS
 10
9.09375
 20
8.65625
 30
0.0
 41
0.625
 42
0.625
 43
0.625
  0
CIRCLE
  8
DAMAN
 10
9.09375
 20
8.65625
 30
0.0
 40
0.3125
  0
CIRCLE
  8
DAMAN
 10
9.09375
 20
8.65625
 30
0.0
 40
0.203125
  0
CIRCLE
  8
DAMAN
 10
11.46875
 20
11.90625
 30
0.0
 40
0.3125
  0
CIRCLE
  8
DAMAN
 10
11.46875
 20
11.90625
 30
0.0
 40
0.203125
  0
TEXT
  8
DAMAN
 10
9.40625
 20
15.75
 30
0.0
 40
0.25
  1
T
 50
180.0
  7
STR
  0
TEXT
  8
DAMAN
 10
5.3125
 20
9.8125
 30
0.0
 40
0.25
  1
A
 50
270.0
  7
STR
  0
TEXT
  8
DAMAN
 10
11.09375
 20
4.90625
 30
0.0
 40
0.25
  1
B
  7
STR
  0
TEXT
  8
DAMAN
 10
15.25
 20
10.96875
 30
0.0
 40
0.25
  1
P
 50
90.0
  7
STR
  0
TEXT
  8
DAMAN
 10
8.9375
 20
5.09375
 30
0.0
 40
0.125
  1
DAMAN ****
  0
INSERT
  8
DAMAN
  2
038NPTFT
 10
10.34375
 20
4.65625
 30
0.0
  0
INSERT
  8
DAMAN
  2
038NPTFT
 10
5.09375
 20
10.5
 30
0.0
  0
INSERT
  8
DAMAN
  2
038NPTFT
 10
10.09375
 20
15.90625
 30
0.0
  0
INSERT
  8
DAMAN
  2
038NPTFT
 10
15.46875
 20
10.28125
 30
0.0
  0
ENDSEC
  0
EOF
