  0
SECTION
  2
HEADER
  9
$ACADVER
  1
AC1009
  9
$INSBASE
 10
0.0
 20
0.0
 30
0.0
  9
$EXTMIN
 10
-1.25
 20
2.90625
 30
0.0
  9
$EXTMAX
 10
20.9875
 20
16.59375
 30
0.0
  9
$LIMMIN
 10
0.0
 20
0.0
  9
$LIMMAX
 10
12.0
 20
9.0
  9
$ORTHOMODE
 70
     1
  9
$REGENMODE
 70
     1
  9
$FILLMODE
 70
     1
  9
$QTEXTMODE
 70
     0
  9
$MIRRTEXT
 70
     1
  9
$DRAGMODE
 70
     2
  9
$LTSCALE
 40
1.0
  9
$OSMODE
 70
     0
  9
$ATTMODE
 70
     1
  9
$TEXTSIZE
 40
0.188
  9
$TRACEWID
 40
0.05
  9
$TEXTSTYLE
  7
STANDARD
  9
$CLAYER
  8
DAMAN
  9
$CELTYPE
  6
BYLAYER
  9
$CECOLOR
 62
   256
  9
$DIMSCALE
 40
1.0
  9
$DIMASZ
 40
0.18
  9
$DIMEXO
 40
0.0625
  9
$DIMDLI
 40
0.38
  9
$DIMRND
 40
0.0
  9
$DIMDLE
 40
0.0
  9
$DIMEXE
 40
0.18
  9
$DIMTP
 40
0.0
  9
$DIMTM
 40
0.0
  9
$DIMTXT
 40
0.18
  9
$DIMCEN
 40
0.09
  9
$DIMTSZ
 40
0.0
  9
$DIMTOL
 70
     0
  9
$DIMLIM
 70
     0
  9
$DIMTIH
 70
     1
  9
$DIMTOH
 70
     1
  9
$DIMSE1
 70
     0
  9
$DIMSE2
 70
     0
  9
$DIMTAD
 70
     0
  9
$DIMZIN
 70
     0
  9
$DIMBLK
  1

  9
$DIMASO
 70
     1
  9
$DIMSHO
 70
     1
  9
$DIMPOST
  1

  9
$DIMAPOST
  1

  9
$DIMALT
 70
     0
  9
$DIMALTD
 70
     2
  9
$DIMALTF
 40
25.4
  9
$DIMLFAC
 40
1.0
  9
$DIMTOFL
 70
     0
  9
$DIMTVP
 40
0.0
  9
$DIMTIX
 70
     0
  9
$DIMSOXD
 70
     0
  9
$DIMSAH
 70
     0
  9
$DIMBLK1
  1

  9
$DIMBLK2
  1

  9
$DIMSTYLE
  2
*UNNAMED
  9
$DIMCLRD
 70
     0
  9
$DIMCLRE
 70
     0
  9
$DIMCLRT
 70
     0
  9
$DIMTFAC
 40
1.0
  9
$DIMGAP
 40
0.09
  9
$LUNITS
 70
     2
  9
$LUPREC
 70
     4
  9
$SKETCHINC
 40
0.1
  9
$FILLETRAD
 40
0.0
  9
$AUNITS
 70
     0
  9
$AUPREC
 70
     0
  9
$MENU
  1
tom
  9
$ELEVATION
 40
0.0
  9
$PELEVATION
 40
0.0
  9
$THICKNESS
 40
0.0
  9
$LIMCHECK
 70
     0
  9
$BLIPMODE
 70
     1
  9
$CHAMFERA
 40
0.0
  9
$CHAMFERB
 40
0.0
  9
$SKPOLY
 70
     0
  9
$TDCREATE
 40
2449741.297552847
  9
$TDUPDATE
 40
2449741.297552847
  9
$TDINDWG
 40
0.0000000000
  9
$TDUSRTIMER
 40
0.0000000000
  9
$USRTIMER
 70
     1
  9
$ANGBASE
 50
0.0
  9
$ANGDIR
 70
     0
  9
$PDMODE
 70
     0
  9
$PDSIZE
 40
0.0
  9
$PLINEWID
 40
0.0
  9
$COORDS
 70
     1
  9
$SPLFRAME
 70
     0
  9
$SPLINETYPE
 70
     6
  9
$SPLINESEGS
 70
     8
  9
$ATTDIA
 70
     0
  9
$ATTREQ
 70
     1
  9
$HANDLING
 70
     0
  9
$HANDSEED
  5
0
  9
$SURFTAB1
 70
     6
  9
$SURFTAB2
 70
     6
  9
$SURFTYPE
 70
     6
  9
$SURFU
 70
     6
  9
$SURFV
 70
     6
  9
$UCSNAME
  2

  9
$UCSORG
 10
0.0
 20
0.0
 30
0.0
  9
$UCSXDIR
 10
1.0
 20
0.0
 30
0.0
  9
$UCSYDIR
 10
0.0
 20
1.0
 30
0.0
  9
$PUCSNAME
  2

  9
$PUCSORG
 10
0.0
 20
0.0
 30
0.0
  9
$PUCSXDIR
 10
1.0
 20
0.0
 30
0.0
  9
$PUCSYDIR
 10
0.0
 20
1.0
 30
0.0
  9
$USERI1
 70
     0
  9
$USERI2
 70
     0
  9
$USERI3
 70
     0
  9
$USERI4
 70
     0
  9
$USERI5
 70
     0
  9
$USERR1
 40
0.0
  9
$USERR2
 40
0.0
  9
$USERR3
 40
0.0
  9
$USERR4
 40
0.0
  9
$USERR5
 40
0.0
  9
$WORLDVIEW
 70
     1
  9
$SHADEDGE
 70
     3
  9
$SHADEDIF
 70
    70
  9
$TILEMODE
 70
     1
  9
$MAXACTVP
 70
    16
  9
$PINSBASE
 10
0.0
 20
0.0
 30
0.0
  9
$PLIMCHECK
 70
     0
  9
$PEXTMIN
 10
1.000000E+20
 20
1.000000E+20
 30
1.000000E+20
  9
$PEXTMAX
 10
-1.000000E+20
 20
-1.000000E+20
 30
-1.000000E+20
  9
$PLIMMIN
 10
0.0
 20
0.0
  9
$PLIMMAX
 10
12.0
 20
9.0
  9
$UNITMODE
 70
     0
  9
$VISRETAIN
 70
     0
  9
$PLINEGEN
 70
     0
  9
$PSLTSCALE
 70
     1
  9
$TREEDEPTH
 70
  3020
  9
$DWGCODEPAGE
  3
ascii
  0
ENDSEC
  0
SECTION
  2
TABLES
  0
TABLE
  2
VPORT
 70
     2
  0
VPORT
  2
*ACTIVE
 70
     0
 10
0.0
 20
0.0
 11
1.0
 21
1.0
 12
9.875
 22
9.53125
 13
0.0
 23
0.0
 14
0.03125
 24
0.03125
 15
0.0
 25
0.0
 16
0.0
 26
0.0
 36
1.0
 17
0.0
 27
0.0
 37
0.0
 40
16.59375
 41
1.365662
 42
50.0
 43
0.0
 44
0.0
 50
0.0
 51
0.0
 71
     0
 72
   100
 73
     1
 74
     1
 75
     1
 76
     0
 77
     0
 78
     0
  0
ENDTAB
  0
TABLE
  2
LTYPE
 70
     4
  0
LTYPE
  2
CONTINUOUS
 70
    64
  3
Solid line
 72
    65
 73
     0
 40
0.0
  0
LTYPE
  2
HIDDEN
 70
    64
  3
_ _ _ _ _ _ _ _ _ _ _ _ _ _ _ _ _ _ _ _ _ _ _
 72
    65
 73
     2
 40
0.375
 49
0.25
 49
-0.125
  0
LTYPE
  2
CENTER
 70
    64
  3
____ _ ____ _ ____ _ ____ _ ____ _ ____ _ ____
 72
    65
 73
     4
 40
2.0
 49
1.25
 49
-0.25
 49
0.25
 49
-0.25
  0
LTYPE
  2
PHANTOM
 70
    64
  3
_____ _ _ _____ _ _ _____ _ _ _____ _ _ ____
 72
    65
 73
     6
 40
2.5
 49
1.25
 49
-0.25
 49
0.25
 49
-0.25
 49
0.25
 49
-0.25
  0
ENDTAB
  0
TABLE
  2
LAYER
 70
    10
  0
LAYER
  2
0
 70
     0
 62
     7
  6
CONTINUOUS
  0
LAYER
  2
DAMAN
 70
     0
 62
     5
  6
CONTINUOUS
  0
LAYER
  2
BORDER
 70
    64
 62
     7
  6
CONTINUOUS
  0
LAYER
  2
CSOLID
 70
    64
 62
     3
  6
CONTINUOUS
  0
LAYER
  2
SOLID
 70
    64
 62
     4
  6
CONTINUOUS
  0
LAYER
  2
DIM
 70
    64
 62
     5
  6
CONTINUOUS
  0
LAYER
  2
CDIM
 70
    64
 62
     2
  6
CONTINUOUS
  0
LAYER
  2
CHIDDEN
 70
    64
 62
     3
  6
HIDDEN
  0
LAYER
  2
CCENTER
 70
    64
 62
     4
  6
CENTER
  0
LAYER
  2
PHANTOM
 70
     0
 62
     1
  6
PHANTOM
  0
ENDTAB
  0
TABLE
  2
STYLE
 70
     2
  0
STYLE
  2
STANDARD
 70
    64
 40
0.0
 41
1.0
 50
0.0
 71
     0
 42
0.188
  3
txt
  4

  0
STYLE
  2
STR
 70
    64
 40
0.0
 41
1.0
 50
0.0
 71
     0
 42
0.25
  3
SIMPLEX
  4

  0
ENDTAB
  0
TABLE
  2
VIEW
 70
     0
  0
ENDTAB
  0
TABLE
  2
UCS
 70
     0
  0
ENDTAB
  0
TABLE
  2
APPID
 70
     1
  0
APPID
  2
ACAD
 70
    64
  0
ENDTAB
  0
TABLE
  2
DIMSTYLE
 70
     0
  0
ENDTAB
  0
ENDSEC
  0
SECTION
  2
BLOCKS
  0
BLOCK
  8
0
  2
D05SPRV
 70
    64
 10
0.0
 20
0.0
 30
0.0
  3
D05SPRV
  0
INSERT
  8
CCENTER
  2
100CROSS
 10
3.625
 20
10.125
 30
0.0
 41
0.6
 42
0.6
 43
0.0
  0
CIRCLE
  8
CSOLID
 10
3.625
 20
10.125
 30
0.0
 40
0.203
  0
CIRCLE
  8
CSOLID
 10
3.625
 20
10.125
 30
0.0
 40
0.3125
  0
CIRCLE
  8
CSOLID
 10
6.5
 20
6.875
 30
0.0
 40
0.3125
  0
CIRCLE
  8
CSOLID
 10
6.5
 20
6.875
 30
0.0
 40
0.203
  0
INSERT
  8
CCENTER
  2
100CROSS
 10
6.5
 20
6.875
 30
0.0
 41
0.6
 42
0.6
 43
0.0
  0
INSERT
  8
SOLID
  2
050NPTFT
 10
5.3125
 20
2.6875
 30
0.0
 43
0.0
  0
INSERT
  8
CSOLID
  2
050NPTFT
 10
17.5625
 20
8.5
 30
0.0
 43
0.0
  0
INSERT
  8
CSOLID
  2
050NPTFT
 10
18.625
 20
9.4375
 30
0.0
 43
0.0
  0
INSERT
  8
CCENTER
  2
100CROSS
 10
19.25
 20
10.125
 30
0.0
 41
0.6
 42
0.6
 43
0.0
  0
CIRCLE
  8
CSOLID
 10
19.25
 20
10.125
 30
0.0
 40
0.203
  0
CIRCLE
  8
CSOLID
 10
16.375
 20
6.875
 30
0.0
 40
0.203
  0
INSERT
  8
CCENTER
  2
100CROSS
 10
16.375
 20
6.875
 30
0.0
 41
0.6
 42
0.6
 43
0.0
  0
INSERT
  8
SOLID
  2
SUNT10AT
 10
5.3125
 20
14.5
 30
0.0
  0
INSERT
  8
CCENTER
  2
100CROSS
 10
5.3125
 20
8.50025
 30
0.0
 41
0.438
 42
0.438
 43
0.0
  0
CIRCLE
  8
CSOLID
 10
5.3125
 20
8.50025
 30
0.0
 40
0.21875
  0
CIRCLE
  8
CSOLID
 10
4.7185
 20
8.094
 30
0.0
 40
0.21875
  0
INSERT
  8
CCENTER
  2
100CROSS
 10
4.7185
 20
8.094
 30
0.0
 41
0.438
 42
0.438
 43
0.0
  0
INSERT
  8
CCENTER
  2
100CROSS
 10
4.7185
 20
8.9065
 30
0.0
 41
0.438
 42
0.438
 43
0.0
  0
CIRCLE
  8
CSOLID
 10
4.7185
 20
8.9065
 30
0.0
 40
0.21875
  0
CIRCLE
  8
CSOLID
 10
4.281
 20
9.4375
 30
0.0
 40
0.21875
  0
INSERT
  8
CCENTER
  2
100CROSS
 10
4.281
 20
9.4375
 30
0.0
 41
0.438
 42
0.438
 43
0.0
  0
INSERT
  8
CCENTER
  2
100CROSS
 10
5.5625
 20
7.4375
 30
0.0
 41
0.25
 42
0.25
 43
0.0
  0
CIRCLE
  8
CSOLID
 10
5.5625
 20
7.4375
 30
0.0
 40
0.1055
  0
INSERT
  8
CCENTER
  2
100CROSS
 10
5.5625
 20
9.5625
 30
0.0
 41
0.25
 42
0.25
 43
0.0
  0
CIRCLE
  8
CSOLID
 10
5.5625
 20
9.5625
 30
0.0
 40
0.1055
  0
INSERT
  8
CCENTER
  2
100CROSS
 10
3.75
 20
7.4375
 30
0.0
 41
0.25
 42
0.25
 43
0.0
  0
CIRCLE
  8
CSOLID
 10
3.75
 20
7.4375
 30
0.0
 40
0.1055
  0
CIRCLE
  8
CSOLID
 10
3.75
 20
9.5625
 30
0.0
 40
0.1055
  0
INSERT
  8
CCENTER
  2
100CROSS
 10
3.75
 20
9.5625
 30
0.0
 41
0.25
 42
0.25
 43
0.0
  0
CIRCLE
  8
CHIDDEN
 10
3.75
 20
7.4375
 30
0.0
 40
0.125
  0
CIRCLE
  8
CHIDDEN
 10
3.75
 20
9.5625
 30
0.0
 40
0.125
  0
CIRCLE
  8
CHIDDEN
 10
5.5625
 20
7.4375
 30
0.0
 40
0.125
  0
CIRCLE
  8
CHIDDEN
 10
5.5625
 20
9.5625
 30
0.0
 40
0.125
  0
INSERT
  8
DIM
  2
050NPTFT
 10
4.0
 20
2.6875
 30
0.0
  0
TEXT
  8
CDIM
 10
3.46875
 20
3.25
 30
0.0
 40
0.25
  1
T
  7
STR
  0
TEXT
  8
CDIM
 10
5.6875
 20
3.28125
 30
0.0
 40
0.25
  1
P
  7
STR
  0
CIRCLE
  8
CSOLID
 10
10.9375
 20
9.0625
 30
0.0
 40
0.344
  0
CIRCLE
  8
CSOLID
 10
10.9375
 20
9.0625
 30
0.0
 40
0.3125
  0
ARC
  8
CSOLID
 10
10.9375
 20
9.0625
 30
0.0
 40
0.594
 50
288.742946
 51
251.257054
  0
INSERT
  8
CCENTER
  2
100CROSS
 10
10.9375
 20
9.0625
 30
0.0
 41
1.1
 42
1.1
 43
0.0
  0
CIRCLE
  8
CHIDDEN
 10
10.9375
 20
9.0625
 30
0.0
 40
0.375
  0
CIRCLE
  8
CSOLID
 10
10.9375
 20
7.9375
 30
0.0
 40
0.344
  0
CIRCLE
  8
CSOLID
 10
10.9375
 20
7.9375
 30
0.0
 40
0.3125
  0
ARC
  8
CSOLID
 10
10.9375
 20
7.9375
 30
0.0
 40
0.594
 50
108.742946
 51
71.257054
  0
INSERT
  8
CCENTER
  2
100CROSS
 10
10.9375
 20
7.9375
 30
0.0
 41
1.1
 42
1.1
 43
0.0
  0
CIRCLE
  8
CHIDDEN
 10
10.9375
 20
7.9375
 30
0.0
 40
0.375
  0
TEXT
  8
CDIM
 10
18.125
 20
9.90625
 30
0.0
 40
0.25
  1
T
  7
STR
  0
TEXT
  8
CDIM
 10
17.125
 20
8.96875
 30
0.0
 40
0.25
  1
P
  7
STR
  0
TEXT
  8
CDIM
 10
10.53125
 20
9.5625
 30
0.0
 40
0.25
  1
A
 50
90.0
  7
STR
  0
TEXT
  8
CDIM
 10
10.53125
 20
7.1875
 30
0.0
 40
0.25
  1
B
 50
90.0
  7
STR
  0
POLYLINE
  8
BORDER
 66
     1
 10
0.0
 20
0.0
 30
0.0
 70
     1
  0
VERTEX
  8
BORDER
 10
3.25
 20
15.4375
 30
0.0
  0
VERTEX
  8
BORDER
 10
6.875
 20
15.4375
 30
0.0
  0
VERTEX
  8
BORDER
 10
6.875
 20
12.9375
 30
0.0
  0
VERTEX
  8
BORDER
 10
3.25
 20
12.9375
 30
0.0
  0
SEQEND
  8
BORDER
  0
POLYLINE
  8
BORDER
 66
     1
 10
0.0
 20
0.0
 30
0.0
 70
     1
  0
VERTEX
  8
BORDER
 10
3.25
 20
10.5
 30
0.0
  0
VERTEX
  8
BORDER
 10
6.875
 20
10.5
 30
0.0
  0
VERTEX
  8
BORDER
 10
6.875
 20
6.5
 30
0.0
  0
VERTEX
  8
BORDER
 10
3.25
 20
6.5
 30
0.0
  0
SEQEND
  8
BORDER
  0
POLYLINE
  8
BORDER
 66
     1
 10
0.0
 20
0.0
 30
0.0
 70
     1
  0
VERTEX
  8
BORDER
 10
3.25
 20
4.25
 30
0.0
  0
VERTEX
  8
BORDER
 10
6.875
 20
4.25
 30
0.0
  0
VERTEX
  8
BORDER
 10
6.875
 20
1.75
 30
0.0
  0
VERTEX
  8
BORDER
 10
3.25
 20
1.75
 30
0.0
  0
SEQEND
  8
BORDER
  0
POLYLINE
  8
BORDER
 66
     1
 10
0.0
 20
0.0
 30
0.0
 70
     1
  0
VERTEX
  8
BORDER
 10
10.125
 20
10.5
 30
0.0
  0
VERTEX
  8
BORDER
 10
12.625
 20
10.5
 30
0.0
  0
VERTEX
  8
BORDER
 10
12.625
 20
6.5
 30
0.0
  0
VERTEX
  8
BORDER
 10
10.125
 20
6.5
 30
0.0
  0
SEQEND
  8
BORDER
  0
POLYLINE
  8
BORDER
 66
     1
 10
0.0
 20
0.0
 30
0.0
 70
     1
  0
VERTEX
  8
BORDER
 10
16.0
 20
10.5
 30
0.0
  0
VERTEX
  8
BORDER
 10
19.625
 20
10.5
 30
0.0
  0
VERTEX
  8
BORDER
 10
19.625
 20
6.5
 30
0.0
  0
VERTEX
  8
BORDER
 10
16.0
 20
6.5
 30
0.0
  0
SEQEND
  8
BORDER
  0
LINE
  8
CDIM
 10
3.25
 20
10.730213
 30
0.0
 11
3.25
 21
11.68084
 31
0.0
  0
LINE
  8
CDIM
 10
5.3125
 20
8.730463
 30
0.0
 11
5.3125
 21
11.68084
 31
0.0
  0
LINE
  8
CDIM
 10
5.754508
 20
11.3125
 30
0.0
 11
6.196516
 21
11.3125
 31
0.0
  0
LINE
  8
CDIM
 10
2.807992
 20
11.3125
 30
0.0
 11
2.365984
 21
11.3125
 31
0.0
  0
SOLID
  8
CDIM
 10
5.754508
 20
11.238832
 30
0.0
 11
5.754508
 21
11.386168
 31
0.0
 12
5.3125
 22
11.3125
 32
0.0
 13
5.3125
 23
11.3125
 33
0.0
  0
SOLID
  8
CDIM
 10
2.807992
 20
11.238832
 30
0.0
 11
2.807992
 21
11.386168
 31
0.0
 12
3.25
 22
11.3125
 32
0.0
 13
3.25
 23
11.3125
 33
0.0
  0
TEXT
  8
CDIM
 10
3.544774
 20
11.054662
 30
0.0
 40
0.515676
  1
2.06
  7
STR
  0
LINE
  8
CDIM
 10
3.25
 20
10.730213
 30
0.0
 11
3.25
 21
12.68878
 31
0.0
  0
LINE
  8
CDIM
 10
6.875
 20
10.730213
 30
0.0
 11
6.875
 21
12.68878
 31
0.0
  0
LINE
  8
CDIM
 10
3.692008
 20
12.32044
 30
0.0
 11
3.8347
 21
12.32044
 31
0.0
  0
LINE
  8
CDIM
 10
6.432992
 20
12.32044
 30
0.0
 11
6.2903
 21
12.32044
 31
0.0
  0
SOLID
  8
CDIM
 10
3.692008
 20
12.246772
 30
0.0
 11
3.692008
 21
12.394108
 31
0.0
 12
3.25
 22
12.32044
 32
0.0
 13
3.25
 23
12.32044
 33
0.0
  0
SOLID
  8
CDIM
 10
6.432992
 20
12.246772
 30
0.0
 11
6.432992
 21
12.394108
 31
0.0
 12
6.875
 22
12.32044
 32
0.0
 13
6.875
 23
12.32044
 33
0.0
  0
TEXT
  8
CDIM
 10
4.276708
 20
12.062602
 30
0.0
 40
0.515676
  1
3.62
  7
STR
  0
LINE
  8
CDIM
 10
7.105213
 20
10.5
 30
0.0
 11
8.18084
 21
10.5
 31
0.0
  0
LINE
  8
CDIM
 10
3.855213
 20
10.125
 30
0.0
 11
8.18084
 21
10.125
 31
0.0
  0
LINE
  8
CDIM
 10
7.8125
 20
9.682992
 30
0.0
 11
7.8125
 21
9.240984
 31
0.0
  0
LINE
  8
CDIM
 10
7.8125
 20
10.942008
 30
0.0
 11
7.8125
 21
11.384016
 31
0.0
  0
SOLID
  8
CDIM
 10
7.886168
 20
9.682992
 30
0.0
 11
7.738832
 21
9.682992
 31
0.0
 12
7.8125
 22
10.125
 32
0.0
 13
7.8125
 23
10.125
 33
0.0
  0
SOLID
  8
CDIM
 10
7.886168
 20
10.942008
 30
0.0
 11
7.738832
 21
10.942008
 31
0.0
 12
7.8125
 22
10.5
 32
0.0
 13
7.8125
 23
10.5
 33
0.0
  0
TEXT
  8
CDIM
 10
7.1069
 20
11.576896
 30
0.0
 40
0.515676
  1
0.37
  7
STR
  0
LINE
  8
CDIM
 10
7.105213
 20
10.5
 30
0.0
 11
9.06378
 21
10.5
 31
0.0
  0
LINE
  8
CDIM
 10
6.730213
 20
6.875
 30
0.0
 11
9.06378
 21
6.875
 31
0.0
  0
LINE
  8
CDIM
 10
8.69544
 20
10.057992
 30
0.0
 11
8.69544
 21
9.387346
 31
0.0
  0
LINE
  8
CDIM
 10
8.69544
 20
7.317008
 30
0.0
 11
8.69544
 21
7.987654
 31
0.0
  0
SOLID
  8
CDIM
 10
8.769108
 20
10.057992
 30
0.0
 11
8.621772
 21
10.057992
 31
0.0
 12
8.69544
 22
10.5
 32
0.0
 13
8.69544
 23
10.5
 33
0.0
  0
SOLID
  8
CDIM
 10
8.769108
 20
7.317008
 30
0.0
 11
8.621772
 21
7.317008
 31
0.0
 12
8.69544
 22
6.875
 32
0.0
 13
8.69544
 23
6.875
 33
0.0
  0
TEXT
  8
CDIM
 10
7.909648
 20
8.429662
 30
0.0
 40
0.515676
  1
3.63
  7
STR
  0
LINE
  8
CDIM
 10
3.019788
 20
10.5
 30
0.0
 11
1.94416
 21
10.5
 31
0.0
  0
LINE
  8
CDIM
 10
5.082288
 20
8.50025
 30
0.0
 11
1.94416
 21
8.50025
 31
0.0
  0
LINE
  8
CDIM
 10
2.3125
 20
8.058242
 30
0.0
 11
2.3125
 21
7.616234
 31
0.0
  0
LINE
  8
CDIM
 10
2.3125
 20
10.942008
 30
0.0
 11
2.3125
 21
11.384016
 31
0.0
  0
SOLID
  8
CDIM
 10
2.386168
 20
8.058242
 30
0.0
 11
2.238832
 21
8.058242
 31
0.0
 12
2.3125
 22
8.50025
 32
0.0
 13
2.3125
 23
8.50025
 33
0.0
  0
SOLID
  8
CDIM
 10
2.386168
 20
10.942008
 30
0.0
 11
2.238832
 21
10.942008
 31
0.0
 12
2.3125
 22
10.5
 32
0.0
 13
2.3125
 23
10.5
 33
0.0
  0
TEXT
  8
CDIM
 10
1.5444
 20
9.264646
 30
0.0
 40
0.515676
  1
2.00
  7
STR
  0
LINE
  8
CDIM
 10
3.019788
 20
10.5
 30
0.0
 11
0.65497
 21
10.5
 31
0.0
  0
LINE
  8
CDIM
 10
3.019788
 20
6.5
 30
0.0
 11
0.65497
 21
6.5
 31
0.0
  0
LINE
  8
CDIM
 10
1.02331
 20
10.057992
 30
0.0
 11
1.02331
 21
8.606096
 31
0.0
  0
LINE
  8
CDIM
 10
1.02331
 20
6.942008
 30
0.0
 11
1.02331
 21
7.206404
 31
0.0
  0
SOLID
  8
CDIM
 10
1.096978
 20
10.057992
 30
0.0
 11
0.949642
 21
10.057992
 31
0.0
 12
1.02331
 22
10.5
 32
0.0
 13
1.02331
 23
10.5
 33
0.0
  0
SOLID
  8
CDIM
 10
1.096978
 20
6.942008
 30
0.0
 11
0.949642
 21
6.942008
 31
0.0
 12
1.02331
 22
6.5
 32
0.0
 13
1.02331
 23
6.5
 33
0.0
  0
TEXT
  8
CDIM
 10
0.237518
 20
7.648412
 30
0.0
 40
0.515676
  1
4.00
  7
STR
  0
LINE
  8
CDIM
 10
3.019788
 20
1.75
 30
0.0
 11
1.94416
 21
1.75
 31
0.0
  0
LINE
  8
CDIM
 10
3.394788
 20
2.6875
 30
0.0
 11
1.94416
 21
2.6875
 31
0.0
  0
LINE
  8
CDIM
 10
2.3125
 20
3.129508
 30
0.0
 11
2.3125
 21
3.571516
 31
0.0
  0
LINE
  8
CDIM
 10
2.3125
 20
1.307992
 30
0.0
 11
2.3125
 21
0.865984
 31
0.0
  0
SOLID
  8
CDIM
 10
2.386168
 20
3.129508
 30
0.0
 11
2.238832
 21
3.129508
 31
0.0
 12
2.3125
 22
2.6875
 32
0.0
 13
2.3125
 23
2.6875
 33
0.0
  0
SOLID
  8
CDIM
 10
2.386168
 20
1.307992
 30
0.0
 11
2.238832
 21
1.307992
 31
0.0
 12
2.3125
 22
1.75
 32
0.0
 13
2.3125
 23
1.75
 33
0.0
  0
TEXT
  8
CDIM
 10
1.477766
 20
1.938678
 30
0.0
 40
0.515676
  1
0.94
  7
STR
  0
LINE
  8
CDIM
 10
3.25
 20
6.269788
 30
0.0
 11
3.25
 21
5.38166
 31
0.0
  0
LINE
  8
CDIM
 10
3.625
 20
9.894788
 30
0.0
 11
3.625
 21
5.38166
 31
0.0
  0
LINE
  8
CDIM
 10
4.067008
 20
5.75
 30
0.0
 11
4.509016
 21
5.75
 31
0.0
  0
LINE
  8
CDIM
 10
2.807992
 20
5.75
 30
0.0
 11
2.365984
 21
5.75
 31
0.0
  0
SOLID
  8
CDIM
 10
4.067008
 20
5.676332
 30
0.0
 11
4.067008
 21
5.823668
 31
0.0
 12
3.625
 22
5.75
 32
0.0
 13
3.625
 23
5.75
 33
0.0
  0
SOLID
  8
CDIM
 10
2.807992
 20
5.676332
 30
0.0
 11
2.807992
 21
5.823668
 31
0.0
 12
3.25
 22
5.75
 32
0.0
 13
3.25
 23
5.75
 33
0.0
  0
TEXT
  8
CDIM
 10
4.701024
 20
5.492162
 30
0.0
 40
0.515676
  1
0.38
  7
STR
  0
LINE
  8
CDIM
 10
3.25
 20
6.269788
 30
0.0
 11
3.25
 21
4.46747
 31
0.0
  0
LINE
  8
CDIM
 10
6.942008
 20
4.83581
 30
0.0
 11
7.384016
 21
4.83581
 31
0.0
  0
LINE
  8
CDIM
 10
2.807992
 20
4.83581
 30
0.0
 11
2.365984
 21
4.83581
 31
0.0
  0
SOLID
  8
CDIM
 10
6.942008
 20
4.762142
 30
0.0
 11
6.942008
 21
4.909478
 31
0.0
 12
6.5
 22
4.83581
 32
0.0
 13
6.5
 23
4.83581
 33
0.0
  0
SOLID
  8
CDIM
 10
2.807992
 20
4.762142
 30
0.0
 11
2.807992
 21
4.909478
 31
0.0
 12
3.25
 22
4.83581
 32
0.0
 13
3.25
 23
4.83581
 33
0.0
  0
TEXT
  8
CDIM
 10
4.044774
 20
4.577972
 30
0.0
 40
0.515676
  1
3.25
  7
STR
  0
LINE
  8
CDIM
 10
3.25
 20
1.519788
 30
0.0
 11
3.25
 21
0.63166
 31
0.0
  0
LINE
  8
CDIM
 10
4.0
 20
2.082288
 30
0.0
 11
4.0
 21
0.63166
 31
0.0
  0
LINE
  8
CDIM
 10
4.442008
 20
1.0
 30
0.0
 11
4.884016
 21
1.0
 31
0.0
  0
LINE
  8
CDIM
 10
2.807992
 20
1.0
 30
0.0
 11
2.365984
 21
1.0
 31
0.0
  0
SOLID
  8
CDIM
 10
4.442008
 20
0.926332
 30
0.0
 11
4.442008
 21
1.073668
 31
0.0
 12
4.0
 22
1.0
 32
0.0
 13
4.0
 23
1.0
 33
0.0
  0
SOLID
  8
CDIM
 10
2.807992
 20
0.926332
 30
0.0
 11
2.807992
 21
1.073668
 31
0.0
 12
3.25
 22
1.0
 32
0.0
 13
3.25
 23
1.0
 33
0.0
  0
TEXT
  8
CDIM
 10
5.232274
 20
0.742162
 30
0.0
 40
0.515676
  1
0.75
  7
STR
  0
LINE
  8
CDIM
 10
3.25
 20
1.519788
 30
0.0
 11
3.25
 21
-0.25
 31
0.0
  0
LINE
  8
CDIM
 10
5.3125
 20
2.082288
 30
0.0
 11
5.3125
 21
1.5
 31
0.0
  0
LINE
  8
CDIM
 10
5.754508
 20
0.02331
 30
0.0
 11
6.196516
 21
0.02331
 31
0.0
  0
LINE
  8
CDIM
 10
2.807992
 20
0.02331
 30
0.0
 11
2.365984
 21
0.02331
 31
0.0
  0
SOLID
  8
CDIM
 10
5.754508
 20
-0.050358
 30
0.0
 11
5.754508
 21
0.096978
 31
0.0
 12
5.3125
 22
0.02331
 32
0.0
 13
5.3125
 23
0.02331
 33
0.0
  0
SOLID
  8
CDIM
 10
2.807992
 20
-0.050358
 30
0.0
 11
2.807992
 21
0.096978
 31
0.0
 12
3.25
 22
0.02331
 32
0.0
 13
3.25
 23
0.02331
 33
0.0
  0
TEXT
  8
CDIM
 10
3.544774
 20
-0.234528
 30
0.0
 40
0.515676
  1
2.06
  7
STR
  0
LINE
  8
CDIM
 10
12.625
 20
10.730213
 30
0.0
 11
12.625
 21
11.68084
 31
0.0
  0
LINE
  8
CDIM
 10
10.9375
 20
9.667713
 30
0.0
 11
10.9375
 21
11.68084
 31
0.0
  0
LINE
  8
CDIM
 10
10.495492
 20
11.3125
 30
0.0
 11
10.053484
 21
11.3125
 31
0.0
  0
LINE
  8
CDIM
 10
13.067008
 20
11.3125
 30
0.0
 11
13.509016
 21
11.3125
 31
0.0
  0
SOLID
  8
CDIM
 10
10.495492
 20
11.238832
 30
0.0
 11
10.495492
 21
11.386168
 31
0.0
 12
10.9375
 22
11.3125
 32
0.0
 13
10.9375
 23
11.3125
 33
0.0
  0
SOLID
  8
CDIM
 10
13.067008
 20
11.238832
 30
0.0
 11
13.067008
 21
11.386168
 31
0.0
 12
12.625
 22
11.3125
 32
0.0
 13
12.625
 23
11.3125
 33
0.0
  0
TEXT
  8
CDIM
 10
11.068922
 20
11.054662
 30
0.0
 40
0.515676
  1
1.69
  7
STR
  0
LINE
  8
CDIM
 10
12.625
 20
10.730213
 30
0.0
 11
12.625
 21
12.72003
 31
0.0
  0
LINE
  8
CDIM
 10
10.125
 20
10.730213
 30
0.0
 11
10.125
 21
12.72003
 31
0.0
  0
LINE
  8
CDIM
 10
9.682992
 20
12.35169
 30
0.0
 11
9.240984
 21
12.35169
 31
0.0
  0
LINE
  8
CDIM
 10
13.067008
 20
12.35169
 30
0.0
 11
13.509016
 21
12.35169
 31
0.0
  0
SOLID
  8
CDIM
 10
9.682992
 20
12.278022
 30
0.0
 11
9.682992
 21
12.425358
 31
0.0
 12
10.125
 22
12.35169
 32
0.0
 13
10.125
 23
12.35169
 33
0.0
  0
SOLID
  8
CDIM
 10
13.067008
 20
12.278022
 30
0.0
 11
13.067008
 21
12.425358
 31
0.0
 12
12.625
 22
12.35169
 32
0.0
 13
12.625
 23
12.35169
 33
0.0
  0
TEXT
  8
CDIM
 10
10.571142
 20
12.093852
 30
0.0
 40
0.515676
  1
2.50
  7
STR
  0
LINE
  8
CDIM
 10
12.855213
 20
10.5
 30
0.0
 11
13.93084
 21
10.5
 31
0.0
  0
LINE
  8
CDIM
 10
11.480213
 20
9.0625
 30
0.0
 11
13.93084
 21
9.0625
 31
0.0
  0
LINE
  8
CDIM
 10
13.5625
 20
8.620492
 30
0.0
 11
13.5625
 21
8.178484
 31
0.0
  0
LINE
  8
CDIM
 10
13.5625
 20
10.942008
 30
0.0
 11
13.5625
 21
11.384016
 31
0.0
  0
SOLID
  8
CDIM
 10
13.636168
 20
8.620492
 30
0.0
 11
13.488832
 21
8.620492
 31
0.0
 12
13.5625
 22
9.0625
 32
0.0
 13
13.5625
 23
9.0625
 33
0.0
  0
SOLID
  8
CDIM
 10
13.636168
 20
10.942008
 30
0.0
 11
13.488832
 21
10.942008
 31
0.0
 12
13.5625
 22
10.5
 32
0.0
 13
13.5625
 23
10.5
 33
0.0
  0
TEXT
  8
CDIM
 10
12.836818
 20
9.670646
 30
0.0
 40
0.515676
  1
1.44
  7
STR
  0
LINE
  8
CDIM
 10
12.855213
 20
10.5
 30
0.0
 11
15.22003
 21
10.5
 31
0.0
  0
LINE
  8
CDIM
 10
11.480213
 20
7.9375
 30
0.0
 11
15.22003
 21
7.9375
 31
0.0
  0
LINE
  8
CDIM
 10
14.85169
 20
10.057992
 30
0.0
 11
14.85169
 21
9.918596
 31
0.0
  0
LINE
  8
CDIM
 10
14.85169
 20
8.379508
 30
0.0
 11
14.85169
 21
8.518904
 31
0.0
  0
SOLID
  8
CDIM
 10
14.925358
 20
10.057992
 30
0.0
 11
14.778022
 21
10.057992
 31
0.0
 12
14.85169
 22
10.5
 32
0.0
 13
14.85169
 23
10.5
 33
0.0
  0
SOLID
  8
CDIM
 10
14.925358
 20
8.379508
 30
0.0
 11
14.778022
 21
8.379508
 31
0.0
 12
14.85169
 22
7.9375
 32
0.0
 13
14.85169
 23
7.9375
 33
0.0
  0
TEXT
  8
CDIM
 10
14.140676
 20
8.960912
 30
0.0
 40
0.515676
  1
2.56
  7
STR
  0
LINE
  8
CDIM
 10
3.019788
 20
15.4375
 30
0.0
 11
1.94416
 21
15.4375
 31
0.0
  0
LINE
  8
CDIM
 10
4.652788
 20
14.5
 30
0.0
 11
1.94416
 21
14.5
 31
0.0
  0
LINE
  8
CDIM
 10
2.3125
 20
14.057992
 30
0.0
 11
2.3125
 21
13.615984
 31
0.0
  0
LINE
  8
CDIM
 10
2.3125
 20
15.879508
 30
0.0
 11
2.3125
 21
16.321516
 31
0.0
  0
SOLID
  8
CDIM
 10
2.386168
 20
14.057992
 30
0.0
 11
2.238832
 21
14.057992
 31
0.0
 12
2.3125
 22
14.5
 32
0.0
 13
2.3125
 23
14.5
 33
0.0
  0
SOLID
  8
CDIM
 10
2.386168
 20
15.879508
 30
0.0
 11
2.238832
 21
15.879508
 31
0.0
 12
2.3125
 22
15.4375
 32
0.0
 13
2.3125
 23
15.4375
 33
0.0
  0
TEXT
  8
CDIM
 10
1.426094
 20
14.733146
 30
0.0
 40
0.515676
  1
0.94
  7
STR
  0
LINE
  8
CDIM
 10
3.25
 20
15.667713
 30
0.0
 11
3.25
 21
16.58709
 31
0.0
  0
LINE
  8
CDIM
 10
5.3125
 20
15.097213
 30
0.0
 11
5.3125
 21
16.58709
 31
0.0
  0
LINE
  8
CDIM
 10
5.754508
 20
16.21875
 30
0.0
 11
6.196516
 21
16.21875
 31
0.0
  0
LINE
  8
CDIM
 10
2.807992
 20
16.21875
 30
0.0
 11
2.365984
 21
16.21875
 31
0.0
  0
SOLID
  8
CDIM
 10
5.754508
 20
16.145082
 30
0.0
 11
5.754508
 21
16.292418
 31
0.0
 12
5.3125
 22
16.21875
 32
0.0
 13
5.3125
 23
16.21875
 33
0.0
  0
SOLID
  8
CDIM
 10
2.807992
 20
16.145082
 30
0.0
 11
2.807992
 21
16.292418
 31
0.0
 12
3.25
 22
16.21875
 32
0.0
 13
3.25
 23
16.21875
 33
0.0
  0
TEXT
  8
CDIM
 10
3.544774
 20
15.960912
 30
0.0
 40
0.515676
  1
2.06
  7
STR
  0
SOLID
  8
CDIM
 10
6.104209
 20
14.605171
 30
0.0
 11
6.076291
 21
14.749838
 31
0.0
 12
5.65625
 22
14.59375
 32
0.0
 13
5.65625
 23
14.59375
 33
0.0
  0
LINE
  8
CDIM
 10
6.09025
 20
14.677504
 30
0.0
 11
7.4375
 21
14.9375
 31
0.0
  0
LINE
  8
CDIM
 10
7.4375
 20
14.9375
 30
0.0
 11
7.84375
 21
14.9375
 31
0.0
  0
TEXT
  8
CDIM
 10
8.285758
 20
14.679662
 30
0.0
 40
0.515676
  1
Relief valve cavity
  7
STR
  0
LINE
  8
CDIM
 10
19.625
 20
10.730213
 30
0.0
 11
19.625
 21
11.68084
 31
0.0
  0
LINE
  8
CDIM
 10
18.625
 20
10.105213
 30
0.0
 11
18.625
 21
11.68084
 31
0.0
  0
LINE
  8
CDIM
 10
18.182992
 20
11.3125
 30
0.0
 11
17.740984
 21
11.3125
 31
0.0
  0
LINE
  8
CDIM
 10
20.067008
 20
11.3125
 30
0.0
 11
20.509016
 21
11.3125
 31
0.0
  0
SOLID
  8
CDIM
 10
18.182992
 20
11.238832
 30
0.0
 11
18.182992
 21
11.386168
 31
0.0
 12
18.625
 22
11.3125
 32
0.0
 13
18.625
 23
11.3125
 33
0.0
  0
SOLID
  8
CDIM
 10
20.067008
 20
11.238832
 30
0.0
 11
20.067008
 21
11.386168
 31
0.0
 12
19.625
 22
11.3125
 32
0.0
 13
19.625
 23
11.3125
 33
0.0
  0
TEXT
  8
CDIM
 10
15.825616
 20
11.054662
 30
0.0
 40
0.515676
  1
1.00
  7
STR
  0
LINE
  8
CDIM
 10
19.625
 20
10.730213
 30
0.0
 11
19.625
 21
12.72003
 31
0.0
  0
LINE
  8
CDIM
 10
17.5625
 20
9.105213
 30
0.0
 11
17.5625
 21
12.72003
 31
0.0
  0
LINE
  8
CDIM
 10
17.120492
 20
12.35169
 30
0.0
 11
16.678484
 21
12.35169
 31
0.0
  0
LINE
  8
CDIM
 10
20.067008
 20
12.35169
 30
0.0
 11
20.509016
 21
12.35169
 31
0.0
  0
SOLID
  8
CDIM
 10
17.120492
 20
12.278022
 30
0.0
 11
17.120492
 21
12.425358
 31
0.0
 12
17.5625
 22
12.35169
 32
0.0
 13
17.5625
 23
12.35169
 33
0.0
  0
SOLID
  8
CDIM
 10
20.067008
 20
12.278022
 30
0.0
 11
20.067008
 21
12.425358
 31
0.0
 12
19.625
 22
12.35169
 32
0.0
 13
19.625
 23
12.35169
 33
0.0
  0
TEXT
  8
CDIM
 10
17.783198
 20
12.093852
 30
0.0
 40
0.515676
  1
2.06
  7
STR
  0
LINE
  8
CDIM
 10
19.855213
 20
10.5
 30
0.0
 11
20.93084
 21
10.5
 31
0.0
  0
LINE
  8
CDIM
 10
19.167713
 20
9.4375
 30
0.0
 11
20.93084
 21
9.4375
 31
0.0
  0
LINE
  8
CDIM
 10
20.5625
 20
8.995492
 30
0.0
 11
20.5625
 21
8.553484
 31
0.0
  0
LINE
  8
CDIM
 10
20.5625
 20
10.942008
 30
0.0
 11
20.5625
 21
11.384016
 31
0.0
  0
SOLID
  8
CDIM
 10
20.636168
 20
8.995492
 30
0.0
 11
20.488832
 21
8.995492
 31
0.0
 12
20.5625
 22
9.4375
 32
0.0
 13
20.5625
 23
9.4375
 33
0.0
  0
SOLID
  8
CDIM
 10
20.636168
 20
10.942008
 30
0.0
 11
20.488832
 21
10.942008
 31
0.0
 12
20.5625
 22
10.5
 32
0.0
 13
20.5625
 23
10.5
 33
0.0
  0
TEXT
  8
CDIM
 10
19.88593
 20
9.733146
 30
0.0
 40
0.515676
  1
1.06
  7
STR
  0
LINE
  8
CDIM
 10
19.855213
 20
10.5
 30
0.0
 11
22.22003
 21
10.5
 31
0.0
  0
LINE
  8
CDIM
 10
18.167713
 20
8.5
 30
0.0
 11
22.22003
 21
8.5
 31
0.0
  0
LINE
  8
CDIM
 10
21.85169
 20
8.057992
 30
0.0
 11
21.85169
 21
7.615984
 31
0.0
  0
LINE
  8
CDIM
 10
21.85169
 20
10.942008
 30
0.0
 11
21.85169
 21
11.384016
 31
0.0
  0
SOLID
  8
CDIM
 10
21.925358
 20
8.057992
 30
0.0
 11
21.778022
 21
8.057992
 31
0.0
 12
21.85169
 22
8.5
 32
0.0
 13
21.85169
 23
8.5
 33
0.0
  0
SOLID
  8
CDIM
 10
21.925358
 20
10.942008
 30
0.0
 11
21.778022
 21
10.942008
 31
0.0
 12
21.85169
 22
10.5
 32
0.0
 13
21.85169
 23
10.5
 33
0.0
  0
TEXT
  8
CDIM
 10
21.23984
 20
8.951896
 30
0.0
 40
0.515676
  1
2.00
  7
STR
  0
LINE
  8
CDIM
 10
5.3125
 20
0.5625
 30
0.0
 11
5.3125
 21
-0.25
 31
0.0
  0
LINE
  8
CDIM
 10
6.5
 20
6.59375
 30
0.0
 11
6.5
 21
4.46747
 31
0.0
  0
ENDBLK
  8
0
  0
BLOCK
  8
CSOLID
  2
100CROSS
 70
    64
 10
5.625
 20
4.59375
 30
0.0
  0
INSERT
  8
0
  2
050CROSS
 10
5.625
 20
4.59375
 30
0.0
 43
0.0
  0
ENDBLK
  8
0
  0
BLOCK
  8
0
  2
050CROSS
 70
    64
 10
5.0
 20
5.0
 30
0.0
  0
LINE
  8
0
 10
5.0
 20
5.28125
 30
0.0
 11
5.0
 21
5.78125
 31
0.0
  0
LINE
  8
0
 10
5.0
 20
4.875
 30
0.0
 11
5.0
 21
5.125
 31
0.0
  0
LINE
  8
0
 10
5.0
 20
4.15625
 30
0.0
 11
5.0
 21
4.71875
 31
0.0
  0
LINE
  8
0
 10
5.25
 20
5.0
 30
0.0
 11
5.8125
 21
5.0
 31
0.0
  0
LINE
  8
0
 10
4.90625
 20
5.0
 30
0.0
 11
5.09375
 21
5.0
 31
0.0
  0
LINE
  8
0
 10
4.1875
 20
5.0
 30
0.0
 11
4.75
 21
5.0
 31
0.0
  0
ENDBLK
  8
0
  0
BLOCK
  8
0
  2
050NPTFT
 70
    64
 10
0.0
 20
0.0
 30
0.0
  3
050NPTFT
  0
INSERT
  8
DAMAN
  2
500NPTFT
 10
0.0
 20
0.0
 30
0.0
  0
ENDBLK
  8
0
  0
BLOCK
  8
SOLID
  2
SUNT10AT
 70
    64
 10
12.34375
 20
18.5625
 30
0.0
  0
CIRCLE
  8
CHIDDEN
 10
12.34375
 20
18.5625
 30
0.0
 40
0.3935
  0
CIRCLE
  8
CSOLID
 10
12.34375
 20
18.5625
 30
0.0
 40
0.4295
  0
CIRCLE
  8
CSOLID
 10
12.34375
 20
18.5625
 30
0.0
 40
0.406
  0
CIRCLE
  8
CSOLID
 10
12.34375
 20
18.5625
 30
0.0
 40
0.367
  0
CIRCLE
  8
CSOLID
 10
12.34375
 20
18.5625
 30
0.0
 40
0.3435
  0
CIRCLE
  8
CSOLID
 10
12.34375
 20
18.5625
 30
0.0
 40
0.281
  0
INSERT
  8
CCENTER
  2
100CROSS
 10
12.34375
 20
18.5625
 30
0.0
 41
0.861
 42
0.861
 43
0.0
  0
ENDBLK
  8
SOLID
  0
BLOCK
  8
0
  2
500NPTFT
 70
    64
 10
0.0
 20
0.0
 30
0.0
  3
500NPTFT
  0
INSERT
  8
DAMAN
 62
     5
  2
100CROSS
 10
0.0
 20
0.0
 30
0.0
 41
0.84
 42
0.84
 43
0.0
  0
CIRCLE
  8
DAMAN
 62
     5
 10
0.0
 20
0.0
 30
0.0
 40
0.384627
  0
CIRCLE
  8
DAMAN
 62
     5
 10
0.0
 20
0.0
 30
0.0
 40
0.344
  0
CIRCLE
  8
DAMAN
 62
     5
 10
0.0
 20
0.0
 30
0.0
 40
0.4295
  0
ENDBLK
  8
0
  0
ENDSEC
  0
SECTION
  2
ENTITIES
  0
INSERT
  8
DAMAN
  2
100CROSS
 10
4.875
 20
11.28125
 30
0.0
 41
0.6
 42
0.6
 43
0.0
  0
CIRCLE
  8
DAMAN
 10
4.875
 20
11.28125
 30
0.0
 40
0.203
  0
CIRCLE
  8
DAMAN
 10
4.875
 20
11.28125
 30
0.0
 40
0.3125
  0
CIRCLE
  8
DAMAN
 10
7.75
 20
8.03125
 30
0.0
 40
0.3125
  0
CIRCLE
  8
DAMAN
 10
7.75
 20
8.03125
 30
0.0
 40
0.203
  0
INSERT
  8
DAMAN
  2
100CROSS
 10
7.75
 20
8.03125
 30
0.0
 41
0.6
 42
0.6
 43
0.0
  0
INSERT
  8
DAMAN
  2
050NPTFT
 10
6.5625
 20
4.84375
 30
0.0
 43
0.0
  0
INSERT
  8
DAMAN
  2
050NPTFT
 10
16.8125
 20
9.65625
 30
0.0
 43
0.0
  0
INSERT
  8
DAMAN
  2
050NPTFT
 10
17.875
 20
10.59375
 30
0.0
 43
0.0
  0
INSERT
  8
DAMAN
  2
100CROSS
 10
18.5
 20
11.28125
 30
0.0
 41
0.6
 42
0.6
 43
0.0
  0
CIRCLE
  8
DAMAN
 10
18.5
 20
11.28125
 30
0.0
 40
0.203
  0
CIRCLE
  8
DAMAN
 10
15.625
 20
8.03125
 30
0.0
 40
0.203
  0
INSERT
  8
DAMAN
  2
100CROSS
 10
15.625
 20
8.03125
 30
0.0
 41
0.6
 42
0.6
 43
0.0
  0
INSERT
  8
DAMAN
  2
100CROSS
 10
6.5625
 20
9.6565
 30
0.0
 41
0.438
 42
0.438
 43
0.0
  0
CIRCLE
  8
DAMAN
 10
6.5625
 20
9.6565
 30
0.0
 40
0.21875
  0
CIRCLE
  8
DAMAN
 10
5.9685
 20
9.25025
 30
0.0
 40
0.21875
  0
INSERT
  8
DAMAN
  2
100CROSS
 10
5.9685
 20
9.25025
 30
0.0
 41
0.438
 42
0.438
 43
0.0
  0
INSERT
  8
DAMAN
  2
100CROSS
 10
5.9685
 20
10.06275
 30
0.0
 41
0.438
 42
0.438
 43
0.0
  0
CIRCLE
  8
DAMAN
 10
5.9685
 20
10.06275
 30
0.0
 40
0.21875
  0
CIRCLE
  8
DAMAN
 10
5.531
 20
10.59375
 30
0.0
 40
0.21875
  0
INSERT
  8
DAMAN
  2
100CROSS
 10
5.531
 20
10.59375
 30
0.0
 41
0.438
 42
0.438
 43
0.0
  0
INSERT
  8
DAMAN
  2
100CROSS
 10
6.8125
 20
8.59375
 30
0.0
 41
0.25
 42
0.25
 43
0.0
  0
CIRCLE
  8
DAMAN
 10
6.8125
 20
8.59375
 30
0.0
 40
0.1055
  0
INSERT
  8
DAMAN
  2
100CROSS
 10
6.8125
 20
10.71875
 30
0.0
 41
0.25
 42
0.25
 43
0.0
  0
CIRCLE
  8
DAMAN
 10
6.8125
 20
10.71875
 30
0.0
 40
0.1055
  0
INSERT
  8
DAMAN
  2
100CROSS
 10
5.0
 20
8.59375
 30
0.0
 41
0.25
 42
0.25
 43
0.0
  0
CIRCLE
  8
DAMAN
 10
5.0
 20
8.59375
 30
0.0
 40
0.1055
  0
CIRCLE
  8
DAMAN
 10
5.0
 20
10.71875
 30
0.0
 40
0.1055
  0
INSERT
  8
DAMAN
  2
100CROSS
 10
5.0
 20
10.71875
 30
0.0
 41
0.25
 42
0.25
 43
0.0
  0
CIRCLE
  8
DAMAN
 10
5.0
 20
8.59375
 30
0.0
 40
0.125
  0
CIRCLE
  8
DAMAN
 10
5.0
 20
10.71875
 30
0.0
 40
0.125
  0
CIRCLE
  8
DAMAN
 10
6.8125
 20
8.59375
 30
0.0
 40
0.125
  0
CIRCLE
  8
DAMAN
 10
6.8125
 20
10.71875
 30
0.0
 40
0.125
  0
INSERT
  8
DAMAN
  2
050NPTFT
 10
5.25
 20
4.84375
 30
0.0
  0
TEXT
  8
DAMAN
 10
4.71875
 20
5.40625
 30
0.0
 40
0.25
  1
T
  7
STR
  0
TEXT
  8
DAMAN
 10
6.9375
 20
5.4375
 30
0.0
 40
0.25
  1
P
  7
STR
  0
CIRCLE
  8
DAMAN
 10
11.1875
 20
10.21875
 30
0.0
 40
0.344
  0
CIRCLE
  8
DAMAN
 10
11.1875
 20
10.21875
 30
0.0
 40
0.375
  0
CIRCLE
  8
DAMAN
 10
11.1875
 20
9.09375
 30
0.0
 40
0.344
  0
CIRCLE
  8
DAMAN
 10
11.1875
 20
9.09375
 30
0.0
 40
0.375
  0
TEXT
  8
DAMAN
 10
17.375
 20
11.0625
 30
0.0
 40
0.25
  1
T
  7
STR
  0
TEXT
  8
DAMAN
 10
16.375
 20
10.125
 30
0.0
 40
0.25
  1
P
  7
STR
  0
TEXT
  8
DAMAN
 10
10.78125
 20
10.71875
 30
0.0
 40
0.25
  1
A
 50
90.0
  7
STR
  0
TEXT
  8
DAMAN
 10
10.78125
 20
8.34375
 30
0.0
 40
0.25
  1
B
 50
90.0
  7
STR
  0
POLYLINE
  8
DAMAN
 66
     1
 10
0.0
 20
0.0
 30
0.0
 70
     1
  0
VERTEX
  8
DAMAN
 10
4.5
 20
15.59375
 30
0.0
  0
VERTEX
  8
DAMAN
 10
8.125
 20
15.59375
 30
0.0
  0
VERTEX
  8
DAMAN
 10
8.125
 20
13.09375
 30
0.0
  0
VERTEX
  8
DAMAN
 10
4.5
 20
13.09375
 30
0.0
  0
SEQEND
  8
DAMAN
  0
POLYLINE
  8
DAMAN
 66
     1
 10
0.0
 20
0.0
 30
0.0
 70
     1
  0
VERTEX
  8
DAMAN
 10
4.5
 20
11.65625
 30
0.0
  0
VERTEX
  8
DAMAN
 10
8.125
 20
11.65625
 30
0.0
  0
VERTEX
  8
DAMAN
 10
8.125
 20
7.65625
 30
0.0
  0
VERTEX
  8
DAMAN
 10
4.5
 20
7.65625
 30
0.0
  0
SEQEND
  8
DAMAN
  0
POLYLINE
  8
DAMAN
 66
     1
 10
0.0
 20
0.0
 30
0.0
 70
     1
  0
VERTEX
  8
DAMAN
 10
4.5
 20
6.40625
 30
0.0
  0
VERTEX
  8
DAMAN
 10
8.125
 20
6.40625
 30
0.0
  0
VERTEX
  8
DAMAN
 10
8.125
 20
3.90625
 30
0.0
  0
VERTEX
  8
DAMAN
 10
4.5
 20
3.90625
 30
0.0
  0
SEQEND
  8
DAMAN
  0
POLYLINE
  8
DAMAN
 66
     1
 10
0.0
 20
0.0
 30
0.0
 70
     1
  0
VERTEX
  8
DAMAN
 10
10.375
 20
11.65625
 30
0.0
  0
VERTEX
  8
DAMAN
 10
12.875
 20
11.65625
 30
0.0
  0
VERTEX
  8
DAMAN
 10
12.875
 20
7.65625
 30
0.0
  0
VERTEX
  8
DAMAN
 10
10.375
 20
7.65625
 30
0.0
  0
SEQEND
  8
DAMAN
  0
POLYLINE
  8
DAMAN
 66
     1
 10
0.0
 20
0.0
 30
0.0
 70
     1
  0
VERTEX
  8
DAMAN
 10
15.25
 20
11.65625
 30
0.0
  0
VERTEX
  8
DAMAN
 10
18.875
 20
11.65625
 30
0.0
  0
VERTEX
  8
DAMAN
 10
18.875
 20
7.65625
 30
0.0
  0
VERTEX
  8
DAMAN
 10
15.25
 20
7.65625
 30
0.0
  0
SEQEND
  8
DAMAN
  0
CIRCLE
  8
DAMAN
 10
6.5625
 20
14.65625
 30
0.0
 40
0.3935
  0
CIRCLE
  8
DAMAN
 10
6.5625
 20
14.65625
 30
0.0
 40
0.4295
  0
CIRCLE
  8
DAMAN
 10
6.5625
 20
14.65625
 30
0.0
 40
0.406
  0
CIRCLE
  8
DAMAN
 10
6.5625
 20
14.65625
 30
0.0
 40
0.367
  0
CIRCLE
  8
DAMAN
 10
6.5625
 20
14.65625
 30
0.0
 40
0.3435
  0
CIRCLE
  8
DAMAN
 10
6.5625
 20
14.65625
 30
0.0
 40
0.281
  0
INSERT
  8
DAMAN
  2
100CROSS
 10
6.5625
 20
14.65625
 30
0.0
 41
0.861
 42
0.861
 43
0.0
  0
INSERT
  8
DAMAN
  2
050NPTFT
 10
11.1875
 20
9.09375
 30
0.0
  0
INSERT
  8
DAMAN
  2
050NPTFT
 10
11.1875
 20
10.21875
 30
0.0
  0
TEXT
  8
DAMAN
 10
5.21875
 20
5.96875
 30
0.0
 40
0.188
  1
DAMAN ****
  0
POLYLINE
  8
DAMAN
 66
     1
 10
0.0
 20
0.0
 30
0.0
 70
     1
  0
VERTEX
  8
DAMAN
 10
2.25
 20
11.65625
 30
0.0
  0
VERTEX
  8
DAMAN
 10
-0.25
 20
11.65625
 30
0.0
  0
VERTEX
  8
DAMAN
 10
-0.25
 20
7.65625
 30
0.0
  0
VERTEX
  8
DAMAN
 10
2.25
 20
7.65625
 30
0.0
  0
SEQEND
  8
DAMAN
  0
ENDSEC
  0
EOF
