  0
SECTION
  2
HEADER
  9
$ACADVER
  1
AC1009
  9
$INSBASE
 10
0.0
 20
0.0
 30
0.0
  9
$EXTMIN
 10
8.804688
 20
4.395
 30
0.0
  9
$EXTMAX
 10
22.070313
 20
14.96875
 30
0.0
  9
$LIMMIN
 10
0.0
 20
0.0
  9
$LIMMAX
 10
12.0
 20
9.0
  9
$ORTHOMODE
 70
     1
  9
$REGENMODE
 70
     1
  9
$FILLMODE
 70
     1
  9
$QTEXTMODE
 70
     0
  9
$MIRRTEXT
 70
     1
  9
$DRAGMODE
 70
     2
  9
$LTSCALE
 40
1.0
  9
$OSMODE
 70
     0
  9
$ATTMODE
 70
     1
  9
$TEXTSIZE
 40
0.188
  9
$TRACEWID
 40
0.05
  9
$TEXTSTYLE
  7
STANDARD
  9
$CLAYER
  8
DAMAN
  9
$CELTYPE
  6
BYLAYER
  9
$CECOLOR
 62
   256
  9
$DIMSCALE
 40
1.0
  9
$DIMASZ
 40
0.18
  9
$DIMEXO
 40
0.0625
  9
$DIMDLI
 40
0.38
  9
$DIMRND
 40
0.0
  9
$DIMDLE
 40
0.0
  9
$DIMEXE
 40
0.18
  9
$DIMTP
 40
0.0
  9
$DIMTM
 40
0.0
  9
$DIMTXT
 40
0.18
  9
$DIMCEN
 40
0.09
  9
$DIMTSZ
 40
0.0
  9
$DIMTOL
 70
     0
  9
$DIMLIM
 70
     0
  9
$DIMTIH
 70
     1
  9
$DIMTOH
 70
     1
  9
$DIMSE1
 70
     0
  9
$DIMSE2
 70
     0
  9
$DIMTAD
 70
     0
  9
$DIMZIN
 70
     0
  9
$DIMBLK
  1

  9
$DIMASO
 70
     1
  9
$DIMSHO
 70
     1
  9
$DIMPOST
  1

  9
$DIMAPOST
  1

  9
$DIMALT
 70
     0
  9
$DIMALTD
 70
     2
  9
$DIMALTF
 40
25.4
  9
$DIMLFAC
 40
1.0
  9
$DIMTOFL
 70
     0
  9
$DIMTVP
 40
0.0
  9
$DIMTIX
 70
     0
  9
$DIMSOXD
 70
     0
  9
$DIMSAH
 70
     0
  9
$DIMBLK1
  1

  9
$DIMBLK2
  1

  9
$DIMSTYLE
  2
*UNNAMED
  9
$DIMCLRD
 70
     0
  9
$DIMCLRE
 70
     0
  9
$DIMCLRT
 70
     0
  9
$DIMTFAC
 40
1.0
  9
$DIMGAP
 40
0.09
  9
$LUNITS
 70
     2
  9
$LUPREC
 70
     4
  9
$SKETCHINC
 40
0.1
  9
$FILLETRAD
 40
0.0
  9
$AUNITS
 70
     0
  9
$AUPREC
 70
     0
  9
$MENU
  1
tom
  9
$ELEVATION
 40
0.0
  9
$PELEVATION
 40
0.0
  9
$THICKNESS
 40
0.0
  9
$LIMCHECK
 70
     0
  9
$BLIPMODE
 70
     1
  9
$CHAMFERA
 40
0.0
  9
$CHAMFERB
 40
0.0
  9
$SKPOLY
 70
     0
  9
$TDCREATE
 40
2449741.239540243
  9
$TDUPDATE
 40
2449741.239540243
  9
$TDINDWG
 40
0.0000000000
  9
$TDUSRTIMER
 40
0.0000000000
  9
$USRTIMER
 70
     1
  9
$ANGBASE
 50
0.0
  9
$ANGDIR
 70
     0
  9
$PDMODE
 70
     0
  9
$PDSIZE
 40
0.0
  9
$PLINEWID
 40
0.0
  9
$COORDS
 70
     1
  9
$SPLFRAME
 70
     0
  9
$SPLINETYPE
 70
     6
  9
$SPLINESEGS
 70
     8
  9
$ATTDIA
 70
     0
  9
$ATTREQ
 70
     1
  9
$HANDLING
 70
     0
  9
$HANDSEED
  5
0
  9
$SURFTAB1
 70
     6
  9
$SURFTAB2
 70
     6
  9
$SURFTYPE
 70
     6
  9
$SURFU
 70
     6
  9
$SURFV
 70
     6
  9
$UCSNAME
  2

  9
$UCSORG
 10
0.0
 20
0.0
 30
0.0
  9
$UCSXDIR
 10
1.0
 20
0.0
 30
0.0
  9
$UCSYDIR
 10
0.0
 20
1.0
 30
0.0
  9
$PUCSNAME
  2

  9
$PUCSORG
 10
0.0
 20
0.0
 30
0.0
  9
$PUCSXDIR
 10
1.0
 20
0.0
 30
0.0
  9
$PUCSYDIR
 10
0.0
 20
1.0
 30
0.0
  9
$USERI1
 70
     0
  9
$USERI2
 70
     0
  9
$USERI3
 70
     0
  9
$USERI4
 70
     0
  9
$USERI5
 70
     0
  9
$USERR1
 40
0.0
  9
$USERR2
 40
0.0
  9
$USERR3
 40
0.0
  9
$USERR4
 40
0.0
  9
$USERR5
 40
0.0
  9
$WORLDVIEW
 70
     1
  9
$SHADEDGE
 70
     3
  9
$SHADEDIF
 70
    70
  9
$TILEMODE
 70
     1
  9
$MAXACTVP
 70
    16
  9
$PINSBASE
 10
0.0
 20
0.0
 30
0.0
  9
$PLIMCHECK
 70
     0
  9
$PEXTMIN
 10
1.000000E+20
 20
1.000000E+20
 30
1.000000E+20
  9
$PEXTMAX
 10
-1.000000E+20
 20
-1.000000E+20
 30
-1.000000E+20
  9
$PLIMMIN
 10
0.0
 20
0.0
  9
$PLIMMAX
 10
12.0
 20
9.0
  9
$UNITMODE
 70
     0
  9
$VISRETAIN
 70
     0
  9
$PLINEGEN
 70
     0
  9
$PSLTSCALE
 70
     1
  9
$TREEDEPTH
 70
  3020
  9
$DWGCODEPAGE
  3
ascii
  0
ENDSEC
  0
SECTION
  2
TABLES
  0
TABLE
  2
VPORT
 70
     2
  0
VPORT
  2
*ACTIVE
 70
     0
 10
0.0
 20
0.0
 11
1.0
 21
1.0
 12
12.96875
 22
10.28125
 13
0.0
 23
0.0
 14
0.03125
 24
0.03125
 15
0.0
 25
0.0
 16
0.0
 26
0.0
 36
1.0
 17
0.0
 27
0.0
 37
0.0
 40
17.12088
 41
1.365662
 42
50.0
 43
0.0
 44
0.0
 50
0.0
 51
0.0
 71
     0
 72
   100
 73
     1
 74
     1
 75
     1
 76
     0
 77
     0
 78
     0
  0
ENDTAB
  0
TABLE
  2
LTYPE
 70
     4
  0
LTYPE
  2
CONTINUOUS
 70
    64
  3
Solid line
 72
    65
 73
     0
 40
0.0
  0
LTYPE
  2
HIDDEN
 70
    64
  3
_ _ _ _ _ _ _ _ _ _ _ _ _ _ _ _ _ _ _ _ _ _ _
 72
    65
 73
     2
 40
0.375
 49
0.25
 49
-0.125
  0
LTYPE
  2
CENTER
 70
    64
  3
____ _ ____ _ ____ _ ____ _ ____ _ ____ _ ____
 72
    65
 73
     4
 40
2.0
 49
1.25
 49
-0.25
 49
0.25
 49
-0.25
  0
LTYPE
  2
PHANTOM
 70
    64
  3
_____ _ _ _____ _ _ _____ _ _ _____ _ _ ____
 72
    65
 73
     6
 40
2.5
 49
1.25
 49
-0.25
 49
0.25
 49
-0.25
 49
0.25
 49
-0.25
  0
ENDTAB
  0
TABLE
  2
LAYER
 70
     8
  0
LAYER
  2
0
 70
     0
 62
     7
  6
CONTINUOUS
  0
LAYER
  2
DAMAN
 70
     0
 62
     5
  6
CONTINUOUS
  0
LAYER
  2
BORDER
 70
    64
 62
     7
  6
CONTINUOUS
  0
LAYER
  2
CSOLID
 70
    64
 62
     3
  6
CONTINUOUS
  0
LAYER
  2
CHIDDEN
 70
    64
 62
     3
  6
HIDDEN
  0
LAYER
  2
CDIM
 70
    64
 62
     2
  6
CONTINUOUS
  0
LAYER
  2
CCENTER
 70
    64
 62
     4
  6
CENTER
  0
LAYER
  2
PHANTOM
 70
     0
 62
     1
  6
PHANTOM
  0
ENDTAB
  0
TABLE
  2
STYLE
 70
     2
  0
STYLE
  2
STANDARD
 70
    64
 40
0.0
 41
1.0
 50
0.0
 71
     0
 42
0.188
  3
txt
  4

  0
STYLE
  2
STR
 70
    64
 40
0.0
 41
1.0
 50
0.0
 71
     0
 42
0.25
  3
SIMPLEX
  4

  0
ENDTAB
  0
TABLE
  2
VIEW
 70
     0
  0
ENDTAB
  0
TABLE
  2
UCS
 70
     0
  0
ENDTAB
  0
TABLE
  2
APPID
 70
     1
  0
APPID
  2
ACAD
 70
    64
  0
ENDTAB
  0
TABLE
  2
DIMSTYLE
 70
     0
  0
ENDTAB
  0
ENDSEC
  0
SECTION
  2
BLOCKS
  0
BLOCK
  8
0
  2
D05SPB
 70
    64
 10
0.0
 20
0.0
 30
0.0
  3
D05SPB
  0
POLYLINE
  8
BORDER
 66
     1
 10
0.0
 20
0.0
 30
0.0
 70
     1
  0
VERTEX
  8
BORDER
 10
13.625
 20
7.25
 30
0.0
  0
VERTEX
  8
BORDER
 10
13.625
 20
11.25
 30
0.0
  0
VERTEX
  8
BORDER
 10
14.875
 20
11.25
 30
0.0
  0
VERTEX
  8
BORDER
 10
14.875
 20
7.25
 30
0.0
  0
SEQEND
  8
BORDER
  0
POLYLINE
  8
BORDER
 66
     1
 10
0.0
 20
0.0
 30
0.0
 70
     1
  0
VERTEX
  8
BORDER
 10
7.75
 20
7.25
 30
0.0
  0
VERTEX
  8
BORDER
 10
7.75
 20
11.25
 30
0.0
  0
VERTEX
  8
BORDER
 10
10.875
 20
11.25
 30
0.0
  0
VERTEX
  8
BORDER
 10
10.875
 20
7.25
 30
0.0
  0
SEQEND
  8
BORDER
  0
POLYLINE
  8
BORDER
 66
     1
 10
0.0
 20
0.0
 30
0.0
 70
     1
  0
VERTEX
  8
BORDER
 10
17.625
 20
7.25
 30
0.0
  0
VERTEX
  8
BORDER
 10
17.625
 20
11.25
 30
0.0
  0
VERTEX
  8
BORDER
 10
20.75
 20
11.25
 30
0.0
  0
VERTEX
  8
BORDER
 10
20.75
 20
7.25
 30
0.0
  0
SEQEND
  8
BORDER
  0
INSERT
  8
CCENTER
  2
100CROSS
 10
10.0
 20
9.25025
 30
0.0
 41
0.438
 42
0.438
 43
0.0
  0
CIRCLE
  8
CSOLID
 10
10.0
 20
9.25025
 30
0.0
 40
0.21875
  0
CIRCLE
  8
CSOLID
 10
9.406
 20
8.844
 30
0.0
 40
0.21875
  0
INSERT
  8
CCENTER
  2
100CROSS
 10
9.406
 20
8.844
 30
0.0
 41
0.438
 42
0.438
 43
0.0
  0
INSERT
  8
CCENTER
  2
100CROSS
 10
9.406
 20
9.6565
 30
0.0
 41
0.438
 42
0.438
 43
0.0
  0
CIRCLE
  8
CSOLID
 10
9.406
 20
9.6565
 30
0.0
 40
0.21875
  0
CIRCLE
  8
CSOLID
 10
8.9685
 20
10.1875
 30
0.0
 40
0.21875
  0
INSERT
  8
CCENTER
  2
100CROSS
 10
8.9685
 20
10.1875
 30
0.0
 41
0.438
 42
0.438
 43
0.0
  0
INSERT
  8
CCENTER
  2
100CROSS
 10
10.25
 20
8.1875
 30
0.0
 41
0.25
 42
0.25
 43
0.0
  0
CIRCLE
  8
CSOLID
 10
10.25
 20
8.1875
 30
0.0
 40
0.1055
  0
INSERT
  8
CCENTER
  2
100CROSS
 10
10.25
 20
10.3125
 30
0.0
 41
0.25
 42
0.25
 43
0.0
  0
CIRCLE
  8
CSOLID
 10
10.25
 20
10.3125
 30
0.0
 40
0.1055
  0
INSERT
  8
CCENTER
  2
100CROSS
 10
8.4375
 20
8.1875
 30
0.0
 41
0.25
 42
0.25
 43
0.0
  0
CIRCLE
  8
CSOLID
 10
8.4375
 20
8.1875
 30
0.0
 40
0.1055
  0
CIRCLE
  8
CSOLID
 10
8.4375
 20
10.3125
 30
0.0
 40
0.1055
  0
INSERT
  8
CCENTER
  2
100CROSS
 10
8.4375
 20
10.3125
 30
0.0
 41
0.25
 42
0.25
 43
0.0
  0
CIRCLE
  8
CHIDDEN
 10
8.4375
 20
8.1875
 30
0.0
 40
0.125
  0
CIRCLE
  8
CHIDDEN
 10
8.4375
 20
10.3125
 30
0.0
 40
0.125
  0
CIRCLE
  8
CHIDDEN
 10
10.25
 20
8.1875
 30
0.0
 40
0.125
  0
CIRCLE
  8
CHIDDEN
 10
10.25
 20
10.3125
 30
0.0
 40
0.125
  0
INSERT
  8
CCENTER
  2
100CROSS
 10
8.125
 20
7.625
 30
0.0
 41
0.625
 42
0.625
 43
0.625
  0
INSERT
  8
CCENTER
  2
100CROSS
 10
10.5
 20
10.875
 30
0.0
 41
0.625
 42
0.625
 43
0.625
  0
CIRCLE
  8
CSOLID
 10
8.125
 20
7.625
 30
0.0
 40
0.3125
  0
CIRCLE
  8
CSOLID
 10
8.125
 20
7.625
 30
0.0
 40
0.203125
  0
CIRCLE
  8
CSOLID
 10
10.5
 20
10.875
 30
0.0
 40
0.3125
  0
CIRCLE
  8
CSOLID
 10
10.5
 20
10.875
 30
0.0
 40
0.203125
  0
INSERT
  8
CSOLID
  2
038NPTFT
 10
19.3125
 20
10.375
 30
0.0
  0
INSERT
  8
CSOLID
  2
038NPTFT
 10
20.125
 20
9.5
 30
0.0
  0
INSERT
  8
CSOLID
  2
038NPTFT
 10
18.25
 20
9.46875
 30
0.0
  0
INSERT
  8
CSOLID
  2
038NPTFT
 10
19.09375
 20
8.625
 30
0.0
  0
INSERT
  8
CCENTER
  2
100CROSS
 10
18.0
 20
10.875
 30
0.0
 41
0.625
 42
0.625
 43
0.625
  0
INSERT
  8
CCENTER
  2
100CROSS
 10
20.375
 20
7.625
 30
0.0
 41
0.625
 42
0.625
 43
0.625
  0
CIRCLE
  8
CSOLID
 10
18.0
 20
10.875
 30
0.0
 40
0.203125
  0
CIRCLE
  8
CSOLID
 10
20.375
 20
7.625
 30
0.0
 40
0.203125
  0
TEXT
  8
CDIM
 10
19.9375
 20
10.59375
 30
0.0
 40
0.25
  1
T
  7
STR
  0
TEXT
  8
CDIM
 10
20.5
 20
10.0
 30
0.0
 40
0.25
  1
A
  7
STR
  0
TEXT
  8
CDIM
 10
17.71875
 20
9.875
 30
0.0
 40
0.25
  1
P
  7
STR
  0
TEXT
  8
CDIM
 10
18.5
 20
7.90625
 30
0.0
 40
0.25
  1
B
  7
STR
  0
LINE
  8
CDIM
 10
7.75
 20
11.349194
 30
0.0
 11
7.75
 21
11.948388
 31
0.0
  0
LINE
  8
CDIM
 10
10.0
 20
9.349444
 30
0.0
 11
10.0
 21
11.948388
 31
0.0
  0
LINE
  8
CDIM
 10
7.948388
 20
11.75
 30
0.0
 11
8.338031
 21
11.75
 31
0.0
  0
LINE
  8
CDIM
 10
9.801612
 20
11.75
 30
0.0
 11
9.411969
 21
11.75
 31
0.0
  0
SOLID
  8
CDIM
 10
7.948388
 20
11.716935
 30
0.0
 11
7.948388
 21
11.783065
 31
0.0
 12
7.75
 22
11.75
 32
0.0
 13
7.75
 23
11.75
 33
0.0
  0
SOLID
  8
CDIM
 10
9.801612
 20
11.716935
 30
0.0
 11
9.801612
 21
11.783065
 31
0.0
 12
10.0
 22
11.75
 32
0.0
 13
10.0
 23
11.75
 33
0.0
  0
TEXT
  8
CDIM
 10
8.536419
 20
11.638903
 30
0.0
 40
0.222194
  1
2.25
  7
STR
  0
LINE
  8
CDIM
 10
7.75
 20
11.349194
 30
0.0
 11
7.75
 21
12.54355
 31
0.0
  0
LINE
  8
CDIM
 10
10.875
 20
11.349194
 30
0.0
 11
10.875
 21
12.54355
 31
0.0
  0
LINE
  8
CDIM
 10
7.948388
 20
12.345163
 30
0.0
 11
8.796693
 21
12.345163
 31
0.0
  0
LINE
  8
CDIM
 10
10.676613
 20
12.345163
 30
0.0
 11
9.828307
 21
12.345163
 31
0.0
  0
SOLID
  8
CDIM
 10
7.948388
 20
12.312098
 30
0.0
 11
7.948388
 21
12.378227
 31
0.0
 12
7.75
 22
12.345163
 32
0.0
 13
7.75
 23
12.345163
 33
0.0
  0
SOLID
  8
CDIM
 10
10.676613
 20
12.312098
 30
0.0
 11
10.676613
 21
12.378227
 31
0.0
 12
10.875
 22
12.345163
 32
0.0
 13
10.875
 23
12.345163
 33
0.0
  0
TEXT
  8
CDIM
 10
8.99508
 20
12.234066
 30
0.0
 40
0.222194
  1
3.13
  7
STR
  0
LINE
  8
CDIM
 10
7.650806
 20
11.25
 30
0.0
 11
7.051613
 21
11.25
 31
0.0
  0
LINE
  8
CDIM
 10
9.900806
 20
9.25025
 30
0.0
 11
7.051613
 21
9.25025
 31
0.0
  0
LINE
  8
CDIM
 10
7.25
 20
11.051613
 30
0.0
 11
7.25
 21
10.559609
 31
0.0
  0
LINE
  8
CDIM
 10
7.25
 20
9.448637
 30
0.0
 11
7.25
 21
9.94064
 31
0.0
  0
SOLID
  8
CDIM
 10
7.283065
 20
11.051613
 30
0.0
 11
7.216935
 21
11.051613
 31
0.0
 12
7.25
 22
11.25
 32
0.0
 13
7.25
 23
11.25
 33
0.0
  0
SOLID
  8
CDIM
 10
7.283065
 20
9.448637
 30
0.0
 11
7.216935
 21
9.448637
 31
0.0
 12
7.25
 22
9.25025
 32
0.0
 13
7.25
 23
9.25025
 33
0.0
  0
TEXT
  8
CDIM
 10
6.911419
 20
10.139028
 30
0.0
 40
0.222194
  1
2.00
  7
STR
  0
LINE
  8
CDIM
 10
7.650806
 20
11.25
 30
0.0
 11
6.45645
 21
11.25
 31
0.0
  0
LINE
  8
CDIM
 10
7.650806
 20
7.25
 30
0.0
 11
6.45645
 21
7.25
 31
0.0
  0
LINE
  8
CDIM
 10
6.654838
 20
11.051613
 30
0.0
 11
6.654838
 21
8.996985
 31
0.0
  0
LINE
  8
CDIM
 10
6.654838
 20
7.448388
 30
0.0
 11
6.654838
 21
8.378016
 31
0.0
  0
SOLID
  8
CDIM
 10
6.687902
 20
11.051613
 30
0.0
 11
6.621773
 21
11.051613
 31
0.0
 12
6.654838
 22
11.25
 32
0.0
 13
6.654838
 23
11.25
 33
0.0
  0
SOLID
  8
CDIM
 10
6.687902
 20
7.448388
 30
0.0
 11
6.621773
 21
7.448388
 31
0.0
 12
6.654838
 22
7.25
 32
0.0
 13
6.654838
 23
7.25
 33
0.0
  0
TEXT
  8
CDIM
 10
6.316256
 20
8.576403
 30
0.0
 40
0.222194
  1
4.00
  7
STR
  0
LINE
  8
CDIM
 10
10.974194
 20
11.25
 30
0.0
 11
11.573388
 21
11.25
 31
0.0
  0
LINE
  8
CDIM
 10
10.599194
 20
10.875
 30
0.0
 11
11.573388
 21
10.875
 31
0.0
  0
LINE
  8
CDIM
 10
11.375
 20
10.676613
 30
0.0
 11
11.375
 21
10.478225
 31
0.0
  0
LINE
  8
CDIM
 10
11.375
 20
11.448388
 30
0.0
 11
11.375
 21
11.646775
 31
0.0
  0
SOLID
  8
CDIM
 10
11.408065
 20
10.676613
 30
0.0
 11
11.341935
 21
10.676613
 31
0.0
 12
11.375
 22
10.875
 32
0.0
 13
11.375
 23
10.875
 33
0.0
  0
SOLID
  8
CDIM
 10
11.408065
 20
11.448388
 30
0.0
 11
11.341935
 21
11.448388
 31
0.0
 12
11.375
 22
11.25
 32
0.0
 13
11.375
 23
11.25
 33
0.0
  0
TEXT
  8
CDIM
 10
11.051062
 20
10.085878
 30
0.0
 40
0.222194
  1
0.37
  7
STR
  0
LINE
  8
CDIM
 10
10.974194
 20
11.25
 30
0.0
 11
12.16855
 21
11.25
 31
0.0
  0
LINE
  8
CDIM
 10
8.224194
 20
7.625
 30
0.0
 11
12.16855
 21
7.625
 31
0.0
  0
LINE
  8
CDIM
 10
11.970163
 20
11.051613
 30
0.0
 11
11.970163
 21
9.746985
 31
0.0
  0
LINE
  8
CDIM
 10
11.970163
 20
7.823388
 30
0.0
 11
11.970163
 21
9.128016
 31
0.0
  0
SOLID
  8
CDIM
 10
12.003227
 20
11.051613
 30
0.0
 11
11.937098
 21
11.051613
 31
0.0
 12
11.970163
 22
11.25
 32
0.0
 13
11.970163
 23
11.25
 33
0.0
  0
SOLID
  8
CDIM
 10
12.003227
 20
7.823388
 30
0.0
 11
11.937098
 21
7.823388
 31
0.0
 12
11.970163
 22
7.625
 32
0.0
 13
11.970163
 23
7.625
 33
0.0
  0
TEXT
  8
CDIM
 10
11.631581
 20
9.326403
 30
0.0
 40
0.222194
  1
3.62
  7
STR
  0
LINE
  8
CDIM
 10
7.75
 20
7.150806
 30
0.0
 11
7.75
 21
6.551613
 31
0.0
  0
LINE
  8
CDIM
 10
8.125
 20
7.525806
 30
0.0
 11
8.125
 21
6.551613
 31
0.0
  0
LINE
  8
CDIM
 10
8.323387
 20
6.75
 30
0.0
 11
8.521775
 21
6.75
 31
0.0
  0
LINE
  8
CDIM
 10
7.551613
 20
6.75
 30
0.0
 11
7.353225
 21
6.75
 31
0.0
  0
SOLID
  8
CDIM
 10
8.323387
 20
6.716935
 30
0.0
 11
8.323387
 21
6.783065
 31
0.0
 12
8.125
 22
6.75
 32
0.0
 13
8.125
 23
6.75
 33
0.0
  0
SOLID
  8
CDIM
 10
7.551613
 20
6.716935
 30
0.0
 11
7.551613
 21
6.783065
 31
0.0
 12
7.75
 22
6.75
 32
0.0
 13
7.75
 23
6.75
 33
0.0
  0
TEXT
  8
CDIM
 10
8.720163
 20
6.638903
 30
0.0
 40
0.222194
  1
0.37
  7
STR
  0
LINE
  8
CDIM
 10
7.75
 20
7.150806
 30
0.0
 11
7.75
 21
5.95645
 31
0.0
  0
LINE
  8
CDIM
 10
10.5
 20
10.775806
 30
0.0
 11
10.5
 21
5.95645
 31
0.0
  0
LINE
  8
CDIM
 10
7.948388
 20
6.154838
 30
0.0
 11
8.588031
 21
6.154838
 31
0.0
  0
LINE
  8
CDIM
 10
10.301613
 20
6.154838
 30
0.0
 11
9.661969
 21
6.154838
 31
0.0
  0
SOLID
  8
CDIM
 10
7.948388
 20
6.121773
 30
0.0
 11
7.948388
 21
6.187902
 31
0.0
 12
7.75
 22
6.154838
 32
0.0
 13
7.75
 23
6.154838
 33
0.0
  0
SOLID
  8
CDIM
 10
10.301613
 20
6.121773
 30
0.0
 11
10.301613
 21
6.187902
 31
0.0
 12
10.5
 22
6.154838
 32
0.0
 13
10.5
 23
6.154838
 33
0.0
  0
TEXT
  8
CDIM
 10
8.786419
 20
6.043741
 30
0.0
 40
0.222194
  1
2.75
  7
STR
  0
LINE
  8
CDIM
 10
13.625
 20
11.349194
 30
0.0
 11
13.625
 21
11.948388
 31
0.0
  0
LINE
  8
CDIM
 10
14.875
 20
11.349194
 30
0.0
 11
14.875
 21
11.948388
 31
0.0
  0
LINE
  8
CDIM
 10
15.073388
 20
11.75
 30
0.0
 11
15.271775
 21
11.75
 31
0.0
  0
LINE
  8
CDIM
 10
13.426613
 20
11.75
 30
0.0
 11
13.228225
 21
11.75
 31
0.0
  0
SOLID
  8
CDIM
 10
15.073388
 20
11.716935
 30
0.0
 11
15.073388
 21
11.783065
 31
0.0
 12
14.875
 22
11.75
 32
0.0
 13
14.875
 23
11.75
 33
0.0
  0
SOLID
  8
CDIM
 10
13.426613
 20
11.716935
 30
0.0
 11
13.426613
 21
11.783065
 31
0.0
 12
13.625
 22
11.75
 32
0.0
 13
13.625
 23
11.75
 33
0.0
  0
TEXT
  8
CDIM
 10
13.970163
 20
11.638903
 30
0.0
 40
0.222194
  1
1.25
  7
STR
  0
LINE
  8
CDIM
 10
20.75
 20
11.349194
 30
0.0
 11
20.75
 21
11.948388
 31
0.0
  0
LINE
  8
CDIM
 10
20.125
 20
9.974194
 30
0.0
 11
20.125
 21
11.948388
 31
0.0
  0
LINE
  8
CDIM
 10
19.926613
 20
11.75
 30
0.0
 11
19.728225
 21
11.75
 31
0.0
  0
LINE
  8
CDIM
 10
20.948388
 20
11.75
 30
0.0
 11
21.146775
 21
11.75
 31
0.0
  0
SOLID
  8
CDIM
 10
19.926613
 20
11.716935
 30
0.0
 11
19.926613
 21
11.783065
 31
0.0
 12
20.125
 22
11.75
 32
0.0
 13
20.125
 23
11.75
 33
0.0
  0
SOLID
  8
CDIM
 10
20.948388
 20
11.716935
 30
0.0
 11
20.948388
 21
11.783065
 31
0.0
 12
20.75
 22
11.75
 32
0.0
 13
20.75
 23
11.75
 33
0.0
  0
TEXT
  8
CDIM
 10
18.852675
 20
11.638903
 30
0.0
 40
0.222194
  1
0.63
  7
STR
  0
LINE
  8
CDIM
 10
20.75
 20
11.349194
 30
0.0
 11
20.75
 21
12.54355
 31
0.0
  0
LINE
  8
CDIM
 10
19.3125
 20
10.818194
 30
0.0
 11
19.3125
 21
11.5
 31
0.0
  0
LINE
  8
CDIM
 10
19.114112
 20
12.345163
 30
0.0
 11
18.915725
 21
12.345163
 31
0.0
  0
LINE
  8
CDIM
 10
20.948388
 20
12.345163
 30
0.0
 11
21.146775
 21
12.345163
 31
0.0
  0
SOLID
  8
CDIM
 10
19.114112
 20
12.312098
 30
0.0
 11
19.114112
 21
12.378227
 31
0.0
 12
19.3125
 22
12.345163
 32
0.0
 13
19.3125
 23
12.345163
 33
0.0
  0
SOLID
  8
CDIM
 10
20.948388
 20
12.312098
 30
0.0
 11
20.948388
 21
12.378227
 31
0.0
 12
20.75
 22
12.345163
 32
0.0
 13
20.75
 23
12.345163
 33
0.0
  0
TEXT
  8
CDIM
 10
19.728167
 20
12.234066
 30
0.0
 40
0.222194
  1
1.44
  7
STR
  0
LINE
  8
CDIM
 10
20.75
 20
11.349194
 30
0.0
 11
20.75
 21
13.138713
 31
0.0
  0
LINE
  8
CDIM
 10
18.25
 20
9.942944
 30
0.0
 11
18.25
 21
13.138713
 31
0.0
  0
LINE
  8
CDIM
 10
20.551613
 20
12.940325
 30
0.0
 11
20.036969
 21
12.940325
 31
0.0
  0
LINE
  8
CDIM
 10
18.448388
 20
12.940325
 30
0.0
 11
18.963031
 21
12.940325
 31
0.0
  0
SOLID
  8
CDIM
 10
20.551613
 20
12.90726
 30
0.0
 11
20.551613
 21
12.97339
 31
0.0
 12
20.75
 22
12.940325
 32
0.0
 13
20.75
 23
12.940325
 33
0.0
  0
SOLID
  8
CDIM
 10
18.448388
 20
12.90726
 30
0.0
 11
18.448388
 21
12.97339
 31
0.0
 12
18.25
 22
12.940325
 32
0.0
 13
18.25
 23
12.940325
 33
0.0
  0
TEXT
  8
CDIM
 10
19.161419
 20
12.829228
 30
0.0
 40
0.222194
  1
2.50
  7
STR
  0
LINE
  8
CDIM
 10
20.75
 20
7.150806
 30
0.0
 11
20.75
 21
6.551613
 31
0.0
  0
LINE
  8
CDIM
 10
19.09375
 20
8.150806
 30
0.0
 11
19.09375
 21
6.551613
 31
0.0
  0
LINE
  8
CDIM
 10
20.551613
 20
6.75
 30
0.0
 11
20.432392
 21
6.75
 31
0.0
  0
LINE
  8
CDIM
 10
19.292138
 20
6.75
 30
0.0
 11
19.411358
 21
6.75
 31
0.0
  0
SOLID
  8
CDIM
 10
20.551613
 20
6.716935
 30
0.0
 11
20.551613
 21
6.783065
 31
0.0
 12
20.75
 22
6.75
 32
0.0
 13
20.75
 23
6.75
 33
0.0
  0
SOLID
  8
CDIM
 10
19.292138
 20
6.716935
 30
0.0
 11
19.292138
 21
6.783065
 31
0.0
 12
19.09375
 22
6.75
 32
0.0
 13
19.09375
 23
6.75
 33
0.0
  0
TEXT
  8
CDIM
 10
19.609745
 20
6.638903
 30
0.0
 40
0.222194
  1
1.66
  7
STR
  0
LINE
  8
CDIM
 10
17.525806
 20
11.25
 30
0.0
 11
16.895363
 21
11.25
 31
0.0
  0
LINE
  8
CDIM
 10
17.838306
 20
9.46875
 30
0.0
 11
16.895363
 21
9.46875
 31
0.0
  0
LINE
  8
CDIM
 10
17.09375
 20
11.051613
 30
0.0
 11
17.09375
 21
10.668859
 31
0.0
  0
LINE
  8
CDIM
 10
17.09375
 20
9.667137
 30
0.0
 11
17.09375
 21
10.04989
 31
0.0
  0
SOLID
  8
CDIM
 10
17.126815
 20
11.051613
 30
0.0
 11
17.060685
 21
11.051613
 31
0.0
 12
17.09375
 22
11.25
 32
0.0
 13
17.09375
 23
11.25
 33
0.0
  0
SOLID
  8
CDIM
 10
17.126815
 20
9.667137
 30
0.0
 11
17.060685
 21
9.667137
 31
0.0
 12
17.09375
 22
9.46875
 32
0.0
 13
17.09375
 23
9.46875
 33
0.0
  0
TEXT
  8
CDIM
 10
16.77633
 20
10.248278
 30
0.0
 40
0.222194
  1
1.78
  7
STR
  0
LINE
  8
CDIM
 10
17.525806
 20
11.25
 30
0.0
 11
16.3002
 21
11.25
 31
0.0
  0
LINE
  8
CDIM
 10
18.682056
 20
8.625
 30
0.0
 11
16.3002
 21
8.625
 31
0.0
  0
LINE
  8
CDIM
 10
16.498588
 20
11.051613
 30
0.0
 11
16.498588
 21
10.246984
 31
0.0
  0
LINE
  8
CDIM
 10
16.498588
 20
8.823387
 30
0.0
 11
16.498588
 21
9.628015
 31
0.0
  0
SOLID
  8
CDIM
 10
16.531652
 20
11.051613
 30
0.0
 11
16.465523
 21
11.051613
 31
0.0
 12
16.498588
 22
11.25
 32
0.0
 13
16.498588
 23
11.25
 33
0.0
  0
SOLID
  8
CDIM
 10
16.531652
 20
8.823387
 30
0.0
 11
16.465523
 21
8.823387
 31
0.0
 12
16.498588
 22
8.625
 32
0.0
 13
16.498588
 23
8.625
 33
0.0
  0
TEXT
  8
CDIM
 10
16.160006
 20
9.826403
 30
0.0
 40
0.222194
  1
2.63
  7
STR
  0
LINE
  8
CDIM
 10
20.849194
 20
11.25
 30
0.0
 11
21.479638
 21
11.25
 31
0.0
  0
LINE
  8
CDIM
 10
19.724194
 20
10.375
 30
0.0
 11
21.479638
 21
10.375
 31
0.0
  0
LINE
  8
CDIM
 10
21.28125
 20
10.176612
 30
0.0
 11
21.28125
 21
9.978225
 31
0.0
  0
LINE
  8
CDIM
 10
21.28125
 20
11.448388
 30
0.0
 11
21.28125
 21
11.646775
 31
0.0
  0
SOLID
  8
CDIM
 10
21.314315
 20
10.176612
 30
0.0
 11
21.248185
 21
10.176612
 31
0.0
 12
21.28125
 22
10.375
 32
0.0
 13
21.28125
 23
10.375
 33
0.0
  0
SOLID
  8
CDIM
 10
21.314315
 20
11.448388
 30
0.0
 11
21.248185
 21
11.448388
 31
0.0
 12
21.28125
 22
11.25
 32
0.0
 13
21.28125
 23
11.25
 33
0.0
  0
TEXT
  8
CDIM
 10
20.957312
 20
10.710878
 30
0.0
 40
0.222194
  1
0.88
  7
STR
  0
LINE
  8
CDIM
 10
20.849194
 20
11.25
 30
0.0
 11
22.0748
 21
11.25
 31
0.0
  0
LINE
  8
CDIM
 10
20.568194
 20
9.5
 30
0.0
 11
22.0748
 21
9.5
 31
0.0
  0
LINE
  8
CDIM
 10
21.876413
 20
11.051613
 30
0.0
 11
21.876413
 21
10.371984
 31
0.0
  0
LINE
  8
CDIM
 10
21.876413
 20
9.698387
 30
0.0
 11
21.876413
 21
9.753015
 31
0.0
  0
SOLID
  8
CDIM
 10
21.909477
 20
11.051613
 30
0.0
 11
21.843348
 21
11.051613
 31
0.0
 12
21.876413
 22
11.25
 32
0.0
 13
21.876413
 23
11.25
 33
0.0
  0
SOLID
  8
CDIM
 10
21.909477
 20
9.698387
 30
0.0
 11
21.843348
 21
9.698387
 31
0.0
 12
21.876413
 22
9.5
 32
0.0
 13
21.876413
 23
9.5
 33
0.0
  0
TEXT
  8
CDIM
 10
21.558993
 20
9.951403
 30
0.0
 40
0.222194
  1
1.75
  7
STR
  0
LINE
  8
CDIM
 10
19.3125
 20
12.03125
 30
0.0
 11
19.3125
 21
12.54355
 31
0.0
  0
ENDBLK
  8
0
  0
BLOCK
  8
CSOLID
  2
100CROSS
 70
    64
 10
5.625
 20
4.59375
 30
0.0
  0
INSERT
  8
0
  2
050CROSS
 10
5.625
 20
4.59375
 30
0.0
 43
0.0
  0
ENDBLK
  8
0
  0
BLOCK
  8
0
  2
050CROSS
 70
    64
 10
5.0
 20
5.0
 30
0.0
  0
LINE
  8
0
 10
5.0
 20
5.28125
 30
0.0
 11
5.0
 21
5.78125
 31
0.0
  0
LINE
  8
0
 10
5.0
 20
4.875
 30
0.0
 11
5.0
 21
5.125
 31
0.0
  0
LINE
  8
0
 10
5.0
 20
4.15625
 30
0.0
 11
5.0
 21
4.71875
 31
0.0
  0
LINE
  8
0
 10
5.25
 20
5.0
 30
0.0
 11
5.8125
 21
5.0
 31
0.0
  0
LINE
  8
0
 10
4.90625
 20
5.0
 30
0.0
 11
5.09375
 21
5.0
 31
0.0
  0
LINE
  8
0
 10
4.1875
 20
5.0
 30
0.0
 11
4.75
 21
5.0
 31
0.0
  0
ENDBLK
  8
0
  0
BLOCK
  8
0
  2
038NPTFT
 70
    64
 10
0.0
 20
0.0
 30
0.0
  3
038NPTFT
  0
INSERT
  8
DAMAN
  2
375NPTFT
 10
0.0
 20
0.0
 30
0.0
  0
ENDBLK
  8
0
  0
BLOCK
  8
0
  2
375NPTFT
 70
    64
 10
0.0
 20
0.0
 30
0.0
  3
375NPTFT
  0
INSERT
  8
DAMAN
  2
100CROSS
 10
0.0
 20
0.0
 30
0.0
 41
0.68
 42
0.68
 43
0.0
  0
CIRCLE
  8
DAMAN
 10
0.0
 20
0.0
 30
0.0
 40
0.3125
  0
CIRCLE
  8
DAMAN
 10
0.0
 20
0.0
 30
0.0
 40
0.281
  0
CIRCLE
  8
DAMAN
 10
0.0
 20
0.0
 30
0.0
 40
0.344
  0
ENDBLK
  8
0
  0
BLOCK
  8
0
  2
050NPTFT
 70
    64
 10
0.0
 20
0.0
 30
0.0
  3
050NPTFT
  0
INSERT
  8
DAMAN
  2
500NPTFT
 10
0.0
 20
0.0
 30
0.0
  0
ENDBLK
  8
0
  0
BLOCK
  8
0
  2
500NPTFT
 70
    64
 10
0.0
 20
0.0
 30
0.0
  3
500NPTFT
  0
INSERT
  8
DAMAN
 62
     5
  2
100CROSS
 10
0.0
 20
0.0
 30
0.0
 41
0.84
 42
0.84
 43
0.0
  0
CIRCLE
  8
DAMAN
 62
     5
 10
0.0
 20
0.0
 30
0.0
 40
0.384627
  0
CIRCLE
  8
DAMAN
 62
     5
 10
0.0
 20
0.0
 30
0.0
 40
0.344
  0
CIRCLE
  8
DAMAN
 62
     5
 10
0.0
 20
0.0
 30
0.0
 40
0.4295
  0
ENDBLK
  8
0
  0
ENDSEC
  0
SECTION
  2
ENTITIES
  0
POLYLINE
  8
DAMAN
 66
     1
 10
0.0
 20
0.0
 30
0.0
 70
     1
  0
VERTEX
  8
DAMAN
 10
13.8125
 20
8.3125
 30
0.0
  0
VERTEX
  8
DAMAN
 10
13.8125
 20
12.3125
 30
0.0
  0
VERTEX
  8
DAMAN
 10
15.0625
 20
12.3125
 30
0.0
  0
VERTEX
  8
DAMAN
 10
15.0625
 20
8.3125
 30
0.0
  0
SEQEND
  8
DAMAN
  0
POLYLINE
  8
DAMAN
 66
     1
 10
0.0
 20
0.0
 30
0.0
 70
     1
  0
VERTEX
  8
DAMAN
 10
8.9375
 20
8.3125
 30
0.0
  0
VERTEX
  8
DAMAN
 10
8.9375
 20
12.3125
 30
0.0
  0
VERTEX
  8
DAMAN
 10
12.0625
 20
12.3125
 30
0.0
  0
VERTEX
  8
DAMAN
 10
12.0625
 20
8.3125
 30
0.0
  0
SEQEND
  8
DAMAN
  0
POLYLINE
  8
DAMAN
 66
     1
 10
0.0
 20
0.0
 30
0.0
 70
     1
  0
VERTEX
  8
DAMAN
 10
16.8125
 20
8.3125
 30
0.0
  0
VERTEX
  8
DAMAN
 10
16.8125
 20
12.3125
 30
0.0
  0
VERTEX
  8
DAMAN
 10
19.9375
 20
12.3125
 30
0.0
  0
VERTEX
  8
DAMAN
 10
19.9375
 20
8.3125
 30
0.0
  0
SEQEND
  8
DAMAN
  0
INSERT
  8
DAMAN
  2
100CROSS
 10
11.1875
 20
10.31275
 30
0.0
 41
0.438
 42
0.438
 43
0.0
  0
CIRCLE
  8
DAMAN
 10
11.1875
 20
10.31275
 30
0.0
 40
0.21875
  0
CIRCLE
  8
DAMAN
 10
10.5935
 20
9.9065
 30
0.0
 40
0.21875
  0
INSERT
  8
DAMAN
  2
100CROSS
 10
10.5935
 20
9.9065
 30
0.0
 41
0.438
 42
0.438
 43
0.0
  0
INSERT
  8
DAMAN
  2
100CROSS
 10
10.5935
 20
10.719
 30
0.0
 41
0.438
 42
0.438
 43
0.0
  0
CIRCLE
  8
DAMAN
 10
10.5935
 20
10.719
 30
0.0
 40
0.21875
  0
CIRCLE
  8
DAMAN
 10
10.156
 20
11.25
 30
0.0
 40
0.21875
  0
INSERT
  8
DAMAN
  2
100CROSS
 10
10.156
 20
11.25
 30
0.0
 41
0.438
 42
0.438
 43
0.0
  0
INSERT
  8
DAMAN
  2
100CROSS
 10
11.4375
 20
9.25
 30
0.0
 41
0.25
 42
0.25
 43
0.0
  0
CIRCLE
  8
DAMAN
 10
11.4375
 20
9.25
 30
0.0
 40
0.1055
  0
INSERT
  8
DAMAN
  2
100CROSS
 10
11.4375
 20
11.375
 30
0.0
 41
0.25
 42
0.25
 43
0.0
  0
CIRCLE
  8
DAMAN
 10
11.4375
 20
11.375
 30
0.0
 40
0.1055
  0
INSERT
  8
DAMAN
  2
100CROSS
 10
9.625
 20
9.25
 30
0.0
 41
0.25
 42
0.25
 43
0.0
  0
CIRCLE
  8
DAMAN
 10
9.625
 20
9.25
 30
0.0
 40
0.1055
  0
CIRCLE
  8
DAMAN
 10
9.625
 20
11.375
 30
0.0
 40
0.1055
  0
INSERT
  8
DAMAN
  2
100CROSS
 10
9.625
 20
11.375
 30
0.0
 41
0.25
 42
0.25
 43
0.0
  0
CIRCLE
  8
DAMAN
 10
9.625
 20
9.25
 30
0.0
 40
0.125
  0
CIRCLE
  8
DAMAN
 10
9.625
 20
11.375
 30
0.0
 40
0.125
  0
CIRCLE
  8
DAMAN
 10
11.4375
 20
9.25
 30
0.0
 40
0.125
  0
CIRCLE
  8
DAMAN
 10
11.4375
 20
11.375
 30
0.0
 40
0.125
  0
INSERT
  8
DAMAN
  2
100CROSS
 10
9.3125
 20
8.6875
 30
0.0
 41
0.625
 42
0.625
 43
0.625
  0
INSERT
  8
DAMAN
  2
100CROSS
 10
11.6875
 20
11.9375
 30
0.0
 41
0.625
 42
0.625
 43
0.625
  0
CIRCLE
  8
DAMAN
 10
9.3125
 20
8.6875
 30
0.0
 40
0.3125
  0
CIRCLE
  8
DAMAN
 10
9.3125
 20
8.6875
 30
0.0
 40
0.203125
  0
CIRCLE
  8
DAMAN
 10
11.6875
 20
11.9375
 30
0.0
 40
0.3125
  0
CIRCLE
  8
DAMAN
 10
11.6875
 20
11.9375
 30
0.0
 40
0.203125
  0
INSERT
  8
DAMAN
  2
100CROSS
 10
17.1875
 20
11.9375
 30
0.0
 41
0.625
 42
0.625
 43
0.625
  0
INSERT
  8
DAMAN
  2
100CROSS
 10
19.5625
 20
8.6875
 30
0.0
 41
0.625
 42
0.625
 43
0.625
  0
CIRCLE
  8
DAMAN
 10
17.1875
 20
11.9375
 30
0.0
 40
0.203125
  0
CIRCLE
  8
DAMAN
 10
19.5625
 20
8.6875
 30
0.0
 40
0.203125
  0
TEXT
  8
DAMAN
 10
19.125
 20
11.65625
 30
0.0
 40
0.25
  1
T
  7
STR
  0
TEXT
  8
DAMAN
 10
19.6875
 20
11.0625
 30
0.0
 40
0.25
  1
A
  7
STR
  0
TEXT
  8
DAMAN
 10
16.90625
 20
10.9375
 30
0.0
 40
0.25
  1
P
  7
STR
  0
TEXT
  8
DAMAN
 10
17.6875
 20
8.96875
 30
0.0
 40
0.25
  1
B
  7
STR
  0
LINE
  8
DAMAN
 10
8.9375
 20
6.90625
 30
0.0
 11
12.0625
 21
6.90625
 31
0.0
  0
LINE
  8
DAMAN
 10
12.0625
 20
6.90625
 30
0.0
 11
12.0625
 21
5.65625
 31
0.0
  0
LINE
  8
DAMAN
 10
12.0625
 20
5.65625
 30
0.0
 11
8.9375
 21
5.65625
 31
0.0
  0
LINE
  8
DAMAN
 10
8.9375
 20
5.65625
 30
0.0
 11
8.9375
 21
6.90625
 31
0.0
  0
LINE
  8
DAMAN
 10
8.9375
 20
13.71875
 30
0.0
 11
12.0625
 21
13.71875
 31
0.0
  0
LINE
  8
DAMAN
 10
12.0625
 20
14.96875
 30
0.0
 11
8.9375
 21
14.96875
 31
0.0
  0
LINE
  8
DAMAN
 10
8.9375
 20
14.96875
 30
0.0
 11
8.9375
 21
13.71875
 31
0.0
  0
LINE
  8
DAMAN
 10
12.0625
 20
13.71875
 30
0.0
 11
12.0625
 21
14.96875
 31
0.0
  0
TEXT
  8
DAMAN
 10
9.34375
 20
6.46875
 30
0.0
 40
0.188
  1
DAMAN ****
  0
INSERT
  8
DAMAN
  2
050NPTFT
 10
18.28125
 20
9.6875
 30
0.0
  0
INSERT
  8
DAMAN
  2
050NPTFT
 10
17.4375
 20
10.53125
 30
0.0
  0
INSERT
  8
DAMAN
  2
050NPTFT
 10
18.5
 20
11.4375
 30
0.0
  0
INSERT
  8
DAMAN
  2
050NPTFT
 10
19.3125
 20
10.5625
 30
0.0
  0
ENDSEC
  0
EOF
