  0
SECTION
  2
HEADER
  9
$ACADVER
  1
AC1014
  9
$ACADMAINTVER
 70
     9
  9
$DWGCODEPAGE
  3
ANSI_1252
  9
$INSBASE
 10
0.0
 20
0.0
 30
0.0
  9
$EXTMIN
 10
-1.531943884553399
 20
-1.532138844807064
 30
-0.0000000349181948
  9
$EXTMAX
 10
18.03194406673961
 20
13.03313898044435
 30
0.0000000814935747
  9
$LIMMIN
 10
0.0
 20
0.0
  9
$LIMMAX
 10
12.0
 20
9.0
  9
$ORTHOMODE
 70
     1
  9
$REGENMODE
 70
     1
  9
$FILLMODE
 70
     1
  9
$QTEXTMODE
 70
     0
  9
$MIRRTEXT
 70
     1
  9
$DRAGMODE
 70
     2
  9
$LTSCALE
 40
1.0
  9
$OSMODE
 70
    37
  9
$ATTMODE
 70
     1
  9
$TEXTSIZE
 40
0.188
  9
$TRACEWID
 40
0.05
  9
$TEXTSTYLE
  7
STANDARD
  9
$CLAYER
  8
0
  9
$CELTYPE
  6
CONTINUOUS
  9
$CECOLOR
 62
     0
  9
$CELTSCALE
 40
1.0
  9
$DELOBJ
 70
     1
  9
$DISPSILH
 70
     0
  9
$DIMSCALE
 40
1.0
  9
$DIMASZ
 40
0.18
  9
$DIMEXO
 40
0.0625
  9
$DIMDLI
 40
0.38
  9
$DIMRND
 40
0.0
  9
$DIMDLE
 40
0.0
  9
$DIMEXE
 40
0.18
  9
$DIMTP
 40
0.0
  9
$DIMTM
 40
0.0
  9
$DIMTXT
 40
0.18
  9
$DIMCEN
 40
0.09
  9
$DIMTSZ
 40
0.0
  9
$DIMTOL
 70
     0
  9
$DIMLIM
 70
     0
  9
$DIMTIH
 70
     1
  9
$DIMTOH
 70
     1
  9
$DIMSE1
 70
     0
  9
$DIMSE2
 70
     0
  9
$DIMTAD
 70
     0
  9
$DIMZIN
 70
     0
  9
$DIMBLK
  1

  9
$DIMASO
 70
     1
  9
$DIMSHO
 70
     1
  9
$DIMPOST
  1

  9
$DIMAPOST
  1

  9
$DIMALT
 70
     0
  9
$DIMALTD
 70
     2
  9
$DIMALTF
 40
25.4
  9
$DIMLFAC
 40
1.0
  9
$DIMTOFL
 70
     0
  9
$DIMTVP
 40
0.0
  9
$DIMTIX
 70
     0
  9
$DIMSOXD
 70
     0
  9
$DIMSAH
 70
     0
  9
$DIMBLK1
  1

  9
$DIMBLK2
  1

  9
$DIMSTYLE
  2
STANDARD
  9
$DIMCLRD
 70
     0
  9
$DIMCLRE
 70
     0
  9
$DIMCLRT
 70
     0
  9
$DIMTFAC
 40
1.0
  9
$DIMGAP
 40
0.09
  9
$DIMJUST
 70
     0
  9
$DIMSD1
 70
     0
  9
$DIMSD2
 70
     0
  9
$DIMTOLJ
 70
     1
  9
$DIMTZIN
 70
     0
  9
$DIMALTZ
 70
     0
  9
$DIMALTTZ
 70
     0
  9
$DIMFIT
 70
     3
  9
$DIMUPT
 70
     0
  9
$DIMUNIT
 70
     2
  9
$DIMDEC
 70
     4
  9
$DIMTDEC
 70
     4
  9
$DIMALTU
 70
     2
  9
$DIMALTTD
 70
     2
  9
$DIMTXSTY
  7
STANDARD
  9
$DIMAUNIT
 70
     0
  9
$LUNITS
 70
     2
  9
$LUPREC
 70
     4
  9
$SKETCHINC
 40
0.1
  9
$FILLETRAD
 40
0.0
  9
$AUNITS
 70
     0
  9
$AUPREC
 70
     0
  9
$MENU
  1
tom
  9
$ELEVATION
 40
0.0
  9
$PELEVATION
 40
0.0
  9
$THICKNESS
 40
0.0
  9
$LIMCHECK
 70
     0
  9
$BLIPMODE
 70
     0
  9
$CHAMFERA
 40
0.0
  9
$CHAMFERB
 40
0.0
  9
$CHAMFERC
 40
0.0
  9
$CHAMFERD
 40
0.0
  9
$SKPOLY
 70
     0
  9
$TDCREATE
 40
2449738.552458784
  9
$TDUPDATE
 40
2453413.311427835
  9
$TDINDWG
 40
0.0003188310
  9
$TDUSRTIMER
 40
0.0003188310
  9
$USRTIMER
 70
     1
  9
$ANGBASE
 50
0.0
  9
$ANGDIR
 70
     0
  9
$PDMODE
 70
     0
  9
$PDSIZE
 40
0.0
  9
$PLINEWID
 40
0.0
  9
$COORDS
 70
     1
  9
$SPLFRAME
 70
     0
  9
$SPLINETYPE
 70
     6
  9
$SPLINESEGS
 70
     8
  9
$ATTDIA
 70
     0
  9
$ATTREQ
 70
     1
  9
$HANDLING
 70
-16383
  9
$HANDSEED
  5
3AD
  9
$SURFTAB1
 70
     6
  9
$SURFTAB2
 70
     6
  9
$SURFTYPE
 70
     6
  9
$SURFU
 70
     6
  9
$SURFV
 70
     6
  9
$UCSNAME
  2

  9
$UCSORG
 10
0.0
 20
0.0
 30
0.0
  9
$UCSXDIR
 10
1.0
 20
0.0
 30
0.0
  9
$UCSYDIR
 10
0.0
 20
1.0
 30
0.0
  9
$PUCSNAME
  2

  9
$PUCSORG
 10
0.0
 20
0.0
 30
0.0
  9
$PUCSXDIR
 10
1.0
 20
0.0
 30
0.0
  9
$PUCSYDIR
 10
0.0
 20
1.0
 30
0.0
  9
$USERI1
 70
     0
  9
$USERI2
 70
     0
  9
$USERI3
 70
     0
  9
$USERI4
 70
     0
  9
$USERI5
 70
     0
  9
$USERR1
 40
0.0
  9
$USERR2
 40
0.0
  9
$USERR3
 40
0.0
  9
$USERR4
 40
0.0
  9
$USERR5
 40
0.0
  9
$WORLDVIEW
 70
     1
  9
$SHADEDGE
 70
     3
  9
$SHADEDIF
 70
    70
  9
$TILEMODE
 70
     1
  9
$MAXACTVP
 70
    16
  9
$PINSBASE
 10
0.0
 20
0.0
 30
0.0
  9
$PLIMCHECK
 70
     0
  9
$PEXTMIN
 10
1.000000000000000E+20
 20
1.000000000000000E+20
 30
1.000000000000000E+20
  9
$PEXTMAX
 10
-1.000000000000000E+20
 20
-1.000000000000000E+20
 30
-1.000000000000000E+20
  9
$PLIMMIN
 10
0.0
 20
0.0
  9
$PLIMMAX
 10
12.0
 20
9.0
  9
$UNITMODE
 70
     0
  9
$VISRETAIN
 70
     0
  9
$PLINEGEN
 70
     0
  9
$PSLTSCALE
 70
     1
  9
$TREEDEPTH
 70
  3020
  9
$PICKSTYLE
 70
     1
  9
$CMLSTYLE
  2
STANDARD
  9
$CMLJUST
 70
     0
  9
$CMLSCALE
 40
1.0
  9
$PROXYGRAPHICS
 70
     1
  9
$MEASUREMENT
 70
     0
  0
ENDSEC
  0
SECTION
  2
CLASSES
  0
CLASS
  1
ACDBDICTIONARYWDFLT
  2
AcDbDictionaryWithDefault
  3
AutoCAD 2000
 90
        0
280
     0
281
     0
  0
CLASS
  1
ACDBPLACEHOLDER
  2
AcDbPlaceHolder
  3
AutoCAD 2000
 90
        0
280
     0
281
     0
  0
CLASS
  1
LAYOUT
  2
AcDbLayout
  3
AutoCAD 2000
 90
        0
280
     0
281
     0
  0
CLASS
  1
LONG_TRANSACTION
  2
AcDbLongTransaction
  3
AutoCAD 2000
 90
        0
280
     0
281
     0
  0
CLASS
  1
LWPOLYLINE
  2
AcDbPolyline
  3
AutoCAD 2000
 90
        0
280
     0
281
     1
  0
CLASS
  1
HATCH
  2
AcDbHatch
  3
AutoCAD 2000
 90
        0
280
     0
281
     1
  0
CLASS
  1
XRECORD
  2
AcDbXrecord
  3
AutoCAD 2000
 90
        0
280
     0
281
     0
  0
CLASS
  1
LONG_TRANSACTION
  2
AcDbLongTransaction
  3
AutoCAD 2000
 90
        0
280
     0
281
     0
  0
CLASS
  1
LWPOLYLINE
  2
AcDbPolyline
  3
AutoCAD 2000
 90
        0
280
     0
281
     1
  0
CLASS
  1
HATCH
  2
AcDbHatch
  3
AutoCAD 2000
 90
        0
280
     0
281
     1
  0
CLASS
  1
XRECORD
  2
AcDbXrecord
  3
AutoCAD 2000
 90
        0
280
     0
281
     0
  0
ENDSEC
  0
SECTION
  2
TABLES
  0
TABLE
  2
VPORT
  5
20A
330
0
100
AcDbSymbolTable
 70
     2
  0
VPORT
  5
38A
330
20A
100
AcDbSymbolTableRecord
100
AcDbViewportTableRecord
  2
*ACTIVE
 70
     0
 10
0.0
 20
0.0
 11
1.0
 21
1.0
 12
8.250000091093108
 22
5.750500067818644
 13
0.0
 23
0.0
 14
0.125
 24
0.125
 15
0.0
 25
0.0
 16
0.0
 26
0.0
 36
1.0
 17
0.0
 27
0.0
 37
0.0
 40
14.71673652014138
 41
1.647569444444444
 42
50.0
 43
0.0
 44
0.0
 50
0.0
 51
0.0
 71
     0
 72
   100
 73
     1
 74
     1
 75
     0
 76
     0
 77
     0
 78
     0
  0
ENDTAB
  0
TABLE
  2
LTYPE
  5
207
330
0
100
AcDbSymbolTable
 70
     2
  0
LTYPE
  5
215
330
207
100
AcDbSymbolTableRecord
100
AcDbLinetypeTableRecord
  2
BYBLOCK
 70
     0
  3

 72
    65
 73
     0
 40
0.0
  0
LTYPE
  5
216
330
207
100
AcDbSymbolTableRecord
100
AcDbLinetypeTableRecord
  2
BYLAYER
 70
     0
  3

 72
    65
 73
     0
 40
0.0
  0
LTYPE
  5
217
330
207
100
AcDbSymbolTableRecord
100
AcDbLinetypeTableRecord
  2
CONTINUOUS
 70
     0
  3
Solid line
 72
    65
 73
     0
 40
0.0
  0
LTYPE
  5
225
330
207
100
AcDbSymbolTableRecord
100
AcDbLinetypeTableRecord
  2
HIDDEN
 70
     0
  3
__ __ __ __ __ __ __ __ __ __ __ __ __ __ __ __
 72
    65
 73
     2
 40
0.375
 49
0.25
 74
     0
 49
-0.125
 74
     0
  0
ENDTAB
  0
TABLE
  2
LAYER
  5
204
330
0
100
AcDbSymbolTable
 70
     2
  0
LAYER
  5
212
330
204
100
AcDbSymbolTableRecord
100
AcDbLayerTableRecord
  2
0
 70
     0
 62
     7
  6
CONTINUOUS
  0
LAYER
  5
228
330
204
100
AcDbSymbolTableRecord
100
AcDbLayerTableRecord
  2
DAMAN
 70
     0
 62
     5
  6
CONTINUOUS
  0
ENDTAB
  0
TABLE
  2
STYLE
  5
205
330
0
100
AcDbSymbolTable
 70
     1
  0
STYLE
  5
213
330
205
100
AcDbSymbolTableRecord
100
AcDbTextStyleTableRecord
  2
STANDARD
 70
     0
 40
0.0
 41
1.0
 50
0.0
 71
     0
 42
0.188
  3
txt
  4

  0
ENDTAB
  0
TABLE
  2
VIEW
  5
208
330
0
100
AcDbSymbolTable
 70
     0
  0
ENDTAB
  0
TABLE
  2
UCS
  5
209
330
0
100
AcDbSymbolTable
 70
     0
  0
ENDTAB
  0
TABLE
  2
APPID
  5
20B
330
0
100
AcDbSymbolTable
 70
     1
  0
APPID
  5
214
330
20B
100
AcDbSymbolTableRecord
100
AcDbRegAppTableRecord
  2
ACAD
 70
     0
  0
ENDTAB
  0
TABLE
  2
DIMSTYLE
  5
20C
330
0
100
AcDbSymbolTable
 70
     1
  0
DIMSTYLE
105
229
330
20C
100
AcDbSymbolTableRecord
100
AcDbDimStyleTableRecord
  2
STANDARD
 70
     0
  3

  4

  5

  6

  7

 40
1.0
 41
0.18
 42
0.0625
 43
0.38
 44
0.18
 45
0.0
 46
0.0
 47
0.0
 48
0.0
140
0.18
141
0.09
142
0.0
143
25.4
144
1.0
145
0.0
146
1.0
147
0.09
 71
     0
 72
     0
 73
     1
 74
     1
 75
     0
 76
     0
 77
     0
 78
     0
170
     0
171
     2
172
     0
173
     0
174
     0
175
     0
176
     0
177
     0
178
     0
270
     2
271
     4
272
     4
273
     2
274
     2
340
213
275
     0
280
     0
281
     0
282
     0
283
     1
284
     0
285
     0
286
     0
287
     3
288
     0
  0
ENDTAB
  0
TABLE
  2
BLOCK_RECORD
  5
203
330
0
100
AcDbSymbolTable
 70
     9
  0
BLOCK_RECORD
  5
220
102
{ACAD_XDICTIONARY
360
382
102
}
330
203
100
AcDbSymbolTableRecord
100
AcDbBlockTableRecord
  2
*MODEL_SPACE
  0
BLOCK_RECORD
  5
21C
102
{ACAD_XDICTIONARY
360
380
102
}
330
203
100
AcDbSymbolTableRecord
100
AcDbBlockTableRecord
  2
*PAPER_SPACE
  0
BLOCK_RECORD
  5
22B
330
203
100
AcDbSymbolTableRecord
100
AcDbBlockTableRecord
  2
100CROSS
  0
BLOCK_RECORD
  5
22D
330
203
100
AcDbSymbolTableRecord
100
AcDbBlockTableRecord
  2
050CROSS
  0
BLOCK_RECORD
  5
238
330
203
100
AcDbSymbolTableRecord
100
AcDbBlockTableRecord
  2
300MKS
  0
BLOCK_RECORD
  5
261
330
203
100
AcDbSymbolTableRecord
100
AcDbBlockTableRecord
  2
D05
  0
BLOCK_RECORD
  5
278
330
203
100
AcDbSymbolTableRecord
100
AcDbBlockTableRecord
  2
350MKT
  0
BLOCK_RECORD
  5
2BA
330
203
100
AcDbSymbolTableRecord
100
AcDbBlockTableRecord
  2
075NPTFT
  0
BLOCK_RECORD
  5
2C2
330
203
100
AcDbSymbolTableRecord
100
AcDbBlockTableRecord
  2
050NPTFT
  0
BLOCK_RECORD
  5
2CA
330
203
100
AcDbSymbolTableRecord
100
AcDbBlockTableRecord
  2
025NPTFT
  0
BLOCK_RECORD
  5
2D2
330
203
100
AcDbSymbolTableRecord
100
AcDbBlockTableRecord
  2
T3AT
  0
ENDTAB
  0
ENDSEC
  0
SECTION
  2
BLOCKS
  0
BLOCK
  5
221
330
220
100
AcDbEntity
  8
0
100
AcDbBlockBegin
  2
*MODEL_SPACE
 70
     0
 10
0.0
 20
0.0
 30
0.0
  3
*MODEL_SPACE
  1

  0
ENDBLK
  5
222
330
220
100
AcDbEntity
  8
0
100
AcDbBlockEnd
  0
BLOCK
  5
21D
330
21C
100
AcDbEntity
 67
     1
  8
0
100
AcDbBlockBegin
  2
*PAPER_SPACE
 70
     0
 10
0.0
 20
0.0
 30
0.0
  3
*PAPER_SPACE
  1

  0
ENDBLK
  5
21E
330
21C
100
AcDbEntity
 67
     1
  8
0
100
AcDbBlockEnd
  0
BLOCK
  5
22C
330
22B
100
AcDbEntity
  8
0
100
AcDbBlockBegin
  2
100CROSS
 70
     0
 10
5.625
 20
4.59375
 30
0.0
  3
100CROSS
  1

  0
INSERT
  5
22E
330
22B
100
AcDbEntity
  8
0
100
AcDbMInsertBlock
  2
050CROSS
 10
5.625
 20
4.59375
 30
0.0
 70
     1
 71
     1
  0
ENDBLK
  5
22F
330
22B
100
AcDbEntity
  8
0
100
AcDbBlockEnd
  0
BLOCK
  5
230
330
22D
100
AcDbEntity
  8
0
100
AcDbBlockBegin
  2
050CROSS
 70
     0
 10
5.0
 20
5.0
 30
0.0
  3
050CROSS
  1

  0
LINE
  5
231
330
22D
100
AcDbEntity
  8
0
100
AcDbLine
 10
5.0
 20
5.28125
 30
0.0
 11
5.0
 21
5.78125
 31
0.0
  0
LINE
  5
232
330
22D
100
AcDbEntity
  8
0
100
AcDbLine
 10
5.0
 20
4.875
 30
0.0
 11
5.0
 21
5.125
 31
0.0
  0
LINE
  5
233
330
22D
100
AcDbEntity
  8
0
100
AcDbLine
 10
5.0
 20
4.15625
 30
0.0
 11
5.0
 21
4.71875
 31
0.0
  0
LINE
  5
234
330
22D
100
AcDbEntity
  8
0
100
AcDbLine
 10
5.25
 20
5.0
 30
0.0
 11
5.8125
 21
5.0
 31
0.0
  0
LINE
  5
235
330
22D
100
AcDbEntity
  8
0
100
AcDbLine
 10
4.90625
 20
5.0
 30
0.0
 11
5.09375
 21
5.0
 31
0.0
  0
LINE
  5
236
330
22D
100
AcDbEntity
  8
0
100
AcDbLine
 10
4.1875
 20
5.0
 30
0.0
 11
4.75
 21
5.0
 31
0.0
  0
ENDBLK
  5
237
330
22D
100
AcDbEntity
  8
0
100
AcDbBlockEnd
  0
BLOCK
  5
239
330
238
100
AcDbEntity
  8
0
100
AcDbBlockBegin
  2
300MKS
 70
     0
 10
0.0
 20
0.0
 30
0.0
  3
300MKS
  1

  0
LINE
  5
23A
330
238
100
AcDbEntity
  8
DAMAN
100
AcDbLine
 10
-1.0
 20
-0.375
 30
0.0
 11
-0.25
 21
-0.375
 31
0.0
  0
LINE
  5
23B
330
238
100
AcDbEntity
  8
DAMAN
100
AcDbLine
 10
-0.25
 20
-0.25
 30
0.0
 11
-1.0
 21
-0.25
 31
0.0
  0
LINE
  5
23C
330
238
100
AcDbEntity
  8
DAMAN
100
AcDbLine
 10
-0.84375
 20
-0.84375
 30
0.0
 11
-0.53125
 21
-0.84375
 31
0.0
  0
LINE
  5
23D
330
238
100
AcDbEntity
  8
DAMAN
100
AcDbLine
 10
-0.8125
 20
-0.875
 30
0.0
 11
-0.5625
 21
-0.875
 31
0.0
  0
LINE
  5
23E
330
238
100
AcDbEntity
  8
DAMAN
100
AcDbLine
 10
-0.4375
 20
0.0
 30
0.0
 11
-0.9375
 21
0.0
 31
0.0
  0
ARC
  5
23F
330
238
100
AcDbEntity
  8
DAMAN
100
AcDbCircle
 10
-0.6875
 20
-0.348958
 30
0.0
 40
0.348958
100
AcDbArc
 50
65.567302
 51
114.4326979999999
  0
LINE
  5
240
330
238
100
AcDbEntity
  8
DAMAN
100
AcDbLine
 10
-0.6875
 20
0.125
 30
0.0
 11
-0.6875
 21
-1.03125
 31
0.0
  0
LINE
  5
241
330
238
100
AcDbEntity
  8
DAMAN
100
AcDbLine
 10
-0.8125
 20
-0.875
 30
0.0
 11
-0.8125
 21
-0.375
 31
0.0
  0
LINE
  5
242
330
238
100
AcDbEntity
  8
DAMAN
100
AcDbLine
 10
-0.84375
 20
-0.375
 30
0.0
 11
-0.84375
 21
-0.84375
 31
0.0
  0
LINE
  5
243
330
238
100
AcDbEntity
  8
DAMAN
100
AcDbLine
 10
-0.84375
 20
-0.84375
 30
0.0
 11
-0.8125
 21
-0.875
 31
0.0
  0
LINE
  5
244
330
238
100
AcDbEntity
  8
DAMAN
100
AcDbLine
 10
-1.0
 20
-0.25
 30
0.0
 11
-1.0
 21
-0.375
 31
0.0
  0
ARC
  5
245
330
238
100
AcDbEntity
  8
DAMAN
100
AcDbCircle
 10
-0.904006
 20
-0.098958
 30
0.0
 40
0.098958
100
AcDbArc
 50
43.17355100000001
 51
136.826449
  0
LINE
  5
246
330
238
100
AcDbEntity
  8
DAMAN
100
AcDbLine
 10
-0.9761749999999999
 20
-0.03125
 30
0.0
 11
-0.9761749999999999
 21
-0.25
 31
0.0
  0
LINE
  5
247
330
238
100
AcDbEntity
  8
DAMAN
100
AcDbLine
 10
-0.9761749999999999
 20
-0.03125
 30
0.0
 11
-0.9375
 21
0.0
 31
0.0
  0
LINE
  5
248
330
238
100
AcDbEntity
  8
DAMAN
100
AcDbLine
 10
-0.8318379999999997
 20
-0.25
 30
0.0
 11
-0.8318379999999997
 21
-0.03125
 31
0.0
  0
LINE
  5
249
330
238
100
AcDbEntity
  8
DAMAN
100
AcDbLine
 10
0.0
 20
-0.125
 30
0.0
 11
0.0
 21
0.625
 31
0.0
  0
LINE
  5
24A
330
238
100
AcDbEntity
  8
DAMAN
100
AcDbLine
 10
-0.125
 20
0.625
 30
0.0
 11
-0.125
 21
-0.125
 31
0.0
  0
LINE
  5
24B
330
238
100
AcDbEntity
  8
DAMAN
100
AcDbLine
 10
-0.5625
 20
-0.375
 30
0.0
 11
-0.5625
 21
-0.875
 31
0.0
  0
LINE
  5
24C
330
238
100
AcDbEntity
  8
DAMAN
100
AcDbLine
 10
-0.53125
 20
-0.84375
 30
0.0
 11
-0.53125
 21
-0.375
 31
0.0
  0
LINE
  5
24D
330
238
100
AcDbEntity
  8
DAMAN
100
AcDbLine
 10
-0.5625
 20
-0.875
 30
0.0
 11
-0.53125
 21
-0.84375
 31
0.0
  0
ARC
  5
24E
330
238
100
AcDbEntity
  8
DAMAN
100
AcDbCircle
 10
-0.25
 20
-0.125
 30
0.0
 40
0.25
100
AcDbArc
 50
270.0
 51
0.0
  0
ARC
  5
24F
330
238
100
AcDbEntity
  8
DAMAN
100
AcDbCircle
 10
-0.25
 20
-0.125
 30
0.0
 40
0.125
100
AcDbArc
 50
270.0
 51
0.0
  0
LINE
  5
250
330
238
100
AcDbEntity
  8
DAMAN
100
AcDbLine
 10
-0.5431620000000002
 20
-0.03125
 30
0.0
 11
-0.5431620000000002
 21
-0.25
 31
0.0
  0
LINE
  5
251
330
238
100
AcDbEntity
  8
DAMAN
100
AcDbLine
 10
-0.398825
 20
-0.25
 30
0.0
 11
-0.398825
 21
-0.03125
 31
0.0
  0
ARC
  5
252
330
238
100
AcDbEntity
  8
DAMAN
100
AcDbCircle
 10
-0.470994
 20
-0.098958
 30
0.0
 40
0.098958
100
AcDbArc
 50
43.17355100000001
 51
136.826449
  0
LINE
  5
253
330
238
100
AcDbEntity
  8
DAMAN
100
AcDbLine
 10
-0.398825
 20
-0.03125
 30
0.0
 11
-0.4375
 21
0.0
 31
0.0
  0
LINE
  5
254
330
238
100
AcDbEntity
  8
DAMAN
100
AcDbLine
 10
-0.125
 20
0.168162
 30
0.0
 11
-0.34375
 21
0.168162
 31
0.0
  0
LINE
  5
255
330
238
100
AcDbEntity
  8
DAMAN
100
AcDbLine
 10
-0.34375
 20
0.023825
 30
0.0
 11
-0.125
 21
0.023825
 31
0.0
  0
LINE
  5
256
330
238
100
AcDbEntity
  8
DAMAN
100
AcDbLine
 10
-0.34375
 20
0.4568380000000002
 30
0.0
 11
-0.125
 21
0.4568380000000002
 31
0.0
  0
LINE
  5
257
330
238
100
AcDbEntity
  8
DAMAN
100
AcDbLine
 10
-0.125
 20
0.6011750000000001
 30
0.0
 11
-0.34375
 21
0.6011750000000001
 31
0.0
  0
ARC
  5
258
330
238
100
AcDbEntity
  8
DAMAN
100
AcDbCircle
 10
-0.026042
 20
0.3125
 30
0.0
 40
0.348958
100
AcDbArc
 50
155.567302
 51
204.432698
  0
LINE
  5
259
330
238
100
AcDbEntity
  8
DAMAN
100
AcDbLine
 10
-0.375
 20
0.5625
 30
0.0
 11
-0.375
 21
0.0625
 31
0.0
  0
LINE
  5
25A
330
238
100
AcDbEntity
  8
DAMAN
100
AcDbLine
 10
-0.34375
 20
0.023825
 30
0.0
 11
-0.375
 21
0.0625
 31
0.0
  0
ARC
  5
25B
330
238
100
AcDbEntity
  8
DAMAN
100
AcDbCircle
 10
-0.276042
 20
0.095994
 30
0.0
 40
0.098958
100
AcDbArc
 50
133.173551
 51
226.826449
  0
LINE
  5
25C
330
238
100
AcDbEntity
  8
DAMAN
100
AcDbLine
 10
-0.34375
 20
0.6011750000000001
 30
0.0
 11
-0.375
 21
0.5625
 31
0.0
  0
ARC
  5
25D
330
238
100
AcDbEntity
  8
DAMAN
100
AcDbCircle
 10
-0.276042
 20
0.5290060000000001
 30
0.0
 40
0.098958
100
AcDbArc
 50
133.173551
 51
226.826449
  0
LINE
  5
25E
330
238
100
AcDbEntity
  8
DAMAN
100
AcDbLine
 10
0.0
 20
0.625
 30
0.0
 11
-0.125
 21
0.625
 31
0.0
  0
LINE
  5
25F
330
238
100
AcDbEntity
  8
DAMAN
100
AcDbLine
 10
-0.5
 20
0.3125
 30
0.0
 11
0.375
 21
0.3125
 31
0.0
  0
ENDBLK
  5
260
330
238
100
AcDbEntity
  8
0
100
AcDbBlockEnd
  0
BLOCK
  5
262
330
261
100
AcDbEntity
  8
0
100
AcDbBlockBegin
  2
D05
 70
     0
 10
0.0
 20
0.0
 30
0.0
  3
D05
  1

  0
CIRCLE
  5
263
330
261
100
AcDbEntity
  8
DAMAN
100
AcDbCircle
 10
1.8125
 20
0.0
 30
0.0
 40
0.125
  0
CIRCLE
  5
264
330
261
100
AcDbEntity
  8
DAMAN
100
AcDbCircle
 10
1.8125
 20
-2.125
 30
0.0
 40
0.125
  0
CIRCLE
  5
265
330
261
100
AcDbEntity
  8
DAMAN
100
AcDbCircle
 10
0.0
 20
0.0
 30
0.0
 40
0.125
  0
CIRCLE
  5
266
330
261
100
AcDbEntity
  8
DAMAN
100
AcDbCircle
 10
0.0
 20
-2.125
 30
0.0
 40
0.125
  0
INSERT
  5
267
330
261
100
AcDbEntity
  8
DAMAN
100
AcDbMInsertBlock
  2
100CROSS
 10
0.0
 20
0.0
 30
0.0
 41
0.25
 42
0.25
 70
     1
 71
     1
  0
CIRCLE
  5
268
330
261
100
AcDbEntity
  8
DAMAN
100
AcDbCircle
 10
0.0
 20
0.0
 30
0.0
 40
0.1055
  0
CIRCLE
  5
269
330
261
100
AcDbEntity
  8
DAMAN
100
AcDbCircle
 10
0.0
 20
-2.125
 30
0.0
 40
0.1055
  0
INSERT
  5
26A
330
261
100
AcDbEntity
  8
DAMAN
100
AcDbMInsertBlock
  2
100CROSS
 10
0.0
 20
-2.125
 30
0.0
 41
0.25
 42
0.25
 70
     1
 71
     1
  0
CIRCLE
  5
26B
330
261
100
AcDbEntity
  8
DAMAN
100
AcDbCircle
 10
1.8125
 20
0.0
 30
0.0
 40
0.1055
  0
INSERT
  5
26C
330
261
100
AcDbEntity
  8
DAMAN
100
AcDbMInsertBlock
  2
100CROSS
 10
1.8125
 20
0.0
 30
0.0
 41
0.25
 42
0.25
 70
     1
 71
     1
  0
CIRCLE
  5
26D
330
261
100
AcDbEntity
  8
DAMAN
100
AcDbCircle
 10
1.8125
 20
-2.125
 30
0.0
 40
0.1055
  0
INSERT
  5
26E
330
261
100
AcDbEntity
  8
DAMAN
100
AcDbMInsertBlock
  2
100CROSS
 10
1.8125
 20
-2.125
 30
0.0
 41
0.25
 42
0.25
 70
     1
 71
     1
  0
INSERT
  5
26F
330
261
100
AcDbEntity
  8
DAMAN
100
AcDbMInsertBlock
  2
100CROSS
 10
0.5310000000000002
 20
-0.125
 30
0.0
 41
0.4379999999999999
 42
0.4379999999999999
 70
     1
 71
     1
  0
CIRCLE
  5
270
330
261
100
AcDbEntity
  8
DAMAN
100
AcDbCircle
 10
0.5310000000000002
 20
-0.125
 30
0.0
 40
0.21875
  0
CIRCLE
  5
271
330
261
100
AcDbEntity
  8
DAMAN
100
AcDbCircle
 10
0.9685
 20
-0.6560000000000002
 30
0.0
 40
0.21875
  0
INSERT
  5
272
330
261
100
AcDbEntity
  8
DAMAN
100
AcDbMInsertBlock
  2
100CROSS
 10
0.9685
 20
-0.6560000000000002
 30
0.0
 41
0.4379999999999999
 42
0.4379999999999999
 70
     1
 71
     1
  0
INSERT
  5
273
330
261
100
AcDbEntity
  8
DAMAN
100
AcDbMInsertBlock
  2
100CROSS
 10
0.9685
 20
-1.468499999999998
 30
0.0
 41
0.4379999999999999
 42
0.4379999999999999
 70
     1
 71
     1
  0
CIRCLE
  5
274
330
261
100
AcDbEntity
  8
DAMAN
100
AcDbCircle
 10
0.9685
 20
-1.468499999999998
 30
0.0
 40
0.21875
  0
CIRCLE
  5
275
330
261
100
AcDbEntity
  8
DAMAN
100
AcDbCircle
 10
1.5625
 20
-1.062249999999999
 30
0.0
 40
0.21875
  0
INSERT
  5
276
330
261
100
AcDbEntity
  8
DAMAN
100
AcDbMInsertBlock
  2
100CROSS
 10
1.5625
 20
-1.062249999999999
 30
0.0
 41
0.4379999999999999
 42
0.4379999999999999
 70
     1
 71
     1
  0
ENDBLK
  5
277
330
261
100
AcDbEntity
  8
0
100
AcDbBlockEnd
  0
BLOCK
  5
279
330
278
100
AcDbEntity
  8
0
100
AcDbBlockBegin
  2
350MKT
 70
     0
 10
0.0
 20
0.0
 30
0.0
  3
350MKT
  1

  0
LINE
  5
27A
330
278
100
AcDbEntity
  8
DAMAN
100
AcDbLine
 10
0.6245000000000001
 20
-0.2495
 30
0.0
 11
0.6245000000000001
 21
3.2505
 31
0.0
  0
INSERT
  5
27B
330
278
100
AcDbEntity
  8
DAMAN
100
AcDbMInsertBlock
  2
100CROSS
 10
0.312
 20
0.313
 30
0.0
 41
-0.34
 42
0.34
 43
0.34
 50
270.0
 70
     1
 71
     1
  0
LWPOLYLINE
  5
27C
330
278
100
AcDbEntity
  8
DAMAN
100
AcDbPolyline
 90
        6
 70
   129
 43
0.0
 10
0.0625
 20
0.4568380000000002
 10
0.0625
 20
0.168162
 10
0.3125
 20
0.023825
 10
0.5625
 20
0.168162
 10
0.5625
 20
0.4568380000000002
 10
0.3125
 20
0.6011750000000001
  0
CIRCLE
  5
284
330
278
100
AcDbEntity
  8
DAMAN
100
AcDbCircle
 10
0.313
 20
0.313
 30
0.0
 40
0.249501
  0
LINE
  5
285
330
278
100
AcDbEntity
  8
DAMAN
100
AcDbLine
 10
-0.84325
 20
2.53175
 30
0.0
 11
-0.3745
 21
2.53175
 31
0.0
  0
LINE
  5
286
330
278
100
AcDbEntity
  8
DAMAN
100
AcDbLine
 10
-0.3745
 20
2.84425
 30
0.0
 11
-0.84325
 21
2.84425
 31
0.0
  0
LINE
  5
287
330
278
100
AcDbEntity
  8
DAMAN
100
AcDbLine
 10
-0.8745
 20
2.813
 30
0.0
 11
-0.3745
 21
2.813
 31
0.0
  0
LINE
  5
288
330
278
100
AcDbEntity
  8
DAMAN
100
AcDbLine
 10
-0.3745
 20
2.563
 30
0.0
 11
-0.8745
 21
2.563
 31
0.0
  0
LINE
  5
289
330
278
100
AcDbEntity
  8
DAMAN
100
AcDbLine
 10
0.1255
 20
2.688
 30
0.0
 11
-1.03075
 21
2.688
 31
0.0
  0
LINE
  5
28A
330
278
100
AcDbEntity
  8
DAMAN
100
AcDbLine
 10
-0.84325
 20
2.84425
 30
0.0
 11
-0.84325
 21
2.53175
 31
0.0
  0
LINE
  5
28B
330
278
100
AcDbEntity
  8
DAMAN
100
AcDbLine
 10
-0.84325
 20
2.84425
 30
0.0
 11
-0.8745
 21
2.813
 31
0.0
  0
LINE
  5
28C
330
278
100
AcDbEntity
  8
DAMAN
100
AcDbLine
 10
-0.8745
 20
2.563
 30
0.0
 11
-0.84325
 21
2.53175
 31
0.0
  0
LINE
  5
28D
330
278
100
AcDbEntity
  8
DAMAN
100
AcDbLine
 10
-0.8745
 20
2.813
 30
0.0
 11
-0.8745
 21
2.563
 31
0.0
  0
INSERT
  5
28E
330
278
100
AcDbEntity
  8
DAMAN
100
AcDbMInsertBlock
  2
100CROSS
 10
0.312
 20
2.688
 30
0.0
 41
-0.34
 42
0.34
 43
0.34
 50
270.0
 70
     1
 71
     1
  0
LWPOLYLINE
  5
28F
330
278
100
AcDbEntity
  8
DAMAN
100
AcDbPolyline
 90
        6
 70
   129
 43
0.0
 10
0.0625
 20
2.831838
 10
0.0625
 20
2.543161999999999
 10
0.3125
 20
2.398824999999999
 10
0.5625
 20
2.543161999999999
 10
0.5625
 20
2.831838
 10
0.3125
 20
2.976174999999998
  0
CIRCLE
  5
297
330
278
100
AcDbEntity
  8
DAMAN
100
AcDbCircle
 10
0.313
 20
2.688
 30
0.0
 40
0.249501
  0
LINE
  5
298
330
278
100
AcDbEntity
  8
DAMAN
100
AcDbLine
 10
0.0005
 20
2.438
 30
0.0
 11
0.0005
 21
2.938
 31
0.0
  0
ARC
  5
299
330
278
100
AcDbEntity
  8
DAMAN
100
AcDbCircle
 10
-0.098458
 20
2.471493999999998
 30
0.0
 40
0.098958
100
AcDbArc
 50
313.1735509999998
 51
46.82644899999999
  0
LINE
  5
29A
330
278
100
AcDbEntity
  8
DAMAN
100
AcDbLine
 10
-0.2495
 20
2.399325
 30
0.0
 11
-0.03075
 21
2.399325
 31
0.0
  0
LINE
  5
29B
330
278
100
AcDbEntity
  8
DAMAN
100
AcDbLine
 10
-0.03075
 20
2.399325
 30
0.0
 11
0.0005
 21
2.438
 31
0.0
  0
LINE
  5
29C
330
278
100
AcDbEntity
  8
DAMAN
100
AcDbLine
 10
0.6245000000000001
 20
3.2505
 30
0.0
 11
-0.3755
 21
3.2505
 31
0.0
  0
LINE
  5
29D
330
278
100
AcDbEntity
  8
DAMAN
100
AcDbLine
 10
-0.2495
 20
2.832338
 30
0.0
 11
-0.03075
 21
2.832338
 31
0.0
  0
LINE
  5
29E
330
278
100
AcDbEntity
  8
DAMAN
100
AcDbLine
 10
-0.03075
 20
2.543661999999998
 30
0.0
 11
-0.2495
 21
2.543661999999998
 31
0.0
  0
LINE
  5
29F
330
278
100
AcDbEntity
  8
DAMAN
100
AcDbLine
 10
-0.03075
 20
2.976675
 30
0.0
 11
-0.2495
 21
2.976675
 31
0.0
  0
ARC
  5
2A0
330
278
100
AcDbEntity
  8
DAMAN
100
AcDbCircle
 10
-0.348458
 20
2.688
 30
0.0
 40
0.348958
100
AcDbArc
 50
335.5673019999998
 51
24.432698
  0
ARC
  5
2A1
330
278
100
AcDbEntity
  8
DAMAN
100
AcDbCircle
 10
-0.098458
 20
2.904505999999998
 30
0.0
 40
0.098958
100
AcDbArc
 50
313.1735509999998
 51
46.82644899999999
  0
LINE
  5
2A2
330
278
100
AcDbEntity
  8
DAMAN
100
AcDbLine
 10
-0.03075
 20
2.976675
 30
0.0
 11
0.0005
 21
2.938
 31
0.0
  0
LINE
  5
2A3
330
278
100
AcDbEntity
  8
DAMAN
100
AcDbLine
 10
-0.3745
 20
0.46925
 30
0.0
 11
-0.84325
 21
0.46925
 31
0.0
  0
LINE
  5
2A4
330
278
100
AcDbEntity
  8
DAMAN
100
AcDbLine
 10
-0.8745
 20
0.4379999999999999
 30
0.0
 11
-0.3745
 21
0.4379999999999999
 31
0.0
  0
LINE
  5
2A5
330
278
100
AcDbEntity
  8
DAMAN
100
AcDbLine
 10
-0.84325
 20
0.15675
 30
0.0
 11
-0.3745
 21
0.15675
 31
0.0
  0
LINE
  5
2A6
330
278
100
AcDbEntity
  8
DAMAN
100
AcDbLine
 10
-0.3745
 20
0.188
 30
0.0
 11
-0.8745
 21
0.188
 31
0.0
  0
LINE
  5
2A7
330
278
100
AcDbEntity
  8
DAMAN
100
AcDbLine
 10
0.1255
 20
0.313
 30
0.0
 11
-1.03075
 21
0.313
 31
0.0
  0
LINE
  5
2A8
330
278
100
AcDbEntity
  8
DAMAN
100
AcDbLine
 10
-0.84325
 20
0.46925
 30
0.0
 11
-0.84325
 21
0.15675
 31
0.0
  0
LINE
  5
2A9
330
278
100
AcDbEntity
  8
DAMAN
100
AcDbLine
 10
-0.8745
 20
0.188
 30
0.0
 11
-0.84325
 21
0.15675
 31
0.0
  0
LINE
  5
2AA
330
278
100
AcDbEntity
  8
DAMAN
100
AcDbLine
 10
-0.8745
 20
0.4379999999999999
 30
0.0
 11
-0.8745
 21
0.188
 31
0.0
  0
LINE
  5
2AB
330
278
100
AcDbEntity
  8
DAMAN
100
AcDbLine
 10
-0.84325
 20
0.46925
 30
0.0
 11
-0.8745
 21
0.4379999999999999
 31
0.0
  0
LINE
  5
2AC
330
278
100
AcDbEntity
  8
DAMAN
100
AcDbLine
 10
0.0005
 20
0.063
 30
0.0
 11
0.0005
 21
0.5629999999999999
 31
0.0
  0
ARC
  5
2AD
330
278
100
AcDbEntity
  8
DAMAN
100
AcDbCircle
 10
-0.098458
 20
0.5295060000000002
 30
0.0
 40
0.098958
100
AcDbArc
 50
313.1735509999998
 51
46.82644899999999
  0
LINE
  5
2AE
330
278
100
AcDbEntity
  8
DAMAN
100
AcDbLine
 10
-0.2495
 20
0.4573380000000001
 30
0.0
 11
-0.03075
 21
0.4573380000000001
 31
0.0
  0
LINE
  5
2AF
330
278
100
AcDbEntity
  8
DAMAN
100
AcDbLine
 10
-0.2495
 20
0.024325
 30
0.0
 11
-0.03075
 21
0.024325
 31
0.0
  0
LINE
  5
2B0
330
278
100
AcDbEntity
  8
DAMAN
100
AcDbLine
 10
-0.03075
 20
0.168662
 30
0.0
 11
-0.2495
 21
0.168662
 31
0.0
  0
ARC
  5
2B1
330
278
100
AcDbEntity
  8
DAMAN
100
AcDbCircle
 10
-0.098458
 20
0.096494
 30
0.0
 40
0.098958
100
AcDbArc
 50
313.1735509999998
 51
46.82644899999999
  0
LINE
  5
2B2
330
278
100
AcDbEntity
  8
DAMAN
100
AcDbLine
 10
-0.03075
 20
0.024325
 30
0.0
 11
0.0005
 21
0.063
 31
0.0
  0
ARC
  5
2B3
330
278
100
AcDbEntity
  8
DAMAN
100
AcDbCircle
 10
-0.348458
 20
0.313
 30
0.0
 40
0.348958
100
AcDbArc
 50
335.5673019999998
 51
24.432698
  0
LINE
  5
2B4
330
278
100
AcDbEntity
  8
DAMAN
100
AcDbLine
 10
-0.03075
 20
0.601675
 30
0.0
 11
-0.2495
 21
0.601675
 31
0.0
  0
LINE
  5
2B5
330
278
100
AcDbEntity
  8
DAMAN
100
AcDbLine
 10
-0.03075
 20
0.601675
 30
0.0
 11
0.0005
 21
0.5629999999999999
 31
0.0
  0
LINE
  5
2B6
330
278
100
AcDbEntity
  8
DAMAN
100
AcDbLine
 10
-0.2555
 20
3.2505
 30
0.0
 11
-0.2555
 21
-0.2495
 31
0.0
  0
LINE
  5
2B7
330
278
100
AcDbEntity
  8
DAMAN
100
AcDbLine
 10
-0.3755
 20
3.2505
 30
0.0
 11
-0.3755
 21
-0.2495
 31
0.0
  0
LINE
  5
2B8
330
278
100
AcDbEntity
  8
DAMAN
100
AcDbLine
 10
-0.3755
 20
-0.2495
 30
0.0
 11
0.6245000000000001
 21
-0.2495
 31
0.0
  0
ENDBLK
  5
2B9
330
278
100
AcDbEntity
  8
0
100
AcDbBlockEnd
  0
BLOCK
  5
2BB
330
2BA
100
AcDbEntity
  8
0
100
AcDbBlockBegin
  2
075NPTFT
 70
     0
 10
0.0
 20
0.0
 30
0.0
  3
075NPTFT
  1

  0
CIRCLE
  5
2BC
330
2BA
100
AcDbEntity
  8
DAMAN
100
AcDbCircle
 10
0.0
 20
0.0
 30
0.0
 40
0.4920000000000001
  0
CIRCLE
  5
2BD
330
2BA
100
AcDbEntity
  8
DAMAN
100
AcDbCircle
 10
0.0
 20
0.0
 30
0.0
 40
0.4530000000000002
  0
CIRCLE
  5
2BE
330
2BA
100
AcDbEntity
  8
DAMAN
100
AcDbCircle
 10
0.0
 20
0.0
 30
0.0
 40
0.8125
  0
INSERT
  5
2BF
330
2BA
100
AcDbEntity
  8
DAMAN
100
AcDbMInsertBlock
  2
100CROSS
 10
0.0
 20
0.0
 30
0.0
 41
1.33
 42
1.33
 70
     1
 71
     1
  0
CIRCLE
  5
2C0
330
2BA
100
AcDbEntity
  8
DAMAN
100
AcDbCircle
 10
0.0
 20
0.0
 30
0.0
 40
0.53125
  0
ENDBLK
  5
2C1
330
2BA
100
AcDbEntity
  8
0
100
AcDbBlockEnd
  0
BLOCK
  5
2C3
330
2C2
100
AcDbEntity
  8
0
100
AcDbBlockBegin
  2
050NPTFT
 70
     0
 10
0.0
 20
0.0
 30
0.0
  3
050NPTFT
  1

  0
CIRCLE
  5
2C4
330
2C2
100
AcDbEntity
  8
DAMAN
100
AcDbCircle
 10
0.0
 20
0.0
 30
0.0
 40
0.375
  0
CIRCLE
  5
2C5
330
2C2
100
AcDbEntity
  8
DAMAN
100
AcDbCircle
 10
0.0
 20
0.0
 30
0.0
 40
0.3125
  0
CIRCLE
  5
2C6
330
2C2
100
AcDbEntity
  8
DAMAN
100
AcDbCircle
 10
0.0
 20
0.0
 30
0.0
 40
0.3439999999999999
  0
INSERT
  5
2C7
330
2C2
100
AcDbEntity
  8
DAMAN
100
AcDbMInsertBlock
  2
100CROSS
 10
0.0
 20
0.0
 30
0.0
 41
0.88
 42
0.88
 70
     1
 71
     1
  0
CIRCLE
  5
2C8
330
2C2
100
AcDbEntity
  8
DAMAN
100
AcDbCircle
 10
0.0
 20
0.0
 30
0.0
 40
0.594
  0
ENDBLK
  5
2C9
330
2C2
100
AcDbEntity
  8
0
100
AcDbBlockEnd
  0
BLOCK
  5
2CB
330
2CA
100
AcDbEntity
  8
0
100
AcDbBlockBegin
  2
025NPTFT
 70
     0
 10
0.0
 20
0.0
 30
0.0
  3
025NPTFT
  1

  0
CIRCLE
  5
2CC
330
2CA
100
AcDbEntity
  8
DAMAN
100
AcDbCircle
 10
0.0
 20
0.0
 30
0.0
 40
0.4375
  0
INSERT
  5
2CD
330
2CA
100
AcDbEntity
  8
DAMAN
100
AcDbMInsertBlock
  2
100CROSS
 10
0.0
 20
0.0
 30
0.0
 41
0.8
 42
0.8
 70
     1
 71
     1
  0
CIRCLE
  5
2CE
330
2CA
100
AcDbEntity
  8
DAMAN
100
AcDbCircle
 10
0.0
 20
0.0
 30
0.0
 40
0.21875
  0
CIRCLE
  5
2CF
330
2CA
100
AcDbEntity
  8
DAMAN
100
AcDbCircle
 10
0.0
 20
0.0
 30
0.0
 40
0.1875
  0
CIRCLE
  5
2D0
330
2CA
100
AcDbEntity
  8
DAMAN
100
AcDbCircle
 10
0.0
 20
0.0
 30
0.0
 40
0.2435
  0
ENDBLK
  5
2D1
330
2CA
100
AcDbEntity
  8
0
100
AcDbBlockEnd
  0
BLOCK
  5
2D3
330
2D2
100
AcDbEntity
  8
DAMAN
100
AcDbBlockBegin
  2
T3AT
 70
     0
 10
0.0
 20
0.0
 30
0.0
  3
T3AT
  1

  0
CIRCLE
  5
2D4
330
2D2
100
AcDbEntity
  8
DAMAN
100
AcDbCircle
 10
0.0
 20
0.0
 30
0.0
 40
0.4665
  0
CIRCLE
  5
2D5
330
2D2
100
AcDbEntity
  8
DAMAN
100
AcDbCircle
 10
0.0
 20
0.0
 30
0.0
 40
0.4375
  0
CIRCLE
  5
2D6
330
2D2
100
AcDbEntity
  8
DAMAN
100
AcDbCircle
 10
0.0
 20
0.0
 30
0.0
 40
0.5
  0
INSERT
  5
2D7
330
2D2
100
AcDbEntity
  8
DAMAN
100
AcDbMInsertBlock
  2
100CROSS
 10
0.0
 20
0.0
 30
0.0
 41
0.88
 42
0.88
 70
     1
 71
     1
  0
CIRCLE
  5
2D8
330
2D2
100
AcDbEntity
  8
DAMAN
100
AcDbCircle
 10
0.0
 20
0.0
 30
0.0
 40
0.5160000000000001
  0
CIRCLE
  5
2D9
330
2D2
100
AcDbEntity
  8
DAMAN
100
AcDbCircle
 10
0.0
 20
0.0
 30
0.0
 40
0.5390000000000002
  0
CIRCLE
  5
2DA
330
2D2
100
AcDbEntity
  8
DAMAN
100
AcDbCircle
 10
0.0
 20
0.0
 30
0.0
 40
0.3439999999999999
  0
ENDBLK
  5
2DB
330
2D2
100
AcDbEntity
  8
DAMAN
100
AcDbBlockEnd
  0
ENDSEC
  0
SECTION
  2
ENTITIES
  0
LINE
  5
2DC
330
220
100
AcDbEntity
  8
DAMAN
100
AcDbLine
 10
-0.5
 20
7.5
 30
0.0
 11
3.0
 21
7.5
 31
0.0
  0
LINE
  5
2DD
330
220
100
AcDbEntity
  8
DAMAN
100
AcDbLine
 10
3.0
 20
7.5
 30
0.0
 11
3.0
 21
4.0
 31
0.0
  0
LINE
  5
2DE
330
220
100
AcDbEntity
  8
DAMAN
100
AcDbLine
 10
3.0
 20
4.0
 30
0.0
 11
-0.5
 21
4.0
 31
0.0
  0
LINE
  5
2DF
330
220
100
AcDbEntity
  8
DAMAN
100
AcDbLine
 10
-0.5
 20
4.0
 30
0.0
 11
-0.5
 21
7.5
 31
0.0
  0
LINE
  5
2E0
330
220
100
AcDbEntity
  8
DAMAN
100
AcDbLine
 10
5.0
 20
7.5
 30
0.0
 11
5.0
 21
4.0
 31
0.0
  0
LINE
  5
2E1
330
220
100
AcDbEntity
  8
DAMAN
100
AcDbLine
 10
5.0
 20
4.0
 30
0.0
 11
11.5
 21
4.0
 31
0.0
  0
LINE
  5
2E2
330
220
100
AcDbEntity
  8
DAMAN
100
AcDbLine
 10
11.5
 20
4.0
 30
0.0
 11
11.5
 21
7.5
 31
0.0
  0
LINE
  5
2E3
330
220
100
AcDbEntity
  8
DAMAN
100
AcDbLine
 10
11.5
 20
7.5
 30
0.0
 11
5.0
 21
7.5
 31
0.0
  0
LINE
  5
2E4
330
220
100
AcDbEntity
  8
DAMAN
100
AcDbLine
 10
5.0
 20
3.0
 30
0.0
 11
11.5
 21
3.0
 31
0.0
  0
LINE
  5
2E5
330
220
100
AcDbEntity
  8
DAMAN
100
AcDbLine
 10
11.5
 20
3.0
 30
0.0
 11
11.5
 21
-0.5
 31
0.0
  0
LINE
  5
2E6
330
220
100
AcDbEntity
  8
DAMAN
100
AcDbLine
 10
11.5
 20
-0.5
 30
0.0
 11
5.0
 21
-0.5
 31
0.0
  0
LINE
  5
2E7
330
220
100
AcDbEntity
  8
DAMAN
100
AcDbLine
 10
5.0
 20
-0.5
 30
0.0
 11
5.0
 21
3.0
 31
0.0
  0
LINE
  5
2E8
330
220
100
AcDbEntity
  8
DAMAN
100
AcDbLine
 10
12.4995
 20
4.000499999999998
 30
0.0
 11
12.4995
 21
7.500499999999998
 31
0.0
  0
INSERT
  5
2E9
330
220
100
AcDbEntity
  8
DAMAN
100
AcDbMInsertBlock
  2
100CROSS
 10
12.187
 20
4.562999999999998
 30
0.0
 41
-0.34
 42
0.34
 43
0.34
 50
270.0
 70
     1
 71
     1
  0
CIRCLE
  5
2EA
330
220
100
AcDbEntity
  8
DAMAN
100
AcDbCircle
 10
12.18799999999999
 20
4.562999999999998
 30
0.0
 40
0.249501
  0
LINE
  5
2EB
330
220
100
AcDbEntity
  8
DAMAN
100
AcDbLine
 10
12.0005
 20
6.937999999999998
 30
0.0
 11
11.430419
 21
6.937999999999998
 31
0.0
  0
INSERT
  5
2EC
330
220
100
AcDbEntity
  8
DAMAN
100
AcDbMInsertBlock
  2
100CROSS
 10
12.187
 20
6.937999999999998
 30
0.0
 41
-0.34
 42
0.34
 43
0.34
 50
270.0
 70
     1
 71
     1
  0
CIRCLE
  5
2ED
330
220
100
AcDbEntity
  8
DAMAN
100
AcDbCircle
 10
12.18799999999999
 20
6.937999999999998
 30
0.0
 40
0.249501
  0
LINE
  5
2EE
330
220
100
AcDbEntity
  8
DAMAN
100
AcDbLine
 10
11.8755
 20
6.687999999999998
 30
0.0
 11
11.8755
 21
7.187999999999998
 31
0.0
  0
ARC
  5
2EF
330
220
100
AcDbEntity
  8
DAMAN
100
AcDbCircle
 10
11.77654199999998
 20
6.721493999999998
 30
0.0
 40
0.098958
100
AcDbArc
 50
313.1735509999998
 51
46.82644899999999
  0
LINE
  5
2F0
330
220
100
AcDbEntity
  8
DAMAN
100
AcDbLine
 10
11.6255
 20
6.649325
 30
0.0
 11
11.84425
 21
6.649325
 31
0.0
  0
LINE
  5
2F1
330
220
100
AcDbEntity
  8
DAMAN
100
AcDbLine
 10
11.84425
 20
6.649325
 30
0.0
 11
11.8755
 21
6.687999999999998
 31
0.0
  0
LINE
  5
2F2
330
220
100
AcDbEntity
  8
DAMAN
100
AcDbLine
 10
12.4995
 20
7.500499999999998
 30
0.0
 11
11.4995
 21
7.500499999999998
 31
0.0
  0
LINE
  5
2F3
330
220
100
AcDbEntity
  8
DAMAN
100
AcDbLine
 10
11.6255
 20
7.082338
 30
0.0
 11
11.84425
 21
7.082338
 31
0.0
  0
LINE
  5
2F4
330
220
100
AcDbEntity
  8
DAMAN
100
AcDbLine
 10
11.84425
 20
6.793661999999998
 30
0.0
 11
11.6255
 21
6.793661999999998
 31
0.0
  0
LINE
  5
2F5
330
220
100
AcDbEntity
  8
DAMAN
100
AcDbLine
 10
11.84425
 20
7.226675
 30
0.0
 11
11.6255
 21
7.226675
 31
0.0
  0
ARC
  5
2F6
330
220
100
AcDbEntity
  8
DAMAN
100
AcDbCircle
 10
11.52654199999999
 20
6.937999999999998
 30
0.0
 40
0.348958
100
AcDbArc
 50
335.5673019999998
 51
24.432698
  0
ARC
  5
2F7
330
220
100
AcDbEntity
  8
DAMAN
100
AcDbCircle
 10
11.77654199999998
 20
7.154505999999998
 30
0.0
 40
0.098958
100
AcDbArc
 50
313.1735509999998
 51
46.82644899999999
  0
LINE
  5
2F8
330
220
100
AcDbEntity
  8
DAMAN
100
AcDbLine
 10
11.84425
 20
7.226675
 30
0.0
 11
11.8755
 21
7.187999999999998
 31
0.0
  0
LINE
  5
2F9
330
220
100
AcDbEntity
  8
DAMAN
100
AcDbLine
 10
12.0005
 20
4.562999999999998
 30
0.0
 11
11.430419
 21
4.562999999999998
 31
0.0
  0
LINE
  5
2FA
330
220
100
AcDbEntity
  8
DAMAN
100
AcDbLine
 10
11.8755
 20
4.312999999999998
 30
0.0
 11
11.8755
 21
4.812999999999998
 31
0.0
  0
ARC
  5
2FB
330
220
100
AcDbEntity
  8
DAMAN
100
AcDbCircle
 10
11.77654199999998
 20
4.779505999999998
 30
0.0
 40
0.098958
100
AcDbArc
 50
313.1735509999998
 51
46.82644899999999
  0
LINE
  5
2FC
330
220
100
AcDbEntity
  8
DAMAN
100
AcDbLine
 10
11.6255
 20
4.707338
 30
0.0
 11
11.84425
 21
4.707338
 31
0.0
  0
LINE
  5
2FD
330
220
100
AcDbEntity
  8
DAMAN
100
AcDbLine
 10
11.6255
 20
4.274325
 30
0.0
 11
11.84425
 21
4.274325
 31
0.0
  0
LINE
  5
2FE
330
220
100
AcDbEntity
  8
DAMAN
100
AcDbLine
 10
11.84425
 20
4.418662
 30
0.0
 11
11.6255
 21
4.418662
 31
0.0
  0
ARC
  5
2FF
330
220
100
AcDbEntity
  8
DAMAN
100
AcDbCircle
 10
11.77654199999998
 20
4.346493999999998
 30
0.0
 40
0.098958
100
AcDbArc
 50
313.1735509999998
 51
46.82644899999999
  0
LINE
  5
300
330
220
100
AcDbEntity
  8
DAMAN
100
AcDbLine
 10
11.84425
 20
4.274325
 30
0.0
 11
11.8755
 21
4.312999999999998
 31
0.0
  0
ARC
  5
301
330
220
100
AcDbEntity
  8
DAMAN
100
AcDbCircle
 10
11.52654199999999
 20
4.562999999999998
 30
0.0
 40
0.348958
100
AcDbArc
 50
335.5673019999998
 51
24.432698
  0
LINE
  5
302
330
220
100
AcDbEntity
  8
DAMAN
100
AcDbLine
 10
11.84425
 20
4.851675
 30
0.0
 11
11.6255
 21
4.851675
 31
0.0
  0
LINE
  5
303
330
220
100
AcDbEntity
  8
DAMAN
100
AcDbLine
 10
11.84425
 20
4.851675
 30
0.0
 11
11.8755
 21
4.812999999999998
 31
0.0
  0
LINE
  5
304
330
220
100
AcDbEntity
  8
DAMAN
100
AcDbLine
 10
11.6195
 20
7.500499999999998
 30
0.0
 11
11.6195
 21
4.000499999999998
 31
0.0
  0
LINE
  5
305
330
220
100
AcDbEntity
  8
DAMAN
100
AcDbLine
 10
11.4995
 20
4.000499999999998
 30
0.0
 11
12.4995
 21
4.000499999999998
 31
0.0
  0
LINE
  5
306
330
220
100
AcDbEntity
  8
DAMAN
100
AcDbLine
 10
4.880499999999998
 20
7.500499999999998
 30
0.0
 11
4.880499999999998
 21
4.000499999999998
 31
0.0
  0
ARC
  5
307
330
220
100
AcDbEntity
  8
DAMAN
100
AcDbCircle
 10
4.973457999999999
 20
4.562999999999998
 30
0.0
 40
0.348958
100
AcDbArc
 50
155.567302
 51
204.432698
  0
LINE
  5
308
330
220
100
AcDbEntity
  8
DAMAN
100
AcDbLine
 10
4.6245
 20
4.312999999999998
 30
0.0
 11
4.6245
 21
4.812999999999998
 31
0.0
  0
CIRCLE
  5
309
330
220
100
AcDbEntity
  8
DAMAN
100
AcDbCircle
 10
4.312
 20
4.562999999999998
 30
0.0
 40
0.249501
  0
LINE
  5
30A
330
220
100
AcDbEntity
  8
DAMAN
100
AcDbLine
 10
4.000499999999998
 20
4.000499999999998
 30
0.0
 11
4.000499999999998
 21
7.500499999999998
 31
0.0
  0
LINE
  5
30B
330
220
100
AcDbEntity
  8
DAMAN
100
AcDbLine
 10
4.4995
 20
4.562999999999998
 30
0.0
 11
5.069580999999998
 21
4.562999999999998
 31
0.0
  0
LINE
  5
30C
330
220
100
AcDbEntity
  8
DAMAN
100
AcDbLine
 10
5.000499999999998
 20
4.000499999999998
 30
0.0
 11
4.000499999999998
 21
4.000499999999998
 31
0.0
  0
ARC
  5
30D
330
220
100
AcDbEntity
  8
DAMAN
100
AcDbCircle
 10
4.723457999999999
 20
4.346493999999998
 30
0.0
 40
0.098958
100
AcDbArc
 50
133.173551
 51
226.826449
  0
LINE
  5
30E
330
220
100
AcDbEntity
  8
DAMAN
100
AcDbLine
 10
4.8745
 20
4.274325
 30
0.0
 11
4.65575
 21
4.274325
 31
0.0
  0
LINE
  5
30F
330
220
100
AcDbEntity
  8
DAMAN
100
AcDbLine
 10
4.65575
 20
4.274325
 30
0.0
 11
4.6245
 21
4.312999999999998
 31
0.0
  0
LINE
  5
310
330
220
100
AcDbEntity
  8
DAMAN
100
AcDbLine
 10
4.65575
 20
4.418662
 30
0.0
 11
4.8745
 21
4.418662
 31
0.0
  0
LINE
  5
311
330
220
100
AcDbEntity
  8
DAMAN
100
AcDbLine
 10
4.65575
 20
4.851675
 30
0.0
 11
4.8745
 21
4.851675
 31
0.0
  0
LINE
  5
312
330
220
100
AcDbEntity
  8
DAMAN
100
AcDbLine
 10
4.8745
 20
4.707338
 30
0.0
 11
4.65575
 21
4.707338
 31
0.0
  0
LINE
  5
313
330
220
100
AcDbEntity
  8
DAMAN
100
AcDbLine
 10
4.65575
 20
4.851675
 30
0.0
 11
4.6245
 21
4.812999999999998
 31
0.0
  0
ARC
  5
314
330
220
100
AcDbEntity
  8
DAMAN
100
AcDbCircle
 10
4.723457999999999
 20
4.779505999999998
 30
0.0
 40
0.098958
100
AcDbArc
 50
133.173551
 51
226.826449
  0
LINE
  5
315
330
220
100
AcDbEntity
  8
DAMAN
100
AcDbLine
 10
4.4995
 20
6.937999999999998
 30
0.0
 11
5.069580999999998
 21
6.937999999999998
 31
0.0
  0
LINE
  5
316
330
220
100
AcDbEntity
  8
DAMAN
100
AcDbLine
 10
4.000499999999998
 20
7.500499999999998
 30
0.0
 11
5.000499999999998
 21
7.500499999999998
 31
0.0
  0
ARC
  5
317
330
220
100
AcDbEntity
  8
DAMAN
100
AcDbCircle
 10
4.973457999999999
 20
6.937999999999998
 30
0.0
 40
0.348958
100
AcDbArc
 50
155.567302
 51
204.432698
  0
LINE
  5
318
330
220
100
AcDbEntity
  8
DAMAN
100
AcDbLine
 10
4.6245
 20
6.687999999999998
 30
0.0
 11
4.6245
 21
7.187999999999998
 31
0.0
  0
CIRCLE
  5
319
330
220
100
AcDbEntity
  8
DAMAN
100
AcDbCircle
 10
4.312
 20
6.937999999999998
 30
0.0
 40
0.249501
  0
LINE
  5
31A
330
220
100
AcDbEntity
  8
DAMAN
100
AcDbLine
 10
4.65575
 20
6.793661999999998
 30
0.0
 11
4.8745
 21
6.793661999999998
 31
0.0
  0
LINE
  5
31B
330
220
100
AcDbEntity
  8
DAMAN
100
AcDbLine
 10
4.8745
 20
6.649325
 30
0.0
 11
4.65575
 21
6.649325
 31
0.0
  0
LINE
  5
31C
330
220
100
AcDbEntity
  8
DAMAN
100
AcDbLine
 10
4.65575
 20
6.649325
 30
0.0
 11
4.6245
 21
6.687999999999998
 31
0.0
  0
ARC
  5
31D
330
220
100
AcDbEntity
  8
DAMAN
100
AcDbCircle
 10
4.723457999999999
 20
6.721493999999998
 30
0.0
 40
0.098958
100
AcDbArc
 50
133.173551
 51
226.826449
  0
ARC
  5
31E
330
220
100
AcDbEntity
  8
DAMAN
100
AcDbCircle
 10
4.723457999999999
 20
7.154505999999998
 30
0.0
 40
0.098958
100
AcDbArc
 50
133.173551
 51
226.826449
  0
LINE
  5
31F
330
220
100
AcDbEntity
  8
DAMAN
100
AcDbLine
 10
4.8745
 20
7.082338
 30
0.0
 11
4.65575
 21
7.082338
 31
0.0
  0
LINE
  5
320
330
220
100
AcDbEntity
  8
DAMAN
100
AcDbLine
 10
4.65575
 20
7.226675
 30
0.0
 11
4.8745
 21
7.226675
 31
0.0
  0
LINE
  5
321
330
220
100
AcDbEntity
  8
DAMAN
100
AcDbLine
 10
4.65575
 20
7.226675
 30
0.0
 11
4.6245
 21
7.187999999999998
 31
0.0
  0
INSERT
  5
322
330
220
100
AcDbEntity
  8
DAMAN
100
AcDbMInsertBlock
  2
300MKS
 10
5.0
 20
-0.5
 30
0.0
 70
     1
 71
     1
  0
INSERT
  5
323
330
220
100
AcDbEntity
  8
DAMAN
100
AcDbMInsertBlock
  2
300MKS
 10
11.5
 20
-0.5
 30
0.0
 41
-1.0
 70
     1
 71
     1
  0
TEXT
  5
324
330
220
100
AcDbEntity
  8
DAMAN
100
AcDbText
 10
7.201777
 20
2.741878999999998
 30
0.0
 40
0.188
  1
B
100
AcDbText
  0
TEXT
  5
325
330
220
100
AcDbEntity
  8
DAMAN
100
AcDbText
 10
7.201777
 20
0.46069
 30
0.0
 40
0.188
  1
A
100
AcDbText
  0
TEXT
  5
326
330
220
100
AcDbEntity
  8
DAMAN
100
AcDbText
 10
2.145231
 20
4.729422
 30
0.0
 40
0.188
  1
P
 50
270.0
100
AcDbText
  0
TEXT
  5
327
330
220
100
AcDbEntity
  8
DAMAN
100
AcDbText
 10
8.014452
 20
1.466858
 30
0.0
 40
0.188
  1
GA
100
AcDbText
  0
INSERT
  5
328
330
220
100
AcDbEntity
  8
DAMAN
100
AcDbMInsertBlock
  2
050CROSS
 10
4.312999999999998
 20
6.937999999999998
 30
0.0
 41
0.34
 42
0.34
 50
90.0
 70
     1
 71
     1
  0
INSERT
  5
329
330
220
100
AcDbEntity
  8
DAMAN
100
AcDbMInsertBlock
  2
050CROSS
 10
4.312999999999998
 20
4.562999999999998
 30
0.0
 41
0.34
 42
0.34
 50
90.0
 70
     1
 71
     1
  0
LINE
  5
32A
330
220
100
AcDbEntity
  8
DAMAN
100
AcDbLine
 10
4.5625
 20
4.706837999999998
 30
0.0
 11
4.5625
 21
4.418162
 31
0.0
  0
LINE
  5
32B
330
220
100
AcDbEntity
  8
DAMAN
100
AcDbLine
 10
4.5625
 20
4.418162
 30
0.0
 11
4.3125
 21
4.273825
 31
0.0
  0
LINE
  5
32C
330
220
100
AcDbEntity
  8
DAMAN
100
AcDbLine
 10
4.3125
 20
4.273825
 30
0.0
 11
4.0625
 21
4.418162
 31
0.0
  0
LINE
  5
32D
330
220
100
AcDbEntity
  8
DAMAN
100
AcDbLine
 10
4.0625
 20
4.418162
 30
0.0
 11
4.0625
 21
4.706837999999998
 31
0.0
  0
LINE
  5
32E
330
220
100
AcDbEntity
  8
DAMAN
100
AcDbLine
 10
4.0625
 20
4.706837999999998
 30
0.0
 11
4.3125
 21
4.851174999999998
 31
0.0
  0
LINE
  5
32F
330
220
100
AcDbEntity
  8
DAMAN
100
AcDbLine
 10
4.3125
 20
4.851174999999998
 30
0.0
 11
4.5625
 21
4.706837999999998
 31
0.0
  0
LINE
  5
330
330
220
100
AcDbEntity
  8
DAMAN
100
AcDbLine
 10
4.5625
 20
7.081838
 30
0.0
 11
4.5625
 21
6.793161999999998
 31
0.0
  0
LINE
  5
331
330
220
100
AcDbEntity
  8
DAMAN
100
AcDbLine
 10
4.5625
 20
6.793161999999998
 30
0.0
 11
4.3125
 21
6.648825
 31
0.0
  0
LINE
  5
332
330
220
100
AcDbEntity
  8
DAMAN
100
AcDbLine
 10
4.3125
 20
6.648825
 30
0.0
 11
4.0625
 21
6.793161999999998
 31
0.0
  0
LINE
  5
333
330
220
100
AcDbEntity
  8
DAMAN
100
AcDbLine
 10
4.0625
 20
6.793161999999998
 30
0.0
 11
4.0625
 21
7.081838
 31
0.0
  0
LINE
  5
334
330
220
100
AcDbEntity
  8
DAMAN
100
AcDbLine
 10
4.0625
 20
7.081838
 30
0.0
 11
4.3125
 21
7.226174999999998
 31
0.0
  0
LINE
  5
335
330
220
100
AcDbEntity
  8
DAMAN
100
AcDbLine
 10
4.3125
 20
7.226174999999998
 30
0.0
 11
4.5625
 21
7.081838
 31
0.0
  0
LINE
  5
336
330
220
100
AcDbEntity
  8
DAMAN
100
AcDbLine
 10
11.9375
 20
4.706837999999998
 30
0.0
 11
11.9375
 21
4.418162
 31
0.0
  0
LINE
  5
337
330
220
100
AcDbEntity
  8
DAMAN
100
AcDbLine
 10
11.9375
 20
4.418162
 30
0.0
 11
12.1875
 21
4.273825
 31
0.0
  0
LINE
  5
338
330
220
100
AcDbEntity
  8
DAMAN
100
AcDbLine
 10
12.1875
 20
4.273825
 30
0.0
 11
12.4375
 21
4.418162
 31
0.0
  0
LINE
  5
339
330
220
100
AcDbEntity
  8
DAMAN
100
AcDbLine
 10
12.4375
 20
4.418162
 30
0.0
 11
12.4375
 21
4.706837999999998
 31
0.0
  0
LINE
  5
33A
330
220
100
AcDbEntity
  8
DAMAN
100
AcDbLine
 10
12.4375
 20
4.706837999999998
 30
0.0
 11
12.1875
 21
4.851174999999998
 31
0.0
  0
LINE
  5
33B
330
220
100
AcDbEntity
  8
DAMAN
100
AcDbLine
 10
12.1875
 20
4.851174999999998
 30
0.0
 11
11.9375
 21
4.706837999999998
 31
0.0
  0
LINE
  5
33C
330
220
100
AcDbEntity
  8
DAMAN
100
AcDbLine
 10
11.9375
 20
7.081838
 30
0.0
 11
11.9375
 21
6.793161999999998
 31
0.0
  0
LINE
  5
33D
330
220
100
AcDbEntity
  8
DAMAN
100
AcDbLine
 10
11.9375
 20
6.793161999999998
 30
0.0
 11
12.1875
 21
6.648825
 31
0.0
  0
LINE
  5
33E
330
220
100
AcDbEntity
  8
DAMAN
100
AcDbLine
 10
12.1875
 20
6.648825
 30
0.0
 11
12.4375
 21
6.793161999999998
 31
0.0
  0
LINE
  5
33F
330
220
100
AcDbEntity
  8
DAMAN
100
AcDbLine
 10
12.4375
 20
6.793161999999998
 30
0.0
 11
12.4375
 21
7.081838
 31
0.0
  0
LINE
  5
340
330
220
100
AcDbEntity
  8
DAMAN
100
AcDbLine
 10
12.4375
 20
7.081838
 30
0.0
 11
12.1875
 21
7.226174999999998
 31
0.0
  0
LINE
  5
341
330
220
100
AcDbEntity
  8
DAMAN
100
AcDbLine
 10
12.1875
 20
7.226174999999998
 30
0.0
 11
11.9375
 21
7.081838
 31
0.0
  0
TEXT
  5
342
330
220
100
AcDbEntity
  8
DAMAN
100
AcDbText
 10
10.45177699999999
 20
2.741878999999998
 30
0.0
 40
0.188
  1
B
100
AcDbText
  0
TEXT
  5
343
330
220
100
AcDbEntity
  8
DAMAN
100
AcDbText
 10
10.45177699999999
 20
0.46069
 30
0.0
 40
0.188
  1
A
100
AcDbText
  0
TEXT
  5
344
330
220
100
AcDbEntity
  8
DAMAN
100
AcDbText
 10
9.190345999999999
 20
1.164533
 30
0.0
 40
0.188
  1
DAMAN****
100
AcDbText
  0
LINE
  5
345
330
220
100
AcDbEntity
  8
DAMAN
100
AcDbLine
 10
16.8745
 20
4.562999999999998
 30
0.0
 11
18.03075
 21
4.562999999999998
 31
0.0
  0
LINE
  5
346
330
220
100
AcDbEntity
  8
DAMAN
100
AcDbLine
 10
16.8745
 20
6.937999999999998
 30
0.0
 11
18.03075
 21
6.937999999999998
 31
0.0
  0
INSERT
  5
347
330
220
100
AcDbEntity
  8
DAMAN
100
AcDbMInsertBlock
  2
D05
 10
5.718999999999999
 20
6.8125
 30
0.0
 70
     1
 71
     1
  0
INSERT
  5
348
330
220
100
AcDbEntity
  8
DAMAN
100
AcDbMInsertBlock
  2
D05
 10
8.968999999999997
 20
6.8125
 30
0.0
 70
     1
 71
     1
  0
INSERT
  5
349
330
220
100
AcDbEntity
  8
DAMAN
100
AcDbMInsertBlock
  2
350MKT
 10
-0.5
 20
4.25
 30
0.0
 70
     1
 71
     1
  0
LINE
  5
34A
330
220
100
AcDbEntity
  8
DAMAN
100
AcDbLine
 10
13.5
 20
4.0
 30
0.0
 11
17.0
 21
4.0
 31
0.0
  0
INSERT
  5
34B
330
220
100
AcDbEntity
  8
DAMAN
100
AcDbMInsertBlock
  2
350MKT
 10
17.0
 20
4.25
 30
0.0
 41
-1.0
 70
     1
 71
     1
  0
LINE
  5
34C
330
220
100
AcDbEntity
  8
DAMAN
100
AcDbLine
 10
17.0
 20
4.0
 30
0.0
 11
17.0
 21
7.5
 31
0.0
  0
LINE
  5
34D
330
220
100
AcDbEntity
  8
DAMAN
100
AcDbLine
 10
13.5
 20
7.5
 30
0.0
 11
13.5
 21
4.0
 31
0.0
  0
LINE
  5
34E
330
220
100
AcDbEntity
  8
DAMAN
100
AcDbLine
 10
17.0
 20
7.5
 30
0.0
 11
13.5
 21
7.5
 31
0.0
  0
TEXT
  5
34F
330
220
100
AcDbEntity
  8
DAMAN
100
AcDbText
 10
14.39557399999999
 20
7.320938
 30
0.0
 40
0.188
  1
T
 50
90.0
 71
     2
100
AcDbText
  0
INSERT
  5
350
330
220
100
AcDbEntity
  8
DAMAN
100
AcDbMInsertBlock
  2
075NPTFT
 10
1.25
 20
5.3125
 30
0.0
 70
     1
 71
     1
  0
INSERT
  5
351
330
220
100
AcDbEntity
  8
DAMAN
100
AcDbMInsertBlock
  2
075NPTFT
 10
15.25
 20
6.75
 30
0.0
 70
     1
 71
     1
  0
INSERT
  5
352
330
220
100
AcDbEntity
  8
DAMAN
100
AcDbMInsertBlock
  2
050NPTFT
 10
6.562
 20
2.3125
 30
0.0
 70
     1
 71
     1
  0
INSERT
  5
353
330
220
100
AcDbEntity
  8
DAMAN
100
AcDbMInsertBlock
  2
050NPTFT
 10
9.811999999999999
 20
2.3125
 30
0.0
 70
     1
 71
     1
  0
INSERT
  5
354
330
220
100
AcDbEntity
  8
DAMAN
100
AcDbMInsertBlock
  2
050NPTFT
 10
9.811999999999999
 20
0.1885
 30
0.0
 70
     1
 71
     1
  0
INSERT
  5
355
330
220
100
AcDbEntity
  8
DAMAN
100
AcDbMInsertBlock
  2
050NPTFT
 10
6.562
 20
0.1885
 30
0.0
 70
     1
 71
     1
  0
INSERT
  5
356
330
220
100
AcDbEntity
  8
DAMAN
100
AcDbMInsertBlock
  2
025NPTFT
 10
7.4995
 20
1.25
 30
0.0
 70
     1
 71
     1
  0
LINE
  5
357
330
220
100
AcDbEntity
  8
DAMAN
100
AcDbLine
 10
11.5
 20
12.00099999999999
 30
0.0
 11
5.0
 21
12.00099999999999
 31
0.0
  0
LINE
  5
358
330
220
100
AcDbEntity
  8
DAMAN
100
AcDbLine
 10
5.0
 20
12.00099999999999
 30
0.0
 11
5.0
 21
8.500999999999999
 31
0.0
  0
INSERT
  5
359
330
220
100
AcDbEntity
  8
DAMAN
100
AcDbMInsertBlock
  2
300MKS
 10
5.0
 20
12.00099999999999
 30
0.0
 41
-1.0
 50
180.0
 70
     1
 71
     1
  0
LINE
  5
35A
330
220
100
AcDbEntity
  8
DAMAN
100
AcDbLine
 10
11.5
 20
8.500999999999999
 30
0.0
 11
11.5
 21
12.00099999999999
 31
0.0
  0
INSERT
  5
35B
330
220
100
AcDbEntity
  8
DAMAN
100
AcDbMInsertBlock
  2
300MKS
 10
11.5
 20
12.00099999999999
 30
0.0
 50
180.0
 70
     1
 71
     1
  0
LINE
  5
35C
330
220
100
AcDbEntity
  8
DAMAN
100
AcDbLine
 10
5.0
 20
8.500999999999999
 30
0.0
 11
11.5
 21
8.500999999999999
 31
0.0
  0
INSERT
  5
35D
330
220
100
AcDbEntity
  8
DAMAN
100
AcDbMInsertBlock
  2
T3AT
 10
7.5
 20
11.25099999999999
 30
0.0
 70
     1
 71
     1
  0
ENDSEC
  0
SECTION
  2
OBJECTS
  0
DICTIONARY
  5
20E
330
0
100
AcDbDictionary
  3
ACAD_GROUP
350
20F
  3
ACAD_LAYOUT
350
21B
  3
ACAD_MLINESTYLE
350
218
  3
ACAD_PLOTSETTINGS
350
21A
  3
ACAD_PLOTSTYLENAME
350
210
  3
ACDBHEADERROUNDTRIPXREC
350
38B
  0
DICTIONARY
  5
382
330
220
100
AcDbDictionary
280
     1
  3
ACAD_LAYOUTSELFREF
360
3AC
  0
DICTIONARY
  5
380
330
21C
100
AcDbDictionary
280
     1
  3
ACAD_LAYOUTSELFREF
360
3AB
  0
DICTIONARY
  5
20F
102
{ACAD_REACTORS
330
20E
102
}
330
20E
100
AcDbDictionary
  0
DICTIONARY
  5
21B
102
{ACAD_REACTORS
330
20E
102
}
330
20E
100
AcDbDictionary
  0
DICTIONARY
  5
218
102
{ACAD_REACTORS
330
20E
102
}
330
20E
100
AcDbDictionary
  3
STANDARD
350
219
  0
DICTIONARY
  5
21A
102
{ACAD_REACTORS
330
20E
102
}
330
20E
100
AcDbDictionary
  0
ACDBDICTIONARYWDFLT
  5
210
102
{ACAD_REACTORS
330
20E
102
}
330
20E
100
AcDbDictionary
281
     1
  3
Normal
350
211
100
AcDbDictionaryWithDefault
340
211
  0
DICTIONARY
  5
38B
102
{ACAD_REACTORS
330
20E
102
}
330
20E
100
AcDbDictionary
  3
CEPSNTYPE
350
395
  3
FINGERPRINTGUID
350
396
  3
HYPERLINKBASE
350
38E
  3
INSUNITS
350
394
  3
LAYOUTDICT
350
390
  3
LWETCUNION
350
393
  3
PLOTSETDICT
350
391
  3
PLOTSTYLNAMDICT
350
392
  3
PSVPSCALE
350
398
  3
PUCSBASE
350
39B
  3
PUCSORGBACK
350
3A1
  3
PUCSORGBOTTOM
350
39D
  3
PUCSORGFRONT
350
3A0
  3
PUCSORGLEFT
350
39E
  3
PUCSORGRIGHT
350
39F
  3
PUCSORGTOP
350
39C
  3
PUCSORTHOREF
350
399
  3
PUCSORTHOVIEW
350
39A
  3
STYLESHEET
350
38F
  3
TSTACKALIGN
350
38C
  3
TSTACKSIZE
350
38D
  3
UCSBASE
350
3A4
  3
UCSORGBACK
350
3AA
  3
UCSORGBOTTOM
350
3A6
  3
UCSORGFRONT
350
3A9
  3
UCSORGLEFT
350
3A7
  3
UCSORGRIGHT
350
3A8
  3
UCSORGTOP
350
3A5
  3
UCSORTHOREF
350
3A2
  3
UCSORTHOVIEW
350
3A3
  3
VERSIONGUID
350
397
  0
XRECORD
  5
3AC
102
{ACAD_REACTORS
330
382
102
}
330
382
100
AcDbXrecord
340
220
  0
XRECORD
  5
3AB
102
{ACAD_REACTORS
330
380
102
}
330
380
100
AcDbXrecord
340
21C
  0
MLINESTYLE
  5
219
102
{ACAD_REACTORS
330
218
102
}
330
218
100
AcDbMlineStyle
  2
STANDARD
 70
     0
  3

 62
   256
 51
90.0
 52
90.0
 71
     2
 49
0.5
 62
   256
  6
BYLAYER
 49
-0.5
 62
   256
  6
BYLAYER
  0
ACDBPLACEHOLDER
  5
211
102
{ACAD_REACTORS
330
210
102
}
330
210
100
AcDbPlaceHolder
280
     0
  0
XRECORD
  5
395
102
{ACAD_REACTORS
330
38B
102
}
330
38B
100
AcDbXrecord
 90
        0
  0
XRECORD
  5
396
102
{ACAD_REACTORS
330
38B
102
}
330
38B
100
AcDbXrecord
  1
{7388C4AE-A300-48C0-908D-02C937DD2346}
  0
XRECORD
  5
38E
102
{ACAD_REACTORS
330
38B
102
}
330
38B
100
AcDbXrecord
  1

  0
XRECORD
  5
394
102
{ACAD_REACTORS
330
38B
102
}
330
38B
100
AcDbXrecord
 90
        0
  0
XRECORD
  5
390
102
{ACAD_REACTORS
330
38B
102
}
330
38B
100
AcDbXrecord
340
21B
  0
XRECORD
  5
393
102
{ACAD_REACTORS
330
38B
102
}
330
38B
100
AcDbXrecord
 90
    10781
  0
XRECORD
  5
391
102
{ACAD_REACTORS
330
38B
102
}
330
38B
100
AcDbXrecord
340
21A
  0
XRECORD
  5
392
102
{ACAD_REACTORS
330
38B
102
}
330
38B
100
AcDbXrecord
340
210
  0
XRECORD
  5
398
102
{ACAD_REACTORS
330
38B
102
}
330
38B
100
AcDbXrecord
 40
0.0
  0
XRECORD
  5
39B
102
{ACAD_REACTORS
330
38B
102
}
330
38B
100
AcDbXrecord
340
0
  0
XRECORD
  5
3A1
102
{ACAD_REACTORS
330
38B
102
}
330
38B
100
AcDbXrecord
 10
0.0
 20
0.0
 30
0.0
  0
XRECORD
  5
39D
102
{ACAD_REACTORS
330
38B
102
}
330
38B
100
AcDbXrecord
 10
0.0
 20
0.0
 30
0.0
  0
XRECORD
  5
3A0
102
{ACAD_REACTORS
330
38B
102
}
330
38B
100
AcDbXrecord
 10
0.0
 20
0.0
 30
0.0
  0
XRECORD
  5
39E
102
{ACAD_REACTORS
330
38B
102
}
330
38B
100
AcDbXrecord
 10
0.0
 20
0.0
 30
0.0
  0
XRECORD
  5
39F
102
{ACAD_REACTORS
330
38B
102
}
330
38B
100
AcDbXrecord
 10
0.0
 20
0.0
 30
0.0
  0
XRECORD
  5
39C
102
{ACAD_REACTORS
330
38B
102
}
330
38B
100
AcDbXrecord
 10
0.0
 20
0.0
 30
0.0
  0
XRECORD
  5
399
102
{ACAD_REACTORS
330
38B
102
}
330
38B
100
AcDbXrecord
340
0
  0
XRECORD
  5
39A
102
{ACAD_REACTORS
330
38B
102
}
330
38B
100
AcDbXrecord
 70
     0
  0
XRECORD
  5
38F
102
{ACAD_REACTORS
330
38B
102
}
330
38B
100
AcDbXrecord
  1

  0
XRECORD
  5
38C
102
{ACAD_REACTORS
330
38B
102
}
330
38B
100
AcDbXrecord
 90
        1
  0
XRECORD
  5
38D
102
{ACAD_REACTORS
330
38B
102
}
330
38B
100
AcDbXrecord
 90
       70
  0
XRECORD
  5
3A4
102
{ACAD_REACTORS
330
38B
102
}
330
38B
100
AcDbXrecord
340
0
  0
XRECORD
  5
3AA
102
{ACAD_REACTORS
330
38B
102
}
330
38B
100
AcDbXrecord
 10
0.0
 20
0.0
 30
0.0
  0
XRECORD
  5
3A6
102
{ACAD_REACTORS
330
38B
102
}
330
38B
100
AcDbXrecord
 10
0.0
 20
0.0
 30
0.0
  0
XRECORD
  5
3A9
102
{ACAD_REACTORS
330
38B
102
}
330
38B
100
AcDbXrecord
 10
0.0
 20
0.0
 30
0.0
  0
XRECORD
  5
3A7
102
{ACAD_REACTORS
330
38B
102
}
330
38B
100
AcDbXrecord
 10
0.0
 20
0.0
 30
0.0
  0
XRECORD
  5
3A8
102
{ACAD_REACTORS
330
38B
102
}
330
38B
100
AcDbXrecord
 10
0.0
 20
0.0
 30
0.0
  0
XRECORD
  5
3A5
102
{ACAD_REACTORS
330
38B
102
}
330
38B
100
AcDbXrecord
 10
0.0
 20
0.0
 30
0.0
  0
XRECORD
  5
3A2
102
{ACAD_REACTORS
330
38B
102
}
330
38B
100
AcDbXrecord
340
0
  0
XRECORD
  5
3A3
102
{ACAD_REACTORS
330
38B
102
}
330
38B
100
AcDbXrecord
 70
     0
  0
XRECORD
  5
397
102
{ACAD_REACTORS
330
38B
102
}
330
38B
100
AcDbXrecord
  1
{75926C73-127F-4D3D-956B-554F377F66BC}
  0
ENDSEC
  0
EOF
