  0
SECTION
  2
HEADER
  9
$ACADVER
  1
AC1014
  9
$ACADMAINTVER
 70
     9
  9
$DWGCODEPAGE
  3
ANSI_1252
  9
$INSBASE
 10
0.0
 20
0.0
 30
0.0
  9
$EXTMIN
 10
-1.531346924060024
 20
-1.531571363725024
 30
-0.0015258207003583
  9
$EXTMAX
 10
21.28184651539439
 20
7.501045249825747
 30
0.0000000349246037
  9
$LIMMIN
 10
0.0
 20
0.0
  9
$LIMMAX
 10
12.0
 20
9.0
  9
$ORTHOMODE
 70
     1
  9
$REGENMODE
 70
     1
  9
$FILLMODE
 70
     1
  9
$QTEXTMODE
 70
     0
  9
$MIRRTEXT
 70
     1
  9
$DRAGMODE
 70
     2
  9
$LTSCALE
 40
1.0
  9
$OSMODE
 70
    37
  9
$ATTMODE
 70
     1
  9
$TEXTSIZE
 40
0.188
  9
$TRACEWID
 40
0.05
  9
$TEXTSTYLE
  7
STANDARD
  9
$CLAYER
  8
DAMAN
  9
$CELTYPE
  6
BYLAYER
  9
$CECOLOR
 62
   256
  9
$CELTSCALE
 40
1.0
  9
$DELOBJ
 70
     1
  9
$DISPSILH
 70
     0
  9
$DIMSCALE
 40
1.0
  9
$DIMASZ
 40
0.18
  9
$DIMEXO
 40
0.0625
  9
$DIMDLI
 40
0.38
  9
$DIMRND
 40
0.0
  9
$DIMDLE
 40
0.0
  9
$DIMEXE
 40
0.18
  9
$DIMTP
 40
0.0
  9
$DIMTM
 40
0.0
  9
$DIMTXT
 40
0.18
  9
$DIMCEN
 40
0.09
  9
$DIMTSZ
 40
0.0
  9
$DIMTOL
 70
     0
  9
$DIMLIM
 70
     0
  9
$DIMTIH
 70
     1
  9
$DIMTOH
 70
     1
  9
$DIMSE1
 70
     0
  9
$DIMSE2
 70
     0
  9
$DIMTAD
 70
     0
  9
$DIMZIN
 70
     0
  9
$DIMBLK
  1

  9
$DIMASO
 70
     1
  9
$DIMSHO
 70
     1
  9
$DIMPOST
  1

  9
$DIMAPOST
  1

  9
$DIMALT
 70
     0
  9
$DIMALTD
 70
     2
  9
$DIMALTF
 40
25.4
  9
$DIMLFAC
 40
1.0
  9
$DIMTOFL
 70
     0
  9
$DIMTVP
 40
0.0
  9
$DIMTIX
 70
     0
  9
$DIMSOXD
 70
     0
  9
$DIMSAH
 70
     0
  9
$DIMBLK1
  1

  9
$DIMBLK2
  1

  9
$DIMSTYLE
  2
STANDARD
  9
$DIMCLRD
 70
     0
  9
$DIMCLRE
 70
     0
  9
$DIMCLRT
 70
     0
  9
$DIMTFAC
 40
1.0
  9
$DIMGAP
 40
0.09
  9
$DIMJUST
 70
     0
  9
$DIMSD1
 70
     0
  9
$DIMSD2
 70
     0
  9
$DIMTOLJ
 70
     1
  9
$DIMTZIN
 70
     0
  9
$DIMALTZ
 70
     0
  9
$DIMALTTZ
 70
     0
  9
$DIMFIT
 70
     3
  9
$DIMUPT
 70
     0
  9
$DIMUNIT
 70
     2
  9
$DIMDEC
 70
     4
  9
$DIMTDEC
 70
     4
  9
$DIMALTU
 70
     2
  9
$DIMALTTD
 70
     2
  9
$DIMTXSTY
  7
STANDARD
  9
$DIMAUNIT
 70
     0
  9
$LUNITS
 70
     2
  9
$LUPREC
 70
     4
  9
$SKETCHINC
 40
0.1
  9
$FILLETRAD
 40
0.0
  9
$AUNITS
 70
     0
  9
$AUPREC
 70
     0
  9
$MENU
  1
tom
  9
$ELEVATION
 40
0.0
  9
$PELEVATION
 40
0.0
  9
$THICKNESS
 40
0.0
  9
$LIMCHECK
 70
     0
  9
$BLIPMODE
 70
     0
  9
$CHAMFERA
 40
0.0
  9
$CHAMFERB
 40
0.0
  9
$CHAMFERC
 40
0.0
  9
$CHAMFERD
 40
0.0
  9
$SKPOLY
 70
     0
  9
$TDCREATE
 40
2448986.483944456
  9
$TDUPDATE
 40
2453412.423641609
  9
$TDINDWG
 40
0.0945354167
  9
$TDUSRTIMER
 40
0.0945354167
  9
$USRTIMER
 70
     1
  9
$ANGBASE
 50
0.0
  9
$ANGDIR
 70
     0
  9
$PDMODE
 70
     0
  9
$PDSIZE
 40
0.0
  9
$PLINEWID
 40
0.0
  9
$COORDS
 70
     1
  9
$SPLFRAME
 70
     0
  9
$SPLINETYPE
 70
     6
  9
$SPLINESEGS
 70
     8
  9
$ATTDIA
 70
     0
  9
$ATTREQ
 70
     1
  9
$HANDLING
 70
-16383
  9
$HANDSEED
  5
238
  9
$SURFTAB1
 70
     6
  9
$SURFTAB2
 70
     6
  9
$SURFTYPE
 70
     6
  9
$SURFU
 70
     6
  9
$SURFV
 70
     6
  9
$UCSNAME
  2

  9
$UCSORG
 10
0.0
 20
0.0
 30
0.0
  9
$UCSXDIR
 10
1.0
 20
0.0
 30
0.0
  9
$UCSYDIR
 10
0.0
 20
1.0
 30
0.0
  9
$PUCSNAME
  2

  9
$PUCSORG
 10
0.0
 20
0.0
 30
0.0
  9
$PUCSXDIR
 10
1.0
 20
0.0
 30
0.0
  9
$PUCSYDIR
 10
0.0
 20
1.0
 30
0.0
  9
$USERI1
 70
     0
  9
$USERI2
 70
     0
  9
$USERI3
 70
     0
  9
$USERI4
 70
     0
  9
$USERI5
 70
     0
  9
$USERR1
 40
0.0
  9
$USERR2
 40
0.0
  9
$USERR3
 40
0.0
  9
$USERR4
 40
0.0
  9
$USERR5
 40
0.0
  9
$WORLDVIEW
 70
     1
  9
$SHADEDGE
 70
     3
  9
$SHADEDIF
 70
    70
  9
$TILEMODE
 70
     1
  9
$MAXACTVP
 70
    16
  9
$PINSBASE
 10
0.0
 20
0.0
 30
0.0
  9
$PLIMCHECK
 70
     0
  9
$PEXTMIN
 10
1.000000000000000E+20
 20
1.000000000000000E+20
 30
1.000000000000000E+20
  9
$PEXTMAX
 10
-1.000000000000000E+20
 20
-1.000000000000000E+20
 30
-1.000000000000000E+20
  9
$PLIMMIN
 10
0.0
 20
0.0
  9
$PLIMMAX
 10
12.0
 20
9.0
  9
$UNITMODE
 70
     0
  9
$VISRETAIN
 70
     0
  9
$PLINEGEN
 70
     0
  9
$PSLTSCALE
 70
     1
  9
$TREEDEPTH
 70
  3020
  9
$PICKSTYLE
 70
     1
  9
$CMLSTYLE
  2
STANDARD
  9
$CMLJUST
 70
     0
  9
$CMLSCALE
 40
1.0
  9
$PROXYGRAPHICS
 70
     1
  9
$MEASUREMENT
 70
     0
  0
ENDSEC
  0
SECTION
  2
CLASSES
  0
CLASS
  1
ACDBDICTIONARYWDFLT
  2
AcDbDictionaryWithDefault
  3
AutoCAD 2000
 90
        0
280
     0
281
     0
  0
CLASS
  1
ACDBPLACEHOLDER
  2
AcDbPlaceHolder
  3
AutoCAD 2000
 90
        0
280
     0
281
     0
  0
CLASS
  1
LAYOUT
  2
AcDbLayout
  3
AutoCAD 2000
 90
        0
280
     0
281
     0
  0
CLASS
  1
LONG_TRANSACTION
  2
AcDbLongTransaction
  3
AutoCAD 2000
 90
        0
280
     0
281
     0
  0
CLASS
  1
LWPOLYLINE
  2
AcDbPolyline
  3
AutoCAD 2000
 90
        0
280
     0
281
     1
  0
CLASS
  1
HATCH
  2
AcDbHatch
  3
AutoCAD 2000
 90
        0
280
     0
281
     1
  0
CLASS
  1
XRECORD
  2
AcDbXrecord
  3
AutoCAD 2000
 90
        0
280
     0
281
     0
  0
ENDSEC
  0
SECTION
  2
TABLES
  0
TABLE
  2
VPORT
  5
8
330
0
100
AcDbSymbolTable
 70
     3
  0
VPORT
  5
213
330
8
100
AcDbSymbolTableRecord
100
AcDbViewportTableRecord
  2
*ACTIVE
 70
     0
 10
0.0
 20
0.0
 11
1.0
 21
1.0
 12
9.875249795667185
 22
2.984736943050361
 13
0.0
 23
0.0
 14
0.125
 24
0.125
 15
0.0
 25
0.0
 16
0.0
 26
0.0
 36
1.0
 17
0.0
 27
0.0
 37
0.0
 40
13.93396721216169
 41
1.647569444444444
 42
50.0
 43
0.0
 44
0.0
 50
0.0
 51
0.0
 71
     0
 72
   100
 73
     1
 74
     1
 75
     0
 76
     0
 77
     0
 78
     0
  0
ENDTAB
  0
TABLE
  2
LTYPE
  5
5
330
0
100
AcDbSymbolTable
 70
     6
  0
LTYPE
  5
13
330
5
100
AcDbSymbolTableRecord
100
AcDbLinetypeTableRecord
  2
BYBLOCK
 70
     0
  3

 72
    65
 73
     0
 40
0.0
  0
LTYPE
  5
14
330
5
100
AcDbSymbolTableRecord
100
AcDbLinetypeTableRecord
  2
BYLAYER
 70
     0
  3

 72
    65
 73
     0
 40
0.0
  0
LTYPE
  5
15
330
5
100
AcDbSymbolTableRecord
100
AcDbLinetypeTableRecord
  2
CONTINUOUS
 70
     0
  3
Solid line
 72
    65
 73
     0
 40
0.0
  0
LTYPE
  5
24
330
5
100
AcDbSymbolTableRecord
100
AcDbLinetypeTableRecord
  2
HIDDEN
 70
     0
  3
__ __ __ __ __ __ __ __ __ __ __ __ __ __ __ __
 72
    65
 73
     2
 40
0.375
 49
0.25
 74
     0
 49
-0.125
 74
     0
  0
LTYPE
  5
25
330
5
100
AcDbSymbolTableRecord
100
AcDbLinetypeTableRecord
  2
DOT
 70
     0
  3
. . . . . . . . . . . . . . . . . . . . . . . .
 72
    65
 73
     2
 40
0.25
 49
0.0
 74
     0
 49
-0.25
 74
     0
  0
LTYPE
  5
26
330
5
100
AcDbSymbolTableRecord
100
AcDbLinetypeTableRecord
  2
DASHED
 70
     0
  3
__ __ __ __ __ __ __ __ __ __ __ __ __ __ __ __
 72
    65
 73
     2
 40
0.75
 49
0.5
 74
     0
 49
-0.25
 74
     0
  0
LTYPE
  5
27
330
5
100
AcDbSymbolTableRecord
100
AcDbLinetypeTableRecord
  2
CENTER
 70
     0
  3
____ _ ____ _ ____ _ ____ _ ____ _ ____ _ ____
 72
    65
 73
     4
 40
2.0
 49
1.25
 74
     0
 49
-0.25
 74
     0
 49
0.25
 74
     0
 49
-0.25
 74
     0
  0
LTYPE
  5
28
330
5
100
AcDbSymbolTableRecord
100
AcDbLinetypeTableRecord
  2
PHANTOM
 70
     0
  3
_____ _ _ _____ _ _ _____ _ _ _____ _ _ ____
 72
    65
 73
     6
 40
2.5
 49
1.25
 74
     0
 49
-0.25
 74
     0
 49
0.25
 74
     0
 49
-0.25
 74
     0
 49
0.25
 74
     0
 49
-0.25
 74
     0
  0
ENDTAB
  0
TABLE
  2
LAYER
  5
2
330
0
100
AcDbSymbolTable
 70
     6
  0
LAYER
  5
10
330
2
100
AcDbSymbolTableRecord
100
AcDbLayerTableRecord
  2
0
 70
     0
 62
     7
  6
CONTINUOUS
  0
LAYER
  5
22
330
2
100
AcDbSymbolTableRecord
100
AcDbLayerTableRecord
  2
DAMAN
 70
     0
 62
     5
  6
CONTINUOUS
  0
LAYER
  5
29
330
2
100
AcDbSymbolTableRecord
100
AcDbLayerTableRecord
  2
CSOLID
 70
     0
 62
     5
  6
CONTINUOUS
  0
LAYER
  5
2A
330
2
100
AcDbSymbolTableRecord
100
AcDbLayerTableRecord
  2
CHIDDEN
 70
     0
 62
     3
  6
HIDDEN
  0
LAYER
  5
2B
330
2
100
AcDbSymbolTableRecord
100
AcDbLayerTableRecord
  2
CCENTER
 70
     0
 62
     4
  6
CENTER
  0
LAYER
  5
2C
330
2
100
AcDbSymbolTableRecord
100
AcDbLayerTableRecord
  2
PHANTOM
 70
     0
 62
     1
  6
PHANTOM
  0
ENDTAB
  0
TABLE
  2
STYLE
  5
3
330
0
100
AcDbSymbolTable
 70
     1
  0
STYLE
  5
11
330
3
100
AcDbSymbolTableRecord
100
AcDbTextStyleTableRecord
  2
STANDARD
 70
     0
 40
0.0
 41
1.0
 50
0.0
 71
     0
 42
0.188
  3
txt
  4

  0
ENDTAB
  0
TABLE
  2
VIEW
  5
6
330
0
100
AcDbSymbolTable
 70
     0
  0
ENDTAB
  0
TABLE
  2
UCS
  5
7
330
0
100
AcDbSymbolTable
 70
     0
  0
ENDTAB
  0
TABLE
  2
APPID
  5
9
330
0
100
AcDbSymbolTable
 70
     1
  0
APPID
  5
12
330
9
100
AcDbSymbolTableRecord
100
AcDbRegAppTableRecord
  2
ACAD
 70
     0
  0
ENDTAB
  0
TABLE
  2
DIMSTYLE
  5
A
330
0
100
AcDbSymbolTable
 70
     1
  0
DIMSTYLE
105
1E7
330
A
100
AcDbSymbolTableRecord
100
AcDbDimStyleTableRecord
  2
STANDARD
 70
     0
  3

  4

  5

  6

  7

 40
1.0
 41
0.18
 42
0.0625
 43
0.38
 44
0.18
 45
0.0
 46
0.0
 47
0.0
 48
0.0
140
0.18
141
0.09
142
0.0
143
25.4
144
1.0
145
0.0
146
1.0
147
0.09
 71
     0
 72
     0
 73
     1
 74
     1
 75
     0
 76
     0
 77
     0
 78
     0
170
     0
171
     2
172
     0
173
     0
174
     0
175
     0
176
     0
177
     0
178
     0
270
     2
271
     4
272
     4
273
     2
274
     2
340
11
275
     0
280
     0
281
     0
282
     0
283
     1
284
     0
285
     0
286
     0
287
     3
288
     0
  0
ENDTAB
  0
TABLE
  2
BLOCK_RECORD
  5
1
330
0
100
AcDbSymbolTable
 70
    18
  0
BLOCK_RECORD
  5
1E
102
{ACAD_XDICTIONARY
360
236
102
}
330
1
100
AcDbSymbolTableRecord
100
AcDbBlockTableRecord
  2
*MODEL_SPACE
  0
BLOCK_RECORD
  5
1A
102
{ACAD_XDICTIONARY
360
234
102
}
330
1
100
AcDbSymbolTableRecord
100
AcDbBlockTableRecord
  2
*PAPER_SPACE
  0
BLOCK_RECORD
  5
2E
330
1
100
AcDbSymbolTableRecord
100
AcDbBlockTableRecord
  2
300MKT
  0
BLOCK_RECORD
  5
31
330
1
100
AcDbSymbolTableRecord
100
AcDbBlockTableRecord
  2
100CROSS
  0
BLOCK_RECORD
  5
72
330
1
100
AcDbSymbolTableRecord
100
AcDbBlockTableRecord
  2
050CROSS
  0
BLOCK_RECORD
  5
7D
330
1
100
AcDbSymbolTableRecord
100
AcDbBlockTableRecord
  2
D03
  0
BLOCK_RECORD
  5
98
330
1
100
AcDbSymbolTableRecord
100
AcDbBlockTableRecord
  2
10SAET
  0
BLOCK_RECORD
  5
A0
330
1
100
AcDbSymbolTableRecord
100
AcDbBlockTableRecord
  2
08SAET
  0
BLOCK_RECORD
  5
A8
330
1
100
AcDbSymbolTableRecord
100
AcDbBlockTableRecord
  2
300MKS
  0
BLOCK_RECORD
  5
D1
330
1
100
AcDbSymbolTableRecord
100
AcDbBlockTableRecord
  2
06SAET
  0
BLOCK_RECORD
  5
D9
330
1
100
AcDbSymbolTableRecord
100
AcDbBlockTableRecord
  2
12SAET
  0
BLOCK_RECORD
  5
E1
330
1
100
AcDbSymbolTableRecord
100
AcDbBlockTableRecord
  2
106SAET
  0
BLOCK_RECORD
  5
EA
330
1
100
AcDbSymbolTableRecord
100
AcDbBlockTableRecord
  2
D05
  0
BLOCK_RECORD
  5
101
330
1
100
AcDbSymbolTableRecord
100
AcDbBlockTableRecord
  2
350MKT
  0
BLOCK_RECORD
  5
143
330
1
100
AcDbSymbolTableRecord
100
AcDbBlockTableRecord
  2
075NPTFT
  0
BLOCK_RECORD
  5
145
330
1
100
AcDbSymbolTableRecord
100
AcDbBlockTableRecord
  2
750NPTFT
  0
BLOCK_RECORD
  5
14E
330
1
100
AcDbSymbolTableRecord
100
AcDbBlockTableRecord
  2
050NPTFT
  0
BLOCK_RECORD
  5
150
330
1
100
AcDbSymbolTableRecord
100
AcDbBlockTableRecord
  2
500NPTFT
  0
BLOCK_RECORD
  5
159
330
1
100
AcDbSymbolTableRecord
100
AcDbBlockTableRecord
  2
025NPTFT
  0
BLOCK_RECORD
  5
15B
330
1
100
AcDbSymbolTableRecord
100
AcDbBlockTableRecord
  2
250NPTFT
  0
ENDTAB
  0
ENDSEC
  0
SECTION
  2
BLOCKS
  0
BLOCK
  5
1F
330
1E
100
AcDbEntity
  8
0
100
AcDbBlockBegin
  2
*MODEL_SPACE
 70
     0
 10
0.0
 20
0.0
 30
0.0
  3
*MODEL_SPACE
  1

  0
ENDBLK
  5
20
330
1E
100
AcDbEntity
  8
0
100
AcDbBlockEnd
  0
BLOCK
  5
1B
330
1A
100
AcDbEntity
 67
     1
  8
0
100
AcDbBlockBegin
  2
*PAPER_SPACE
 70
     0
 10
0.0
 20
0.0
 30
0.0
  3
*PAPER_SPACE
  1

  0
ENDBLK
  5
1C
330
1A
100
AcDbEntity
 67
     1
  8
0
100
AcDbBlockEnd
  0
BLOCK
  5
2F
330
2E
100
AcDbEntity
  8
0
100
AcDbBlockBegin
  2
300MKT
 70
     0
 10
0.0
 20
0.0
 30
0.0
  3
300MKT
  1

  0
LINE
  5
30
330
2E
100
AcDbEntity
  8
DAMAN
100
AcDbLine
 10
0.6245000000000001
 20
0.0005
 30
0.0
 11
0.6245000000000001
 21
3.0005
 31
0.0
  0
INSERT
  5
32
330
2E
100
AcDbEntity
  8
DAMAN
100
AcDbBlockReference
  2
100CROSS
 10
0.312
 20
0.313
 30
0.0
 41
-0.34
 42
0.34
 43
0.34
 50
270.0
  0
LWPOLYLINE
  5
33
330
2E
100
AcDbEntity
  8
DAMAN
100
AcDbPolyline
 90
        6
 70
   129
 43
0.0
 10
0.0625
 20
0.4568380000000001
 10
0.0625
 20
0.168162
 10
0.3125
 20
0.023825
 10
0.5625
 20
0.168162
 10
0.5625
 20
0.4568380000000001
 10
0.3125
 20
0.6011750000000001
  0
CIRCLE
  5
3B
330
2E
100
AcDbEntity
  8
DAMAN
100
AcDbCircle
 10
0.313
 20
0.313
 30
0.0
 40
0.249501
  0
LINE
  5
3C
330
2E
100
AcDbEntity
  8
DAMAN
100
AcDbLine
 10
-0.84325
 20
2.53175
 30
0.0
 11
-0.3745
 21
2.53175
 31
0.0
  0
LINE
  5
3D
330
2E
100
AcDbEntity
  8
DAMAN
100
AcDbLine
 10
-0.3745
 20
2.84425
 30
0.0
 11
-0.84325
 21
2.84425
 31
0.0
  0
LINE
  5
3E
330
2E
100
AcDbEntity
  8
DAMAN
  6
HIDDEN
100
AcDbLine
 10
-0.8745
 20
2.813
 30
0.0
 11
-0.3745
 21
2.813
 31
0.0
  0
LINE
  5
3F
330
2E
100
AcDbEntity
  8
DAMAN
  6
HIDDEN
100
AcDbLine
 10
-0.3745
 20
2.563
 30
0.0
 11
-0.8745
 21
2.563
 31
0.0
  0
LINE
  5
40
330
2E
100
AcDbEntity
  8
DAMAN
100
AcDbLine
 10
0.1255
 20
2.688
 30
0.0
 11
-1.03075
 21
2.688
 31
0.0
  0
LINE
  5
41
330
2E
100
AcDbEntity
  8
DAMAN
100
AcDbLine
 10
-0.84325
 20
2.84425
 30
0.0
 11
-0.84325
 21
2.53175
 31
0.0
  0
LINE
  5
42
330
2E
100
AcDbEntity
  8
DAMAN
100
AcDbLine
 10
-0.84325
 20
2.84425
 30
0.0
 11
-0.8745
 21
2.813
 31
0.0
  0
LINE
  5
43
330
2E
100
AcDbEntity
  8
DAMAN
100
AcDbLine
 10
-0.8745
 20
2.563
 30
0.0
 11
-0.84325
 21
2.53175
 31
0.0
  0
LINE
  5
44
330
2E
100
AcDbEntity
  8
DAMAN
100
AcDbLine
 10
-0.8745
 20
2.813
 30
0.0
 11
-0.8745
 21
2.563
 31
0.0
  0
INSERT
  5
45
330
2E
100
AcDbEntity
  8
DAMAN
100
AcDbBlockReference
  2
100CROSS
 10
0.312
 20
2.688
 30
0.0
 41
-0.34
 42
0.34
 43
0.34
 50
270.0
  0
LWPOLYLINE
  5
46
330
2E
100
AcDbEntity
  8
DAMAN
100
AcDbPolyline
 90
        6
 70
   129
 43
0.0
 10
0.0625
 20
2.831838
 10
0.0625
 20
2.543161999999999
 10
0.3125
 20
2.398824999999999
 10
0.5625
 20
2.543161999999999
 10
0.5625
 20
2.831838
 10
0.3125
 20
2.976174999999999
  0
CIRCLE
  5
4E
330
2E
100
AcDbEntity
  8
DAMAN
100
AcDbCircle
 10
0.313
 20
2.688
 30
0.0
 40
0.249501
  0
LINE
  5
4F
330
2E
100
AcDbEntity
  8
DAMAN
100
AcDbLine
 10
0.0005
 20
2.438
 30
0.0
 11
0.0005
 21
2.938
 31
0.0
  0
ARC
  5
50
330
2E
100
AcDbEntity
  8
DAMAN
100
AcDbCircle
 10
-0.098458
 20
2.471493999999999
 30
0.0
 40
0.098958
100
AcDbArc
 50
313.1735509999999
 51
46.826449
  0
LINE
  5
51
330
2E
100
AcDbEntity
  8
DAMAN
100
AcDbLine
 10
-0.2495
 20
2.399325
 30
0.0
 11
-0.03075
 21
2.399325
 31
0.0
  0
LINE
  5
52
330
2E
100
AcDbEntity
  8
DAMAN
100
AcDbLine
 10
-0.03075
 20
2.399325
 30
0.0
 11
0.0005
 21
2.438
 31
0.0
  0
LINE
  5
53
330
2E
100
AcDbEntity
  8
DAMAN
100
AcDbLine
 10
0.6245000000000001
 20
3.0005
 30
0.0
 11
-0.3755
 21
3.0005
 31
0.0
  0
LINE
  5
54
330
2E
100
AcDbEntity
  8
DAMAN
100
AcDbLine
 10
-0.2495
 20
2.832338
 30
0.0
 11
-0.03075
 21
2.832338
 31
0.0
  0
LINE
  5
55
330
2E
100
AcDbEntity
  8
DAMAN
100
AcDbLine
 10
-0.03075
 20
2.543661999999999
 30
0.0
 11
-0.2495
 21
2.543661999999999
 31
0.0
  0
LINE
  5
56
330
2E
100
AcDbEntity
  8
DAMAN
100
AcDbLine
 10
-0.03075
 20
2.976675
 30
0.0
 11
-0.2495
 21
2.976675
 31
0.0
  0
ARC
  5
57
330
2E
100
AcDbEntity
  8
DAMAN
100
AcDbCircle
 10
-0.348458
 20
2.688
 30
0.0
 40
0.348958
100
AcDbArc
 50
335.5673019999999
 51
24.432698
  0
ARC
  5
58
330
2E
100
AcDbEntity
  8
DAMAN
100
AcDbCircle
 10
-0.098458
 20
2.904505999999999
 30
0.0
 40
0.098958
100
AcDbArc
 50
313.1735509999999
 51
46.826449
  0
LINE
  5
59
330
2E
100
AcDbEntity
  8
DAMAN
100
AcDbLine
 10
-0.03075
 20
2.976675
 30
0.0
 11
0.0005
 21
2.938
 31
0.0
  0
LINE
  5
5A
330
2E
100
AcDbEntity
  8
DAMAN
100
AcDbLine
 10
-0.3745
 20
0.46925
 30
0.0
 11
-0.84325
 21
0.46925
 31
0.0
  0
LINE
  5
5B
330
2E
100
AcDbEntity
  8
DAMAN
  6
HIDDEN
100
AcDbLine
 10
-0.8745
 20
0.4379999999999999
 30
0.0
 11
-0.3745
 21
0.4379999999999999
 31
0.0
  0
LINE
  5
5C
330
2E
100
AcDbEntity
  8
DAMAN
100
AcDbLine
 10
-0.84325
 20
0.15675
 30
0.0
 11
-0.3745
 21
0.15675
 31
0.0
  0
LINE
  5
5D
330
2E
100
AcDbEntity
  8
DAMAN
  6
HIDDEN
100
AcDbLine
 10
-0.3745
 20
0.188
 30
0.0
 11
-0.8745
 21
0.188
 31
0.0
  0
LINE
  5
5E
330
2E
100
AcDbEntity
  8
DAMAN
100
AcDbLine
 10
0.1255
 20
0.313
 30
0.0
 11
-1.03075
 21
0.313
 31
0.0
  0
LINE
  5
5F
330
2E
100
AcDbEntity
  8
DAMAN
100
AcDbLine
 10
-0.84325
 20
0.46925
 30
0.0
 11
-0.84325
 21
0.15675
 31
0.0
  0
LINE
  5
60
330
2E
100
AcDbEntity
  8
DAMAN
100
AcDbLine
 10
-0.8745
 20
0.188
 30
0.0
 11
-0.84325
 21
0.15675
 31
0.0
  0
LINE
  5
61
330
2E
100
AcDbEntity
  8
DAMAN
100
AcDbLine
 10
-0.8745
 20
0.4379999999999999
 30
0.0
 11
-0.8745
 21
0.188
 31
0.0
  0
LINE
  5
62
330
2E
100
AcDbEntity
  8
DAMAN
100
AcDbLine
 10
-0.84325
 20
0.46925
 30
0.0
 11
-0.8745
 21
0.4379999999999999
 31
0.0
  0
LINE
  5
63
330
2E
100
AcDbEntity
  8
DAMAN
100
AcDbLine
 10
0.0005
 20
0.063
 30
0.0
 11
0.0005
 21
0.5629999999999999
 31
0.0
  0
ARC
  5
64
330
2E
100
AcDbEntity
  8
DAMAN
100
AcDbCircle
 10
-0.098458
 20
0.5295060000000001
 30
0.0
 40
0.098958
100
AcDbArc
 50
313.1735509999999
 51
46.826449
  0
LINE
  5
65
330
2E
100
AcDbEntity
  8
DAMAN
100
AcDbLine
 10
-0.2495
 20
0.4573380000000001
 30
0.0
 11
-0.03075
 21
0.4573380000000001
 31
0.0
  0
LINE
  5
66
330
2E
100
AcDbEntity
  8
DAMAN
100
AcDbLine
 10
-0.2495
 20
0.024325
 30
0.0
 11
-0.03075
 21
0.024325
 31
0.0
  0
LINE
  5
67
330
2E
100
AcDbEntity
  8
DAMAN
100
AcDbLine
 10
-0.03075
 20
0.168662
 30
0.0
 11
-0.2495
 21
0.168662
 31
0.0
  0
ARC
  5
68
330
2E
100
AcDbEntity
  8
DAMAN
100
AcDbCircle
 10
-0.098458
 20
0.096494
 30
0.0
 40
0.098958
100
AcDbArc
 50
313.1735509999999
 51
46.826449
  0
LINE
  5
69
330
2E
100
AcDbEntity
  8
DAMAN
100
AcDbLine
 10
-0.03075
 20
0.024325
 30
0.0
 11
0.0005
 21
0.063
 31
0.0
  0
ARC
  5
6A
330
2E
100
AcDbEntity
  8
DAMAN
100
AcDbCircle
 10
-0.348458
 20
0.313
 30
0.0
 40
0.348958
100
AcDbArc
 50
335.5673019999999
 51
24.432698
  0
LINE
  5
6B
330
2E
100
AcDbEntity
  8
DAMAN
100
AcDbLine
 10
-0.03075
 20
0.601675
 30
0.0
 11
-0.2495
 21
0.601675
 31
0.0
  0
LINE
  5
6C
330
2E
100
AcDbEntity
  8
DAMAN
100
AcDbLine
 10
-0.03075
 20
0.601675
 30
0.0
 11
0.0005
 21
0.5629999999999999
 31
0.0
  0
LINE
  5
6D
330
2E
100
AcDbEntity
  8
DAMAN
100
AcDbLine
 10
-0.2555
 20
3.0005
 30
0.0
 11
-0.2555
 21
0.0005
 31
0.0
  0
LINE
  5
6E
330
2E
100
AcDbEntity
  8
DAMAN
100
AcDbLine
 10
-0.3755
 20
3.0005
 30
0.0
 11
-0.3755
 21
0.0005
 31
0.0
  0
LINE
  5
6F
330
2E
100
AcDbEntity
  8
DAMAN
100
AcDbLine
 10
-0.3755
 20
0.0005
 30
0.0
 11
0.6245000000000001
 21
0.0005
 31
0.0
  0
ENDBLK
  5
70
330
2E
100
AcDbEntity
  8
0
100
AcDbBlockEnd
  0
BLOCK
  5
71
330
31
100
AcDbEntity
  8
0
100
AcDbBlockBegin
  2
100CROSS
 70
     0
 10
5.625
 20
4.59375
 30
0.0
  3
100CROSS
  1

  0
INSERT
  5
73
330
31
100
AcDbEntity
  8
0
100
AcDbBlockReference
  2
050CROSS
 10
5.625
 20
4.59375
 30
0.0
  0
ENDBLK
  5
74
330
31
100
AcDbEntity
  8
0
100
AcDbBlockEnd
  0
BLOCK
  5
75
330
72
100
AcDbEntity
  8
0
100
AcDbBlockBegin
  2
050CROSS
 70
     0
 10
5.0
 20
5.0
 30
0.0
  3
050CROSS
  1

  0
LINE
  5
76
330
72
100
AcDbEntity
  8
0
100
AcDbLine
 10
5.0
 20
5.28125
 30
0.0
 11
5.0
 21
5.78125
 31
0.0
  0
LINE
  5
77
330
72
100
AcDbEntity
  8
0
100
AcDbLine
 10
5.0
 20
4.875
 30
0.0
 11
5.0
 21
5.125
 31
0.0
  0
LINE
  5
78
330
72
100
AcDbEntity
  8
0
100
AcDbLine
 10
5.0
 20
4.15625
 30
0.0
 11
5.0
 21
4.71875
 31
0.0
  0
LINE
  5
79
330
72
100
AcDbEntity
  8
0
100
AcDbLine
 10
5.25
 20
5.0
 30
0.0
 11
5.8125
 21
5.0
 31
0.0
  0
LINE
  5
7A
330
72
100
AcDbEntity
  8
0
100
AcDbLine
 10
4.90625
 20
5.0
 30
0.0
 11
5.09375
 21
5.0
 31
0.0
  0
LINE
  5
7B
330
72
100
AcDbEntity
  8
0
100
AcDbLine
 10
4.1875
 20
5.0
 30
0.0
 11
4.75
 21
5.0
 31
0.0
  0
ENDBLK
  5
7C
330
72
100
AcDbEntity
  8
0
100
AcDbBlockEnd
  0
BLOCK
  5
7E
330
7D
100
AcDbEntity
  8
0
100
AcDbBlockBegin
  2
D03
 70
     0
 10
0.0
 20
0.0
 30
0.0
  3
D03
  1

  0
INSERT
  5
7F
330
7D
100
AcDbEntity
  8
DAMAN
100
AcDbBlockReference
  2
100CROSS
 10
0.61
 20
-1.1875
 30
0.0
 41
0.25
 42
0.25
  0
INSERT
  5
80
330
7D
100
AcDbEntity
  8
DAMAN
100
AcDbBlockReference
  2
100CROSS
 10
0.61
 20
-0.5
 30
0.0
 41
0.25
 42
0.25
  0
CIRCLE
  5
81
330
7D
100
AcDbEntity
  8
DAMAN
100
AcDbCircle
 10
0.61
 20
-0.5
 30
0.0
 40
0.141125
  0
CIRCLE
  5
82
330
7D
100
AcDbEntity
  8
DAMAN
100
AcDbCircle
 10
0.61
 20
-1.1875
 30
0.0
 40
0.141125
  0
INSERT
  5
83
330
7D
100
AcDbEntity
  8
DAMAN
100
AcDbBlockReference
  2
100CROSS
 10
0.2035
 20
-0.8440000000000001
 30
0.0
 41
0.25
 42
0.25
  0
CIRCLE
  5
84
330
7D
100
AcDbEntity
  8
DAMAN
100
AcDbCircle
 10
0.2035
 20
-0.8440000000000001
 30
0.0
 40
0.141375
  0
INSERT
  5
85
330
7D
100
AcDbEntity
  8
DAMAN
100
AcDbBlockReference
  2
100CROSS
 10
-0.03
 20
-1.3
 30
0.0
 41
0.171
 42
0.171
  0
INSERT
  5
86
330
7D
100
AcDbEntity
  8
DAMAN
100
AcDbBlockReference
  2
100CROSS
 10
-0.03
 20
-1.594
 30
0.0
 41
0.188
 42
0.188
  0
CIRCLE
  5
87
330
7D
100
AcDbEntity
  8
DAMAN
  6
HIDDEN
100
AcDbCircle
 10
-0.03
 20
-1.594
 30
0.0
 40
0.095
  0
CIRCLE
  5
88
330
7D
100
AcDbEntity
  8
DAMAN
100
AcDbCircle
 10
-0.03
 20
-1.59375
 30
0.0
 40
0.078
  0
CIRCLE
  5
89
330
7D
100
AcDbEntity
  8
DAMAN
100
AcDbCircle
 10
-0.03
 20
-1.3
 30
0.0
 40
0.0855
  0
POINT
  5
8A
330
7D
100
AcDbEntity
  8
DAMAN
  6
BYBLOCK
 62
     0
100
AcDbPoint
 10
0.20425
 20
-0.75
 30
0.0
  0
POINT
  5
8B
330
7D
100
AcDbEntity
  8
DAMAN
  6
BYBLOCK
 62
     0
100
AcDbPoint
 10
0.20425
 20
-0.75
 30
0.0
  0
INSERT
  5
8C
330
7D
100
AcDbEntity
  8
DAMAN
100
AcDbBlockReference
  2
100CROSS
 10
0.0
 20
0.0
 30
0.0
 41
0.188
 42
0.188
  0
CIRCLE
  5
8D
330
7D
100
AcDbEntity
  8
DAMAN
100
AcDbCircle
 10
0.0
 20
0.0
 30
0.0
 40
0.078
  0
CIRCLE
  5
8E
330
7D
100
AcDbEntity
  8
DAMAN
  6
HIDDEN
100
AcDbCircle
 10
0.0
 20
0.0
 30
0.0
 40
0.095
  0
INSERT
  5
8F
330
7D
100
AcDbEntity
  8
DAMAN
100
AcDbBlockReference
  2
100CROSS
 10
1.016
 20
-0.8440000000000001
 30
0.0
 41
0.25
 42
0.25
  0
CIRCLE
  5
90
330
7D
100
AcDbEntity
  8
DAMAN
100
AcDbCircle
 10
1.016
 20
-0.8440000000000001
 30
0.0
 40
0.141375
  0
INSERT
  5
91
330
7D
100
AcDbEntity
  8
DAMAN
100
AcDbBlockReference
  2
100CROSS
 10
1.25
 20
-1.594
 30
0.0
 41
0.188
 42
0.188
  0
CIRCLE
  5
92
330
7D
100
AcDbEntity
  8
DAMAN
  6
HIDDEN
100
AcDbCircle
 10
1.25
 20
-1.594
 30
0.0
 40
0.095
  0
CIRCLE
  5
93
330
7D
100
AcDbEntity
  8
DAMAN
100
AcDbCircle
 10
1.25
 20
-1.59375
 30
0.0
 40
0.078
  0
CIRCLE
  5
94
330
7D
100
AcDbEntity
  8
DAMAN
100
AcDbCircle
 10
1.219999999999999
 20
0.0
 30
0.0
 40
0.078
  0
INSERT
  5
95
330
7D
100
AcDbEntity
  8
DAMAN
100
AcDbBlockReference
  2
100CROSS
 10
1.219999999999999
 20
0.0
 30
0.0
 41
0.188
 42
0.188
  0
CIRCLE
  5
96
330
7D
100
AcDbEntity
  8
DAMAN
  6
HIDDEN
100
AcDbCircle
 10
1.219999999999999
 20
0.0
 30
0.0
 40
0.095
  0
ENDBLK
  5
97
330
7D
100
AcDbEntity
  8
0
100
AcDbBlockEnd
  0
BLOCK
  5
99
330
98
100
AcDbEntity
  8
0
100
AcDbBlockBegin
  2
10SAET
 70
     0
 10
0.0
 20
0.0
 30
0.0
  3
10SAET
  1

  0
CIRCLE
  5
9A
330
98
100
AcDbEntity
  8
DAMAN
100
AcDbCircle
 10
0.0
 20
0.0
 30
0.0
 40
0.3439999999999999
  0
INSERT
  5
9B
330
98
100
AcDbEntity
  8
DAMAN
100
AcDbBlockReference
  2
100CROSS
 10
0.0
 20
0.0
 30
0.0
 41
1.199999999999999
 42
1.199999999999999
  0
CIRCLE
  5
9C
330
98
100
AcDbEntity
  8
DAMAN
100
AcDbCircle
 10
0.0
 20
0.0
 30
0.0
 40
0.6875
  0
CIRCLE
  5
9D
330
98
100
AcDbEntity
  8
DAMAN
  6
HIDDEN
100
AcDbCircle
 10
0.0
 20
0.0
 30
0.0
 40
0.4060000000000001
  0
CIRCLE
  5
9E
330
98
100
AcDbEntity
  8
DAMAN
100
AcDbCircle
 10
0.0
 20
0.0
 30
0.0
 40
0.4375
  0
ENDBLK
  5
9F
330
98
100
AcDbEntity
  8
0
100
AcDbBlockEnd
  0
BLOCK
  5
A1
330
A0
100
AcDbEntity
  8
0
100
AcDbBlockBegin
  2
08SAET
 70
     0
 10
0.0
 20
0.0
 30
0.0
  3
08SAET
  1

  0
CIRCLE
  5
A2
330
A0
100
AcDbEntity
  8
DAMAN
100
AcDbCircle
 10
0.0
 20
0.0
 30
0.0
 40
0.375
  0
CIRCLE
  5
A3
330
A0
100
AcDbEntity
  8
DAMAN
100
AcDbCircle
 10
0.0
 20
0.0
 30
0.0
 40
0.3125
  0
CIRCLE
  5
A4
330
A0
100
AcDbEntity
  8
DAMAN
  6
HIDDEN
100
AcDbCircle
 10
0.0
 20
0.0
 30
0.0
 40
0.3439999999999999
  0
INSERT
  5
A5
330
A0
100
AcDbEntity
  8
DAMAN
100
AcDbBlockReference
  2
100CROSS
 10
0.0
 20
0.0
 30
0.0
 41
0.88
 42
0.88
  0
CIRCLE
  5
A6
330
A0
100
AcDbEntity
  8
DAMAN
100
AcDbCircle
 10
0.0
 20
0.0
 30
0.0
 40
0.594
  0
ENDBLK
  5
A7
330
A0
100
AcDbEntity
  8
0
100
AcDbBlockEnd
  0
BLOCK
  5
A9
330
A8
100
AcDbEntity
  8
0
100
AcDbBlockBegin
  2
300MKS
 70
     0
 10
0.0
 20
0.0
 30
0.0
  3
300MKS
  1

  0
LINE
  5
AA
330
A8
100
AcDbEntity
  8
DAMAN
100
AcDbLine
 10
-1.0
 20
-0.375
 30
0.0
 11
-0.25
 21
-0.375
 31
0.0
  0
LINE
  5
AB
330
A8
100
AcDbEntity
  8
DAMAN
100
AcDbLine
 10
-0.25
 20
-0.25
 30
0.0
 11
-1.0
 21
-0.25
 31
0.0
  0
LINE
  5
AC
330
A8
100
AcDbEntity
  8
DAMAN
100
AcDbLine
 10
-0.84375
 20
-0.84375
 30
0.0
 11
-0.53125
 21
-0.84375
 31
0.0
  0
LINE
  5
AD
330
A8
100
AcDbEntity
  8
DAMAN
100
AcDbLine
 10
-0.8125
 20
-0.875
 30
0.0
 11
-0.5625
 21
-0.875
 31
0.0
  0
LINE
  5
AE
330
A8
100
AcDbEntity
  8
DAMAN
100
AcDbLine
 10
-0.4375
 20
0.0
 30
0.0
 11
-0.9375
 21
0.0
 31
0.0
  0
ARC
  5
AF
330
A8
100
AcDbEntity
  8
DAMAN
100
AcDbCircle
 10
-0.6875
 20
-0.348958
 30
0.0
 40
0.348958
100
AcDbArc
 50
65.567302
 51
114.4326979999999
  0
LINE
  5
B0
330
A8
100
AcDbEntity
  8
DAMAN
100
AcDbLine
 10
-0.6875
 20
0.125
 30
0.0
 11
-0.6875
 21
-1.03125
 31
0.0
  0
LINE
  5
B1
330
A8
100
AcDbEntity
  8
DAMAN
  6
HIDDEN
100
AcDbLine
 10
-0.8125
 20
-0.875
 30
0.0
 11
-0.8125
 21
-0.375
 31
0.0
  0
LINE
  5
B2
330
A8
100
AcDbEntity
  8
DAMAN
100
AcDbLine
 10
-0.84375
 20
-0.375
 30
0.0
 11
-0.84375
 21
-0.84375
 31
0.0
  0
LINE
  5
B3
330
A8
100
AcDbEntity
  8
DAMAN
100
AcDbLine
 10
-0.84375
 20
-0.84375
 30
0.0
 11
-0.8125
 21
-0.875
 31
0.0
  0
LINE
  5
B4
330
A8
100
AcDbEntity
  8
DAMAN
100
AcDbLine
 10
-1.0
 20
-0.25
 30
0.0
 11
-1.0
 21
-0.375
 31
0.0
  0
ARC
  5
B5
330
A8
100
AcDbEntity
  8
DAMAN
100
AcDbCircle
 10
-0.904006
 20
-0.098958
 30
0.0
 40
0.098958
100
AcDbArc
 50
43.17355100000001
 51
136.826449
  0
LINE
  5
B6
330
A8
100
AcDbEntity
  8
DAMAN
100
AcDbLine
 10
-0.9761749999999999
 20
-0.03125
 30
0.0
 11
-0.9761749999999999
 21
-0.25
 31
0.0
  0
LINE
  5
B7
330
A8
100
AcDbEntity
  8
DAMAN
100
AcDbLine
 10
-0.9761749999999999
 20
-0.03125
 30
0.0
 11
-0.9375
 21
0.0
 31
0.0
  0
LINE
  5
B8
330
A8
100
AcDbEntity
  8
DAMAN
100
AcDbLine
 10
-0.8318379999999999
 20
-0.25
 30
0.0
 11
-0.8318379999999999
 21
-0.03125
 31
0.0
  0
LINE
  5
B9
330
A8
100
AcDbEntity
  8
DAMAN
100
AcDbLine
 10
0.0
 20
-0.125
 30
0.0
 11
0.0
 21
0.625
 31
0.0
  0
LINE
  5
BA
330
A8
100
AcDbEntity
  8
DAMAN
100
AcDbLine
 10
-0.125
 20
0.625
 30
0.0
 11
-0.125
 21
-0.125
 31
0.0
  0
LINE
  5
BB
330
A8
100
AcDbEntity
  8
DAMAN
  6
HIDDEN
100
AcDbLine
 10
-0.5625
 20
-0.375
 30
0.0
 11
-0.5625
 21
-0.875
 31
0.0
  0
LINE
  5
BC
330
A8
100
AcDbEntity
  8
DAMAN
100
AcDbLine
 10
-0.53125
 20
-0.84375
 30
0.0
 11
-0.53125
 21
-0.375
 31
0.0
  0
LINE
  5
BD
330
A8
100
AcDbEntity
  8
DAMAN
100
AcDbLine
 10
-0.5625
 20
-0.875
 30
0.0
 11
-0.53125
 21
-0.84375
 31
0.0
  0
ARC
  5
BE
330
A8
100
AcDbEntity
  8
DAMAN
100
AcDbCircle
 10
-0.25
 20
-0.125
 30
0.0
 40
0.25
100
AcDbArc
 50
270.0
 51
0.0
  0
ARC
  5
BF
330
A8
100
AcDbEntity
  8
DAMAN
100
AcDbCircle
 10
-0.25
 20
-0.125
 30
0.0
 40
0.125
100
AcDbArc
 50
270.0
 51
0.0
  0
LINE
  5
C0
330
A8
100
AcDbEntity
  8
DAMAN
100
AcDbLine
 10
-0.5431620000000001
 20
-0.03125
 30
0.0
 11
-0.5431620000000001
 21
-0.25
 31
0.0
  0
LINE
  5
C1
330
A8
100
AcDbEntity
  8
DAMAN
100
AcDbLine
 10
-0.398825
 20
-0.25
 30
0.0
 11
-0.398825
 21
-0.03125
 31
0.0
  0
ARC
  5
C2
330
A8
100
AcDbEntity
  8
DAMAN
100
AcDbCircle
 10
-0.470994
 20
-0.098958
 30
0.0
 40
0.098958
100
AcDbArc
 50
43.17355100000001
 51
136.826449
  0
LINE
  5
C3
330
A8
100
AcDbEntity
  8
DAMAN
100
AcDbLine
 10
-0.398825
 20
-0.03125
 30
0.0
 11
-0.4375
 21
0.0
 31
0.0
  0
LINE
  5
C4
330
A8
100
AcDbEntity
  8
DAMAN
100
AcDbLine
 10
-0.125
 20
0.168162
 30
0.0
 11
-0.34375
 21
0.168162
 31
0.0
  0
LINE
  5
C5
330
A8
100
AcDbEntity
  8
DAMAN
100
AcDbLine
 10
-0.34375
 20
0.023825
 30
0.0
 11
-0.125
 21
0.023825
 31
0.0
  0
LINE
  5
C6
330
A8
100
AcDbEntity
  8
DAMAN
100
AcDbLine
 10
-0.34375
 20
0.4568380000000001
 30
0.0
 11
-0.125
 21
0.4568380000000001
 31
0.0
  0
LINE
  5
C7
330
A8
100
AcDbEntity
  8
DAMAN
100
AcDbLine
 10
-0.125
 20
0.6011750000000001
 30
0.0
 11
-0.34375
 21
0.6011750000000001
 31
0.0
  0
ARC
  5
C8
330
A8
100
AcDbEntity
  8
DAMAN
100
AcDbCircle
 10
-0.026042
 20
0.3125
 30
0.0
 40
0.348958
100
AcDbArc
 50
155.567302
 51
204.432698
  0
LINE
  5
C9
330
A8
100
AcDbEntity
  8
DAMAN
100
AcDbLine
 10
-0.375
 20
0.5625
 30
0.0
 11
-0.375
 21
0.0625
 31
0.0
  0
LINE
  5
CA
330
A8
100
AcDbEntity
  8
DAMAN
100
AcDbLine
 10
-0.34375
 20
0.023825
 30
0.0
 11
-0.375
 21
0.0625
 31
0.0
  0
ARC
  5
CB
330
A8
100
AcDbEntity
  8
DAMAN
100
AcDbCircle
 10
-0.276042
 20
0.095994
 30
0.0
 40
0.098958
100
AcDbArc
 50
133.173551
 51
226.826449
  0
LINE
  5
CC
330
A8
100
AcDbEntity
  8
DAMAN
100
AcDbLine
 10
-0.34375
 20
0.6011750000000001
 30
0.0
 11
-0.375
 21
0.5625
 31
0.0
  0
ARC
  5
CD
330
A8
100
AcDbEntity
  8
DAMAN
100
AcDbCircle
 10
-0.276042
 20
0.5290060000000001
 30
0.0
 40
0.098958
100
AcDbArc
 50
133.173551
 51
226.826449
  0
LINE
  5
CE
330
A8
100
AcDbEntity
  8
DAMAN
100
AcDbLine
 10
0.0
 20
0.625
 30
0.0
 11
-0.125
 21
0.625
 31
0.0
  0
LINE
  5
CF
330
A8
100
AcDbEntity
  8
DAMAN
100
AcDbLine
 10
-0.5
 20
0.3125
 30
0.0
 11
0.375
 21
0.3125
 31
0.0
  0
ENDBLK
  5
D0
330
A8
100
AcDbEntity
  8
0
100
AcDbBlockEnd
  0
BLOCK
  5
D2
330
D1
100
AcDbEntity
  8
0
100
AcDbBlockBegin
  2
06SAET
 70
     0
 10
0.0
 20
0.0
 30
0.0
  3
06SAET
  1

  0
CIRCLE
  5
D3
330
D1
100
AcDbEntity
  8
CSOLID
  6
HIDDEN
100
AcDbCircle
 10
0.0
 20
0.0
 30
0.0
 40
0.281
  0
CIRCLE
  5
D4
330
D1
100
AcDbEntity
  8
CSOLID
100
AcDbCircle
 10
0.0
 20
0.0
 30
0.0
 40
0.308
  0
CIRCLE
  5
D5
330
D1
100
AcDbEntity
  8
CSOLID
100
AcDbCircle
 10
0.0
 20
0.0
 30
0.0
 40
0.25
  0
CIRCLE
  5
D6
330
D1
100
AcDbEntity
  8
CSOLID
100
AcDbCircle
 10
0.0
 20
0.0
 30
0.0
 40
0.4844000000000001
  0
INSERT
  5
D7
330
D1
100
AcDbEntity
  8
DAMAN
100
AcDbBlockReference
  2
100CROSS
 10
0.0
 20
0.0
 30
0.0
 41
0.88
 42
0.88
  0
ENDBLK
  5
D8
330
D1
100
AcDbEntity
  8
0
100
AcDbBlockEnd
  0
BLOCK
  5
DA
330
D9
100
AcDbEntity
  8
0
100
AcDbBlockBegin
  2
12SAET
 70
     0
 10
0.0
 20
0.0
 30
0.0
  3
12SAET
  1

  0
CIRCLE
  5
DB
330
D9
100
AcDbEntity
  8
DAMAN
100
AcDbCircle
 10
0.0
 20
0.0
 30
0.0
 40
0.4920000000000001
  0
CIRCLE
  5
DC
330
D9
100
AcDbEntity
  8
DAMAN
100
AcDbCircle
 10
0.0
 20
0.0
 30
0.0
 40
0.453
  0
CIRCLE
  5
DD
330
D9
100
AcDbEntity
  8
DAMAN
100
AcDbCircle
 10
0.0
 20
0.0
 30
0.0
 40
0.8125
  0
INSERT
  5
DE
330
D9
100
AcDbEntity
  8
DAMAN
100
AcDbBlockReference
  2
100CROSS
 10
0.0
 20
0.0
 30
0.0
 41
1.33
 42
1.33
  0
CIRCLE
  5
DF
330
D9
100
AcDbEntity
  8
DAMAN
100
AcDbCircle
 10
0.0
 20
0.0
 30
0.0
 40
0.53125
  0
ENDBLK
  5
E0
330
D9
100
AcDbEntity
  8
0
100
AcDbBlockEnd
  0
BLOCK
  5
E2
330
E1
100
AcDbEntity
  8
0
100
AcDbBlockBegin
  2
106SAET
 70
     0
 10
0.0
 20
0.0
 30
0.0
  3
106SAET
  1

  0
CIRCLE
  5
E3
330
E1
100
AcDbEntity
  8
CSOLID
100
AcDbCircle
 10
0.0
 20
0.0
 30
0.0
 40
0.4920000000000001
  0
CIRCLE
  5
E4
330
E1
100
AcDbEntity
  8
CSOLID
100
AcDbCircle
 10
0.0
 20
0.0
 30
0.0
 40
0.453
  0
CIRCLE
  5
E5
330
E1
100
AcDbEntity
  8
CSOLID
100
AcDbCircle
 10
0.0
 20
0.0
 30
0.0
 40
0.8125
  0
INSERT
  5
E6
330
E1
100
AcDbEntity
  8
CCENTER
100
AcDbBlockReference
  2
100CROSS
 10
0.0
 20
0.0
 30
0.0
 41
1.33
 42
1.33
  0
CIRCLE
  5
E7
330
E1
100
AcDbEntity
  8
CHIDDEN
100
AcDbCircle
 10
0.0
 20
0.0
 30
0.0
 40
0.53125
  0
CIRCLE
  5
E8
330
E1
100
AcDbEntity
  8
PHANTOM
100
AcDbCircle
 10
0.0
 20
0.0
 30
0.0
 40
0.725
  0
ENDBLK
  5
E9
330
E1
100
AcDbEntity
  8
0
100
AcDbBlockEnd
  0
BLOCK
  5
EB
330
EA
100
AcDbEntity
  8
0
100
AcDbBlockBegin
  2
D05
 70
     0
 10
0.0
 20
0.0
 30
0.0
  3
D05
  1

  0
CIRCLE
  5
EC
330
EA
100
AcDbEntity
  8
DAMAN
  6
HIDDEN
100
AcDbCircle
 10
1.8125
 20
0.0
 30
0.0
 40
0.125
  0
CIRCLE
  5
ED
330
EA
100
AcDbEntity
  8
DAMAN
  6
HIDDEN
100
AcDbCircle
 10
1.8125
 20
-2.125
 30
0.0
 40
0.125
  0
CIRCLE
  5
EE
330
EA
100
AcDbEntity
  8
DAMAN
  6
HIDDEN
100
AcDbCircle
 10
0.0
 20
0.0
 30
0.0
 40
0.125
  0
CIRCLE
  5
EF
330
EA
100
AcDbEntity
  8
DAMAN
  6
HIDDEN
100
AcDbCircle
 10
0.0
 20
-2.125
 30
0.0
 40
0.125
  0
INSERT
  5
F0
330
EA
100
AcDbEntity
  8
DAMAN
100
AcDbBlockReference
  2
100CROSS
 10
0.0
 20
0.0
 30
0.0
 41
0.25
 42
0.25
  0
CIRCLE
  5
F1
330
EA
100
AcDbEntity
  8
DAMAN
100
AcDbCircle
 10
0.0
 20
0.0
 30
0.0
 40
0.1055
  0
CIRCLE
  5
F2
330
EA
100
AcDbEntity
  8
DAMAN
100
AcDbCircle
 10
0.0
 20
-2.125
 30
0.0
 40
0.1055
  0
INSERT
  5
F3
330
EA
100
AcDbEntity
  8
DAMAN
100
AcDbBlockReference
  2
100CROSS
 10
0.0
 20
-2.125
 30
0.0
 41
0.25
 42
0.25
  0
CIRCLE
  5
F4
330
EA
100
AcDbEntity
  8
DAMAN
100
AcDbCircle
 10
1.8125
 20
0.0
 30
0.0
 40
0.1055
  0
INSERT
  5
F5
330
EA
100
AcDbEntity
  8
DAMAN
100
AcDbBlockReference
  2
100CROSS
 10
1.8125
 20
0.0
 30
0.0
 41
0.25
 42
0.25
  0
CIRCLE
  5
F6
330
EA
100
AcDbEntity
  8
DAMAN
100
AcDbCircle
 10
1.8125
 20
-2.125
 30
0.0
 40
0.1055
  0
INSERT
  5
F7
330
EA
100
AcDbEntity
  8
DAMAN
100
AcDbBlockReference
  2
100CROSS
 10
1.8125
 20
-2.125
 30
0.0
 41
0.25
 42
0.25
  0
INSERT
  5
F8
330
EA
100
AcDbEntity
  8
DAMAN
100
AcDbBlockReference
  2
100CROSS
 10
0.5310000000000001
 20
-0.125
 30
0.0
 41
0.4379999999999999
 42
0.4379999999999999
  0
CIRCLE
  5
F9
330
EA
100
AcDbEntity
  8
DAMAN
100
AcDbCircle
 10
0.5310000000000001
 20
-0.125
 30
0.0
 40
0.21875
  0
CIRCLE
  5
FA
330
EA
100
AcDbEntity
  8
DAMAN
100
AcDbCircle
 10
0.9685
 20
-0.6559999999999999
 30
0.0
 40
0.21875
  0
INSERT
  5
FB
330
EA
100
AcDbEntity
  8
DAMAN
100
AcDbBlockReference
  2
100CROSS
 10
0.9685
 20
-0.6559999999999999
 30
0.0
 41
0.4379999999999999
 42
0.4379999999999999
  0
INSERT
  5
FC
330
EA
100
AcDbEntity
  8
DAMAN
100
AcDbBlockReference
  2
100CROSS
 10
0.9685
 20
-1.468499999999999
 30
0.0
 41
0.4379999999999999
 42
0.4379999999999999
  0
CIRCLE
  5
FD
330
EA
100
AcDbEntity
  8
DAMAN
100
AcDbCircle
 10
0.9685
 20
-1.468499999999999
 30
0.0
 40
0.21875
  0
CIRCLE
  5
FE
330
EA
100
AcDbEntity
  8
DAMAN
100
AcDbCircle
 10
1.5625
 20
-1.062249999999999
 30
0.0
 40
0.21875
  0
INSERT
  5
FF
330
EA
100
AcDbEntity
  8
DAMAN
100
AcDbBlockReference
  2
100CROSS
 10
1.5625
 20
-1.062249999999999
 30
0.0
 41
0.4379999999999999
 42
0.4379999999999999
  0
ENDBLK
  5
100
330
EA
100
AcDbEntity
  8
0
100
AcDbBlockEnd
  0
BLOCK
  5
102
330
101
100
AcDbEntity
  8
0
100
AcDbBlockBegin
  2
350MKT
 70
     0
 10
0.0
 20
0.0
 30
0.0
  3
350MKT
  1

  0
LINE
  5
103
330
101
100
AcDbEntity
  8
DAMAN
100
AcDbLine
 10
0.6245000000000001
 20
-0.2495
 30
0.0
 11
0.6245000000000001
 21
3.2505
 31
0.0
  0
INSERT
  5
104
330
101
100
AcDbEntity
  8
DAMAN
100
AcDbBlockReference
  2
100CROSS
 10
0.312
 20
0.313
 30
0.0
 41
-0.34
 42
0.34
 43
0.34
 50
270.0
  0
LWPOLYLINE
  5
105
330
101
100
AcDbEntity
  8
DAMAN
100
AcDbPolyline
 90
        6
 70
   129
 43
0.0
 10
0.0625
 20
0.4568380000000001
 10
0.0625
 20
0.168162
 10
0.3125
 20
0.023825
 10
0.5625
 20
0.168162
 10
0.5625
 20
0.4568380000000001
 10
0.3125
 20
0.6011750000000001
  0
CIRCLE
  5
10D
330
101
100
AcDbEntity
  8
DAMAN
100
AcDbCircle
 10
0.313
 20
0.313
 30
0.0
 40
0.249501
  0
LINE
  5
10E
330
101
100
AcDbEntity
  8
DAMAN
100
AcDbLine
 10
-0.84325
 20
2.53175
 30
0.0
 11
-0.3745
 21
2.53175
 31
0.0
  0
LINE
  5
10F
330
101
100
AcDbEntity
  8
DAMAN
100
AcDbLine
 10
-0.3745
 20
2.84425
 30
0.0
 11
-0.84325
 21
2.84425
 31
0.0
  0
LINE
  5
110
330
101
100
AcDbEntity
  8
DAMAN
  6
HIDDEN
100
AcDbLine
 10
-0.8745
 20
2.813
 30
0.0
 11
-0.3745
 21
2.813
 31
0.0
  0
LINE
  5
111
330
101
100
AcDbEntity
  8
DAMAN
  6
HIDDEN
100
AcDbLine
 10
-0.3745
 20
2.563
 30
0.0
 11
-0.8745
 21
2.563
 31
0.0
  0
LINE
  5
112
330
101
100
AcDbEntity
  8
DAMAN
100
AcDbLine
 10
0.1255
 20
2.688
 30
0.0
 11
-1.03075
 21
2.688
 31
0.0
  0
LINE
  5
113
330
101
100
AcDbEntity
  8
DAMAN
100
AcDbLine
 10
-0.84325
 20
2.84425
 30
0.0
 11
-0.84325
 21
2.53175
 31
0.0
  0
LINE
  5
114
330
101
100
AcDbEntity
  8
DAMAN
100
AcDbLine
 10
-0.84325
 20
2.84425
 30
0.0
 11
-0.8745
 21
2.813
 31
0.0
  0
LINE
  5
115
330
101
100
AcDbEntity
  8
DAMAN
100
AcDbLine
 10
-0.8745
 20
2.563
 30
0.0
 11
-0.84325
 21
2.53175
 31
0.0
  0
LINE
  5
116
330
101
100
AcDbEntity
  8
DAMAN
100
AcDbLine
 10
-0.8745
 20
2.813
 30
0.0
 11
-0.8745
 21
2.563
 31
0.0
  0
INSERT
  5
117
330
101
100
AcDbEntity
  8
DAMAN
100
AcDbBlockReference
  2
100CROSS
 10
0.312
 20
2.688
 30
0.0
 41
-0.34
 42
0.34
 43
0.34
 50
270.0
  0
LWPOLYLINE
  5
118
330
101
100
AcDbEntity
  8
DAMAN
100
AcDbPolyline
 90
        6
 70
   129
 43
0.0
 10
0.0625
 20
2.831838
 10
0.0625
 20
2.543161999999999
 10
0.3125
 20
2.398824999999999
 10
0.5625
 20
2.543161999999999
 10
0.5625
 20
2.831838
 10
0.3125
 20
2.976174999999999
  0
CIRCLE
  5
120
330
101
100
AcDbEntity
  8
DAMAN
100
AcDbCircle
 10
0.313
 20
2.688
 30
0.0
 40
0.249501
  0
LINE
  5
121
330
101
100
AcDbEntity
  8
DAMAN
100
AcDbLine
 10
0.0005
 20
2.438
 30
0.0
 11
0.0005
 21
2.938
 31
0.0
  0
ARC
  5
122
330
101
100
AcDbEntity
  8
DAMAN
100
AcDbCircle
 10
-0.098458
 20
2.471493999999999
 30
0.0
 40
0.098958
100
AcDbArc
 50
313.1735509999999
 51
46.826449
  0
LINE
  5
123
330
101
100
AcDbEntity
  8
DAMAN
100
AcDbLine
 10
-0.2495
 20
2.399325
 30
0.0
 11
-0.03075
 21
2.399325
 31
0.0
  0
LINE
  5
124
330
101
100
AcDbEntity
  8
DAMAN
100
AcDbLine
 10
-0.03075
 20
2.399325
 30
0.0
 11
0.0005
 21
2.438
 31
0.0
  0
LINE
  5
125
330
101
100
AcDbEntity
  8
DAMAN
100
AcDbLine
 10
0.6245000000000001
 20
3.2505
 30
0.0
 11
-0.3755
 21
3.2505
 31
0.0
  0
LINE
  5
126
330
101
100
AcDbEntity
  8
DAMAN
100
AcDbLine
 10
-0.2495
 20
2.832338
 30
0.0
 11
-0.03075
 21
2.832338
 31
0.0
  0
LINE
  5
127
330
101
100
AcDbEntity
  8
DAMAN
100
AcDbLine
 10
-0.03075
 20
2.543661999999999
 30
0.0
 11
-0.2495
 21
2.543661999999999
 31
0.0
  0
LINE
  5
128
330
101
100
AcDbEntity
  8
DAMAN
100
AcDbLine
 10
-0.03075
 20
2.976675
 30
0.0
 11
-0.2495
 21
2.976675
 31
0.0
  0
ARC
  5
129
330
101
100
AcDbEntity
  8
DAMAN
100
AcDbCircle
 10
-0.348458
 20
2.688
 30
0.0
 40
0.348958
100
AcDbArc
 50
335.5673019999999
 51
24.432698
  0
ARC
  5
12A
330
101
100
AcDbEntity
  8
DAMAN
100
AcDbCircle
 10
-0.098458
 20
2.904505999999999
 30
0.0
 40
0.098958
100
AcDbArc
 50
313.1735509999999
 51
46.826449
  0
LINE
  5
12B
330
101
100
AcDbEntity
  8
DAMAN
100
AcDbLine
 10
-0.03075
 20
2.976675
 30
0.0
 11
0.0005
 21
2.938
 31
0.0
  0
LINE
  5
12C
330
101
100
AcDbEntity
  8
DAMAN
100
AcDbLine
 10
-0.3745
 20
0.46925
 30
0.0
 11
-0.84325
 21
0.46925
 31
0.0
  0
LINE
  5
12D
330
101
100
AcDbEntity
  8
DAMAN
  6
HIDDEN
100
AcDbLine
 10
-0.8745
 20
0.4379999999999999
 30
0.0
 11
-0.3745
 21
0.4379999999999999
 31
0.0
  0
LINE
  5
12E
330
101
100
AcDbEntity
  8
DAMAN
100
AcDbLine
 10
-0.84325
 20
0.15675
 30
0.0
 11
-0.3745
 21
0.15675
 31
0.0
  0
LINE
  5
12F
330
101
100
AcDbEntity
  8
DAMAN
  6
HIDDEN
100
AcDbLine
 10
-0.3745
 20
0.188
 30
0.0
 11
-0.8745
 21
0.188
 31
0.0
  0
LINE
  5
130
330
101
100
AcDbEntity
  8
DAMAN
100
AcDbLine
 10
0.1255
 20
0.313
 30
0.0
 11
-1.03075
 21
0.313
 31
0.0
  0
LINE
  5
131
330
101
100
AcDbEntity
  8
DAMAN
100
AcDbLine
 10
-0.84325
 20
0.46925
 30
0.0
 11
-0.84325
 21
0.15675
 31
0.0
  0
LINE
  5
132
330
101
100
AcDbEntity
  8
DAMAN
100
AcDbLine
 10
-0.8745
 20
0.188
 30
0.0
 11
-0.84325
 21
0.15675
 31
0.0
  0
LINE
  5
133
330
101
100
AcDbEntity
  8
DAMAN
100
AcDbLine
 10
-0.8745
 20
0.4379999999999999
 30
0.0
 11
-0.8745
 21
0.188
 31
0.0
  0
LINE
  5
134
330
101
100
AcDbEntity
  8
DAMAN
100
AcDbLine
 10
-0.84325
 20
0.46925
 30
0.0
 11
-0.8745
 21
0.4379999999999999
 31
0.0
  0
LINE
  5
135
330
101
100
AcDbEntity
  8
DAMAN
100
AcDbLine
 10
0.0005
 20
0.063
 30
0.0
 11
0.0005
 21
0.5629999999999999
 31
0.0
  0
ARC
  5
136
330
101
100
AcDbEntity
  8
DAMAN
100
AcDbCircle
 10
-0.098458
 20
0.5295060000000001
 30
0.0
 40
0.098958
100
AcDbArc
 50
313.1735509999999
 51
46.826449
  0
LINE
  5
137
330
101
100
AcDbEntity
  8
DAMAN
100
AcDbLine
 10
-0.2495
 20
0.4573380000000001
 30
0.0
 11
-0.03075
 21
0.4573380000000001
 31
0.0
  0
LINE
  5
138
330
101
100
AcDbEntity
  8
DAMAN
100
AcDbLine
 10
-0.2495
 20
0.024325
 30
0.0
 11
-0.03075
 21
0.024325
 31
0.0
  0
LINE
  5
139
330
101
100
AcDbEntity
  8
DAMAN
100
AcDbLine
 10
-0.03075
 20
0.168662
 30
0.0
 11
-0.2495
 21
0.168662
 31
0.0
  0
ARC
  5
13A
330
101
100
AcDbEntity
  8
DAMAN
100
AcDbCircle
 10
-0.098458
 20
0.096494
 30
0.0
 40
0.098958
100
AcDbArc
 50
313.1735509999999
 51
46.826449
  0
LINE
  5
13B
330
101
100
AcDbEntity
  8
DAMAN
100
AcDbLine
 10
-0.03075
 20
0.024325
 30
0.0
 11
0.0005
 21
0.063
 31
0.0
  0
ARC
  5
13C
330
101
100
AcDbEntity
  8
DAMAN
100
AcDbCircle
 10
-0.348458
 20
0.313
 30
0.0
 40
0.348958
100
AcDbArc
 50
335.5673019999999
 51
24.432698
  0
LINE
  5
13D
330
101
100
AcDbEntity
  8
DAMAN
100
AcDbLine
 10
-0.03075
 20
0.601675
 30
0.0
 11
-0.2495
 21
0.601675
 31
0.0
  0
LINE
  5
13E
330
101
100
AcDbEntity
  8
DAMAN
100
AcDbLine
 10
-0.03075
 20
0.601675
 30
0.0
 11
0.0005
 21
0.5629999999999999
 31
0.0
  0
LINE
  5
13F
330
101
100
AcDbEntity
  8
DAMAN
100
AcDbLine
 10
-0.2555
 20
3.2505
 30
0.0
 11
-0.2555
 21
-0.2495
 31
0.0
  0
LINE
  5
140
330
101
100
AcDbEntity
  8
DAMAN
100
AcDbLine
 10
-0.3755
 20
3.2505
 30
0.0
 11
-0.3755
 21
-0.2495
 31
0.0
  0
LINE
  5
141
330
101
100
AcDbEntity
  8
DAMAN
100
AcDbLine
 10
-0.3755
 20
-0.2495
 30
0.0
 11
0.6245000000000001
 21
-0.2495
 31
0.0
  0
ENDBLK
  5
142
330
101
100
AcDbEntity
  8
0
100
AcDbBlockEnd
  0
BLOCK
  5
144
330
143
100
AcDbEntity
  8
0
100
AcDbBlockBegin
  2
075NPTFT
 70
     0
 10
0.0
 20
0.0
 30
0.0
  3
075NPTFT
  1

  0
INSERT
  5
146
330
143
100
AcDbEntity
  8
DAMAN
100
AcDbBlockReference
  2
750NPTFT
 10
-6.410892999999999
 20
-4.555543
 30
0.0
  0
ENDBLK
  5
147
330
143
100
AcDbEntity
  8
0
100
AcDbBlockEnd
  0
BLOCK
  5
148
330
145
100
AcDbEntity
  8
0
100
AcDbBlockBegin
  2
750NPTFT
 70
     0
 10
0.0
 20
0.0
 30
0.0
  3
750NPTFT
  1

  0
INSERT
  5
149
330
145
100
AcDbEntity
  8
DAMAN
 62
     5
100
AcDbBlockReference
  2
100CROSS
 10
6.410892999999999
 20
4.555543
 30
0.0
 41
0.98
 42
0.98
  0
CIRCLE
  5
14A
330
145
100
AcDbEntity
  8
DAMAN
 62
     5
100
AcDbCircle
 10
6.410892999999999
 20
4.555543
 30
0.0
 40
0.4910670000000001
  0
CIRCLE
  5
14B
330
145
100
AcDbEntity
  8
DAMAN
 62
     5
100
AcDbCircle
 10
6.410892999999999
 20
4.555543
 30
0.0
 40
0.453
  0
CIRCLE
  5
14C
330
145
100
AcDbEntity
  8
DAMAN
 62
     5
100
AcDbCircle
 10
6.410892999999999
 20
4.555543
 30
0.0
 40
0.53125
  0
ENDBLK
  5
14D
330
145
100
AcDbEntity
  8
0
100
AcDbBlockEnd
  0
BLOCK
  5
14F
330
14E
100
AcDbEntity
  8
0
100
AcDbBlockBegin
  2
050NPTFT
 70
     0
 10
0.0
 20
0.0
 30
0.0
  3
050NPTFT
  1

  0
INSERT
  5
151
330
14E
100
AcDbEntity
  8
DAMAN
100
AcDbBlockReference
  2
500NPTFT
 10
0.0
 20
0.0
 30
0.0
  0
ENDBLK
  5
152
330
14E
100
AcDbEntity
  8
0
100
AcDbBlockEnd
  0
BLOCK
  5
153
330
150
100
AcDbEntity
  8
0
100
AcDbBlockBegin
  2
500NPTFT
 70
     0
 10
0.0
 20
0.0
 30
0.0
  3
500NPTFT
  1

  0
INSERT
  5
154
330
150
100
AcDbEntity
  8
DAMAN
 62
     5
100
AcDbBlockReference
  2
100CROSS
 10
0.0
 20
0.0
 30
0.0
 41
0.84
 42
0.84
  0
CIRCLE
  5
155
330
150
100
AcDbEntity
  8
DAMAN
 62
     5
100
AcDbCircle
 10
0.0
 20
0.0
 30
0.0
 40
0.384627
  0
CIRCLE
  5
156
330
150
100
AcDbEntity
  8
DAMAN
 62
     5
100
AcDbCircle
 10
0.0
 20
0.0
 30
0.0
 40
0.3439999999999999
  0
CIRCLE
  5
157
330
150
100
AcDbEntity
  8
DAMAN
 62
     5
100
AcDbCircle
 10
0.0
 20
0.0
 30
0.0
 40
0.4295
  0
ENDBLK
  5
158
330
150
100
AcDbEntity
  8
0
100
AcDbBlockEnd
  0
BLOCK
  5
15A
330
159
100
AcDbEntity
  8
0
100
AcDbBlockBegin
  2
025NPTFT
 70
     0
 10
0.0
 20
0.0
 30
0.0
  3
025NPTFT
  1

  0
INSERT
  5
15C
330
159
100
AcDbEntity
  8
DAMAN
100
AcDbBlockReference
  2
250NPTFT
 10
0.0
 20
0.0
 30
0.0
  0
ENDBLK
  5
15D
330
159
100
AcDbEntity
  8
0
100
AcDbBlockEnd
  0
BLOCK
  5
15E
330
15B
100
AcDbEntity
  8
0
100
AcDbBlockBegin
  2
250NPTFT
 70
     0
 10
0.0
 20
0.0
 30
0.0
  3
250NPTFT
  1

  0
CIRCLE
  5
15F
330
15B
100
AcDbEntity
  8
DAMAN
100
AcDbCircle
 10
0.0
 20
0.0
 30
0.0
 40
0.273
  0
CIRCLE
  5
160
330
15B
100
AcDbEntity
  8
DAMAN
100
AcDbCircle
 10
0.0
 20
0.0
 30
0.0
 40
0.211
  0
INSERT
  5
161
330
15B
100
AcDbEntity
  8
DAMAN
100
AcDbBlockReference
  2
100CROSS
 10
0.0
 20
0.0
 30
0.0
 41
0.4220000000000001
 42
0.4220000000000001
  0
CIRCLE
  5
162
330
15B
100
AcDbEntity
  8
DAMAN
100
AcDbCircle
 10
0.0
 20
0.0
 30
0.0
 40
0.242251
  0
POINT
  5
163
330
15B
100
AcDbEntity
  8
CHIDDEN
100
AcDbPoint
 10
-0.087928
 20
0.191806
 30
0.0
  0
POINT
  5
164
330
15B
100
AcDbEntity
  8
CHIDDEN
100
AcDbPoint
 10
-0.137717
 20
-0.15986
 30
0.0
  0
POINT
  5
165
330
15B
100
AcDbEntity
  8
CHIDDEN
100
AcDbPoint
 10
0.202707
 20
-0.058572
 30
0.0
  0
ENDBLK
  5
166
330
15B
100
AcDbEntity
  8
0
100
AcDbBlockEnd
  0
ENDSEC
  0
SECTION
  2
ENTITIES
  0
LINE
  5
167
330
1E
100
AcDbEntity
  8
DAMAN
100
AcDbLine
 10
-0.5
 20
7.5
 30
0.0
 11
3.0
 21
7.5
 31
0.0
  0
LINE
  5
168
330
1E
100
AcDbEntity
  8
DAMAN
100
AcDbLine
 10
3.0
 20
7.5
 30
0.0
 11
3.0
 21
4.0
 31
0.0
  0
LINE
  5
169
330
1E
100
AcDbEntity
  8
DAMAN
100
AcDbLine
 10
3.0
 20
4.0
 30
0.0
 11
-0.5
 21
4.0
 31
0.0
  0
LINE
  5
16A
330
1E
100
AcDbEntity
  8
DAMAN
  6
HIDDEN
100
AcDbLine
 10
-0.5
 20
4.0
 30
0.0
 11
-0.5
 21
7.5
 31
0.0
  0
LINE
  5
16B
330
1E
100
AcDbEntity
  8
DAMAN
100
AcDbLine
 10
5.0
 20
7.5
 30
0.0
 11
5.0
 21
4.0
 31
0.0
  0
LINE
  5
16C
330
1E
100
AcDbEntity
  8
DAMAN
100
AcDbLine
 10
5.0
 20
4.0
 30
0.0
 11
14.75
 21
4.0
 31
0.0
  0
LINE
  5
16D
330
1E
100
AcDbEntity
  8
DAMAN
100
AcDbLine
 10
14.75
 20
4.0
 30
0.0
 11
14.75
 21
7.5
 31
0.0
  0
LINE
  5
16E
330
1E
100
AcDbEntity
  8
DAMAN
100
AcDbLine
 10
14.75
 20
7.5
 30
0.0
 11
5.0
 21
7.5
 31
0.0
  0
LINE
  5
16F
330
1E
100
AcDbEntity
  8
DAMAN
100
AcDbLine
 10
5.0
 20
3.0
 30
0.0
 11
14.75
 21
3.0
 31
0.0
  0
LINE
  5
170
330
1E
100
AcDbEntity
  8
DAMAN
100
AcDbLine
 10
14.75
 20
3.0
 30
0.0
 11
14.75
 21
-0.5
 31
0.0
  0
LINE
  5
171
330
1E
100
AcDbEntity
  8
DAMAN
100
AcDbLine
 10
14.75
 20
-0.5
 30
0.0
 11
5.0
 21
-0.5
 31
0.0
  0
LINE
  5
172
330
1E
100
AcDbEntity
  8
DAMAN
100
AcDbLine
 10
5.0
 20
-0.5
 30
0.0
 11
5.0
 21
3.0
 31
0.0
  0
LINE
  5
173
330
1E
100
AcDbEntity
  8
DAMAN
100
AcDbLine
 10
15.7495
 20
4.000499999999999
 30
0.0
 11
15.7495
 21
7.500499999999999
 31
0.0
  0
INSERT
  5
174
330
1E
100
AcDbEntity
  8
DAMAN
100
AcDbBlockReference
  2
100CROSS
 10
15.437
 20
4.562999999999999
 30
0.0
 41
-0.34
 42
0.34
 43
0.34
 50
270.0
  0
CIRCLE
  5
175
330
1E
100
AcDbEntity
  8
DAMAN
100
AcDbCircle
 10
15.438
 20
4.562999999999999
 30
0.0
 40
0.249501
  0
LINE
  5
176
330
1E
100
AcDbEntity
  8
DAMAN
100
AcDbLine
 10
15.2505
 20
6.937999999999999
 30
0.0
 11
14.680419
 21
6.937999999999999
 31
0.0
  0
INSERT
  5
177
330
1E
100
AcDbEntity
  8
DAMAN
100
AcDbBlockReference
  2
100CROSS
 10
15.437
 20
6.937999999999999
 30
0.0
 41
-0.34
 42
0.34
 43
0.34
 50
270.0
  0
CIRCLE
  5
178
330
1E
100
AcDbEntity
  8
DAMAN
100
AcDbCircle
 10
15.438
 20
6.937999999999999
 30
0.0
 40
0.249501
  0
LINE
  5
179
330
1E
100
AcDbEntity
  8
DAMAN
100
AcDbLine
 10
15.1255
 20
6.687999999999999
 30
0.0
 11
15.1255
 21
7.187999999999999
 31
0.0
  0
ARC
  5
17A
330
1E
100
AcDbEntity
  8
DAMAN
100
AcDbCircle
 10
15.026542
 20
6.721493999999999
 30
0.0
 40
0.098958
100
AcDbArc
 50
313.1735509999999
 51
46.826449
  0
LINE
  5
17B
330
1E
100
AcDbEntity
  8
DAMAN
100
AcDbLine
 10
14.8755
 20
6.649325
 30
0.0
 11
15.09425
 21
6.649325
 31
0.0
  0
LINE
  5
17C
330
1E
100
AcDbEntity
  8
DAMAN
100
AcDbLine
 10
15.09425
 20
6.649325
 30
0.0
 11
15.1255
 21
6.687999999999999
 31
0.0
  0
LINE
  5
17D
330
1E
100
AcDbEntity
  8
DAMAN
100
AcDbLine
 10
15.7495
 20
7.500499999999999
 30
0.0
 11
14.74949999999999
 21
7.500499999999999
 31
0.0
  0
LINE
  5
17E
330
1E
100
AcDbEntity
  8
DAMAN
100
AcDbLine
 10
14.8755
 20
7.082338
 30
0.0
 11
15.09425
 21
7.082338
 31
0.0
  0
LINE
  5
17F
330
1E
100
AcDbEntity
  8
DAMAN
100
AcDbLine
 10
15.09425
 20
6.793661999999999
 30
0.0
 11
14.8755
 21
6.793661999999999
 31
0.0
  0
LINE
  5
180
330
1E
100
AcDbEntity
  8
DAMAN
100
AcDbLine
 10
15.09425
 20
7.226675
 30
0.0
 11
14.8755
 21
7.226675
 31
0.0
  0
ARC
  5
181
330
1E
100
AcDbEntity
  8
DAMAN
100
AcDbCircle
 10
14.77654199999999
 20
6.937999999999999
 30
0.0
 40
0.348958
100
AcDbArc
 50
335.5673019999999
 51
24.432698
  0
ARC
  5
182
330
1E
100
AcDbEntity
  8
DAMAN
100
AcDbCircle
 10
15.026542
 20
7.154505999999999
 30
0.0
 40
0.098958
100
AcDbArc
 50
313.1735509999999
 51
46.826449
  0
LINE
  5
183
330
1E
100
AcDbEntity
  8
DAMAN
100
AcDbLine
 10
15.09425
 20
7.226675
 30
0.0
 11
15.1255
 21
7.187999999999999
 31
0.0
  0
LINE
  5
184
330
1E
100
AcDbEntity
  8
DAMAN
100
AcDbLine
 10
15.2505
 20
4.562999999999999
 30
0.0
 11
14.680419
 21
4.562999999999999
 31
0.0
  0
LINE
  5
185
330
1E
100
AcDbEntity
  8
DAMAN
100
AcDbLine
 10
15.1255
 20
4.312999999999999
 30
0.0
 11
15.1255
 21
4.812999999999999
 31
0.0
  0
ARC
  5
186
330
1E
100
AcDbEntity
  8
DAMAN
100
AcDbCircle
 10
15.026542
 20
4.779505999999999
 30
0.0
 40
0.098958
100
AcDbArc
 50
313.1735509999999
 51
46.826449
  0
LINE
  5
187
330
1E
100
AcDbEntity
  8
DAMAN
100
AcDbLine
 10
14.8755
 20
4.707338
 30
0.0
 11
15.09425
 21
4.707338
 31
0.0
  0
LINE
  5
188
330
1E
100
AcDbEntity
  8
DAMAN
100
AcDbLine
 10
14.8755
 20
4.274325
 30
0.0
 11
15.09425
 21
4.274325
 31
0.0
  0
LINE
  5
189
330
1E
100
AcDbEntity
  8
DAMAN
100
AcDbLine
 10
15.09425
 20
4.418662
 30
0.0
 11
14.8755
 21
4.418662
 31
0.0
  0
ARC
  5
18A
330
1E
100
AcDbEntity
  8
DAMAN
100
AcDbCircle
 10
15.026542
 20
4.346493999999999
 30
0.0
 40
0.098958
100
AcDbArc
 50
313.1735509999999
 51
46.826449
  0
LINE
  5
18B
330
1E
100
AcDbEntity
  8
DAMAN
100
AcDbLine
 10
15.09425
 20
4.274325
 30
0.0
 11
15.1255
 21
4.312999999999999
 31
0.0
  0
ARC
  5
18C
330
1E
100
AcDbEntity
  8
DAMAN
100
AcDbCircle
 10
14.77654199999999
 20
4.562999999999999
 30
0.0
 40
0.348958
100
AcDbArc
 50
335.5673019999999
 51
24.432698
  0
LINE
  5
18D
330
1E
100
AcDbEntity
  8
DAMAN
100
AcDbLine
 10
15.09425
 20
4.851675
 30
0.0
 11
14.8755
 21
4.851675
 31
0.0
  0
LINE
  5
18E
330
1E
100
AcDbEntity
  8
DAMAN
100
AcDbLine
 10
15.09425
 20
4.851675
 30
0.0
 11
15.1255
 21
4.812999999999999
 31
0.0
  0
LINE
  5
18F
330
1E
100
AcDbEntity
  8
DAMAN
100
AcDbLine
 10
14.8695
 20
7.500499999999999
 30
0.0
 11
14.8695
 21
4.000499999999999
 31
0.0
  0
LINE
  5
190
330
1E
100
AcDbEntity
  8
DAMAN
100
AcDbLine
 10
14.74949999999999
 20
4.000499999999999
 30
0.0
 11
15.7495
 21
4.000499999999999
 31
0.0
  0
LINE
  5
191
330
1E
100
AcDbEntity
  8
DAMAN
100
AcDbLine
 10
4.880499999999999
 20
7.500499999999999
 30
0.0
 11
4.880499999999999
 21
4.000499999999999
 31
0.0
  0
ARC
  5
192
330
1E
100
AcDbEntity
  8
DAMAN
100
AcDbCircle
 10
4.973457999999999
 20
4.562999999999999
 30
0.0
 40
0.348958
100
AcDbArc
 50
155.567302
 51
204.432698
  0
LINE
  5
193
330
1E
100
AcDbEntity
  8
DAMAN
100
AcDbLine
 10
4.6245
 20
4.312999999999999
 30
0.0
 11
4.6245
 21
4.812999999999999
 31
0.0
  0
CIRCLE
  5
194
330
1E
100
AcDbEntity
  8
DAMAN
100
AcDbCircle
 10
4.312
 20
4.562999999999999
 30
0.0
 40
0.249501
  0
LINE
  5
195
330
1E
100
AcDbEntity
  8
DAMAN
100
AcDbLine
 10
4.000499999999999
 20
4.000499999999999
 30
0.0
 11
4.000499999999999
 21
7.500499999999999
 31
0.0
  0
LINE
  5
196
330
1E
100
AcDbEntity
  8
DAMAN
100
AcDbLine
 10
4.4995
 20
4.562999999999999
 30
0.0
 11
5.069580999999999
 21
4.562999999999999
 31
0.0
  0
LINE
  5
197
330
1E
100
AcDbEntity
  8
DAMAN
100
AcDbLine
 10
5.000499999999999
 20
4.000499999999999
 30
0.0
 11
4.000499999999999
 21
4.000499999999999
 31
0.0
  0
ARC
  5
198
330
1E
100
AcDbEntity
  8
DAMAN
100
AcDbCircle
 10
4.723457999999999
 20
4.346493999999999
 30
0.0
 40
0.098958
100
AcDbArc
 50
133.173551
 51
226.826449
  0
LINE
  5
199
330
1E
100
AcDbEntity
  8
DAMAN
100
AcDbLine
 10
4.8745
 20
4.274325
 30
0.0
 11
4.65575
 21
4.274325
 31
0.0
  0
LINE
  5
19A
330
1E
100
AcDbEntity
  8
DAMAN
100
AcDbLine
 10
4.65575
 20
4.274325
 30
0.0
 11
4.6245
 21
4.312999999999999
 31
0.0
  0
LINE
  5
19B
330
1E
100
AcDbEntity
  8
DAMAN
100
AcDbLine
 10
4.65575
 20
4.418662
 30
0.0
 11
4.8745
 21
4.418662
 31
0.0
  0
LINE
  5
19C
330
1E
100
AcDbEntity
  8
DAMAN
100
AcDbLine
 10
4.65575
 20
4.851675
 30
0.0
 11
4.8745
 21
4.851675
 31
0.0
  0
LINE
  5
19D
330
1E
100
AcDbEntity
  8
DAMAN
100
AcDbLine
 10
4.8745
 20
4.707338
 30
0.0
 11
4.65575
 21
4.707338
 31
0.0
  0
LINE
  5
19E
330
1E
100
AcDbEntity
  8
DAMAN
100
AcDbLine
 10
4.65575
 20
4.851675
 30
0.0
 11
4.6245
 21
4.812999999999999
 31
0.0
  0
ARC
  5
19F
330
1E
100
AcDbEntity
  8
DAMAN
100
AcDbCircle
 10
4.723457999999999
 20
4.779505999999999
 30
0.0
 40
0.098958
100
AcDbArc
 50
133.173551
 51
226.826449
  0
LINE
  5
1A0
330
1E
100
AcDbEntity
  8
DAMAN
100
AcDbLine
 10
4.4995
 20
6.937999999999999
 30
0.0
 11
5.069580999999999
 21
6.937999999999999
 31
0.0
  0
LINE
  5
1A1
330
1E
100
AcDbEntity
  8
DAMAN
100
AcDbLine
 10
4.000499999999999
 20
7.500499999999999
 30
0.0
 11
5.000499999999999
 21
7.500499999999999
 31
0.0
  0
ARC
  5
1A2
330
1E
100
AcDbEntity
  8
DAMAN
100
AcDbCircle
 10
4.973457999999999
 20
6.937999999999999
 30
0.0
 40
0.348958
100
AcDbArc
 50
155.567302
 51
204.432698
  0
LINE
  5
1A3
330
1E
100
AcDbEntity
  8
DAMAN
100
AcDbLine
 10
4.6245
 20
6.687999999999999
 30
0.0
 11
4.6245
 21
7.187999999999999
 31
0.0
  0
CIRCLE
  5
1A4
330
1E
100
AcDbEntity
  8
DAMAN
100
AcDbCircle
 10
4.312
 20
6.937999999999999
 30
0.0
 40
0.249501
  0
LINE
  5
1A5
330
1E
100
AcDbEntity
  8
DAMAN
100
AcDbLine
 10
4.65575
 20
6.793661999999999
 30
0.0
 11
4.8745
 21
6.793661999999999
 31
0.0
  0
LINE
  5
1A6
330
1E
100
AcDbEntity
  8
DAMAN
100
AcDbLine
 10
4.8745
 20
6.649325
 30
0.0
 11
4.65575
 21
6.649325
 31
0.0
  0
LINE
  5
1A7
330
1E
100
AcDbEntity
  8
DAMAN
100
AcDbLine
 10
4.65575
 20
6.649325
 30
0.0
 11
4.6245
 21
6.687999999999999
 31
0.0
  0
ARC
  5
1A8
330
1E
100
AcDbEntity
  8
DAMAN
100
AcDbCircle
 10
4.723457999999999
 20
6.721493999999999
 30
0.0
 40
0.098958
100
AcDbArc
 50
133.173551
 51
226.826449
  0
ARC
  5
1A9
330
1E
100
AcDbEntity
  8
DAMAN
100
AcDbCircle
 10
4.723457999999999
 20
7.154505999999999
 30
0.0
 40
0.098958
100
AcDbArc
 50
133.173551
 51
226.826449
  0
LINE
  5
1AA
330
1E
100
AcDbEntity
  8
DAMAN
100
AcDbLine
 10
4.8745
 20
7.082338
 30
0.0
 11
4.65575
 21
7.082338
 31
0.0
  0
LINE
  5
1AB
330
1E
100
AcDbEntity
  8
DAMAN
100
AcDbLine
 10
4.65575
 20
7.226675
 30
0.0
 11
4.8745
 21
7.226675
 31
0.0
  0
LINE
  5
1AC
330
1E
100
AcDbEntity
  8
DAMAN
100
AcDbLine
 10
4.65575
 20
7.226675
 30
0.0
 11
4.6245
 21
7.187999999999999
 31
0.0
  0
INSERT
  5
1AD
330
1E
100
AcDbEntity
  8
DAMAN
100
AcDbBlockReference
  2
300MKS
 10
5.0
 20
-0.5
 30
0.0
  0
INSERT
  5
1AE
330
1E
100
AcDbEntity
  8
DAMAN
100
AcDbBlockReference
  2
300MKS
 10
14.75
 20
-0.5
 30
0.0
 41
-1.0
  0
TEXT
  5
1AF
330
1E
100
AcDbEntity
  8
DAMAN
100
AcDbText
 10
7.201777
 20
2.741878999999999
 30
0.0
 40
0.188
  1
B
100
AcDbText
  0
TEXT
  5
1B0
330
1E
100
AcDbEntity
  8
DAMAN
100
AcDbText
 10
7.201777
 20
0.46069
 30
0.0
 40
0.188
  1
A
100
AcDbText
  0
TEXT
  5
1B1
330
1E
100
AcDbEntity
  8
DAMAN
100
AcDbText
 10
2.104425999999999
 20
7.365938
 30
0.0
 40
0.188
  1
T
 50
270.0
100
AcDbText
  0
TEXT
  5
1B2
330
1E
100
AcDbEntity
  8
DAMAN
100
AcDbText
 10
2.145231
 20
4.246922
 30
0.0
 40
0.188
  1
P
 50
270.0
100
AcDbText
  0
TEXT
  5
1B3
330
1E
100
AcDbEntity
  8
DAMAN
100
AcDbText
 10
8.702452
 20
1.466858
 30
0.0
 40
0.188
  1
GA
100
AcDbText
  0
INSERT
  5
1B4
330
1E
100
AcDbEntity
  8
DAMAN
100
AcDbBlockReference
  2
050CROSS
 10
4.312999999999999
 20
6.937999999999999
 30
0.0
 41
0.34
 42
0.34
 50
90.0
  0
INSERT
  5
1B5
330
1E
100
AcDbEntity
  8
DAMAN
100
AcDbBlockReference
  2
050CROSS
 10
4.312999999999999
 20
4.562999999999999
 30
0.0
 41
0.34
 42
0.34
 50
90.0
  0
LINE
  5
1B6
330
1E
100
AcDbEntity
  8
DAMAN
100
AcDbLine
 10
4.5625
 20
4.706837999999999
 30
0.0
 11
4.5625
 21
4.418162
 31
0.0
  0
LINE
  5
1B7
330
1E
100
AcDbEntity
  8
DAMAN
100
AcDbLine
 10
4.5625
 20
4.418162
 30
0.0
 11
4.3125
 21
4.273825
 31
0.0
  0
LINE
  5
1B8
330
1E
100
AcDbEntity
  8
DAMAN
100
AcDbLine
 10
4.3125
 20
4.273825
 30
0.0
 11
4.0625
 21
4.418162
 31
0.0
  0
LINE
  5
1B9
330
1E
100
AcDbEntity
  8
DAMAN
100
AcDbLine
 10
4.0625
 20
4.418162
 30
0.0
 11
4.0625
 21
4.706837999999999
 31
0.0
  0
LINE
  5
1BA
330
1E
100
AcDbEntity
  8
DAMAN
100
AcDbLine
 10
4.0625
 20
4.706837999999999
 30
0.0
 11
4.3125
 21
4.851174999999999
 31
0.0
  0
LINE
  5
1BB
330
1E
100
AcDbEntity
  8
DAMAN
100
AcDbLine
 10
4.3125
 20
4.851174999999999
 30
0.0
 11
4.5625
 21
4.706837999999999
 31
0.0
  0
LINE
  5
1BC
330
1E
100
AcDbEntity
  8
DAMAN
100
AcDbLine
 10
4.5625
 20
7.081838
 30
0.0
 11
4.5625
 21
6.793161999999999
 31
0.0
  0
LINE
  5
1BD
330
1E
100
AcDbEntity
  8
DAMAN
100
AcDbLine
 10
4.5625
 20
6.793161999999999
 30
0.0
 11
4.3125
 21
6.648825
 31
0.0
  0
LINE
  5
1BE
330
1E
100
AcDbEntity
  8
DAMAN
100
AcDbLine
 10
4.3125
 20
6.648825
 30
0.0
 11
4.0625
 21
6.793161999999999
 31
0.0
  0
LINE
  5
1BF
330
1E
100
AcDbEntity
  8
DAMAN
100
AcDbLine
 10
4.0625
 20
6.793161999999999
 30
0.0
 11
4.0625
 21
7.081838
 31
0.0
  0
LINE
  5
1C0
330
1E
100
AcDbEntity
  8
DAMAN
100
AcDbLine
 10
4.0625
 20
7.081838
 30
0.0
 11
4.3125
 21
7.226174999999999
 31
0.0
  0
LINE
  5
1C1
330
1E
100
AcDbEntity
  8
DAMAN
100
AcDbLine
 10
4.3125
 20
7.226174999999999
 30
0.0
 11
4.5625
 21
7.081838
 31
0.0
  0
LINE
  5
1C2
330
1E
100
AcDbEntity
  8
DAMAN
100
AcDbLine
 10
15.1875
 20
4.706837999999999
 30
0.0
 11
15.1875
 21
4.418162
 31
0.0
  0
LINE
  5
1C3
330
1E
100
AcDbEntity
  8
DAMAN
100
AcDbLine
 10
15.1875
 20
4.418162
 30
0.0
 11
15.4375
 21
4.273825
 31
0.0
  0
LINE
  5
1C4
330
1E
100
AcDbEntity
  8
DAMAN
100
AcDbLine
 10
15.4375
 20
4.273825
 30
0.0
 11
15.6875
 21
4.418162
 31
0.0
  0
LINE
  5
1C5
330
1E
100
AcDbEntity
  8
DAMAN
100
AcDbLine
 10
15.6875
 20
4.418162
 30
0.0
 11
15.6875
 21
4.706837999999999
 31
0.0
  0
LINE
  5
1C6
330
1E
100
AcDbEntity
  8
DAMAN
100
AcDbLine
 10
15.6875
 20
4.706837999999999
 30
0.0
 11
15.4375
 21
4.851174999999999
 31
0.0
  0
LINE
  5
1C7
330
1E
100
AcDbEntity
  8
DAMAN
100
AcDbLine
 10
15.4375
 20
4.851174999999999
 30
0.0
 11
15.1875
 21
4.706837999999999
 31
0.0
  0
LINE
  5
1C8
330
1E
100
AcDbEntity
  8
DAMAN
100
AcDbLine
 10
15.1875
 20
7.081838
 30
0.0
 11
15.1875
 21
6.793161999999999
 31
0.0
  0
LINE
  5
1C9
330
1E
100
AcDbEntity
  8
DAMAN
100
AcDbLine
 10
15.1875
 20
6.793161999999999
 30
0.0
 11
15.4375
 21
6.648825
 31
0.0
  0
LINE
  5
1CA
330
1E
100
AcDbEntity
  8
DAMAN
100
AcDbLine
 10
15.4375
 20
6.648825
 30
0.0
 11
15.6875
 21
6.793161999999999
 31
0.0
  0
LINE
  5
1CB
330
1E
100
AcDbEntity
  8
DAMAN
100
AcDbLine
 10
15.6875
 20
6.793161999999999
 30
0.0
 11
15.6875
 21
7.081838
 31
0.0
  0
LINE
  5
1CC
330
1E
100
AcDbEntity
  8
DAMAN
100
AcDbLine
 10
15.6875
 20
7.081838
 30
0.0
 11
15.4375
 21
7.226174999999999
 31
0.0
  0
LINE
  5
1CD
330
1E
100
AcDbEntity
  8
DAMAN
100
AcDbLine
 10
15.4375
 20
7.226174999999999
 30
0.0
 11
15.1875
 21
7.081838
 31
0.0
  0
TEXT
  5
1CE
330
1E
100
AcDbEntity
  8
DAMAN
100
AcDbText
 10
10.45177699999999
 20
2.741878999999999
 30
0.0
 40
0.188
  1
B
100
AcDbText
  0
TEXT
  5
1CF
330
1E
100
AcDbEntity
  8
DAMAN
100
AcDbText
 10
10.45177699999999
 20
0.46069
 30
0.0
 40
0.188
  1
A
100
AcDbText
  0
TEXT
  5
1D0
330
1E
100
AcDbEntity
  8
DAMAN
100
AcDbText
 10
9.190345999999999
 20
1.164533
 30
0.0
 40
0.188
  1
DAMAN****
100
AcDbText
  0
LINE
  5
1D1
330
1E
100
AcDbEntity
  8
DAMAN
100
AcDbLine
 10
20.1245
 20
4.562999999999999
 30
0.0
 11
21.28075
 21
4.562999999999999
 31
0.0
  0
LINE
  5
1D2
330
1E
100
AcDbEntity
  8
DAMAN
100
AcDbLine
 10
20.1245
 20
6.937999999999999
 30
0.0
 11
21.28075
 21
6.937999999999999
 31
0.0
  0
INSERT
  5
1D3
330
1E
100
AcDbEntity
  8
DAMAN
100
AcDbBlockReference
  2
D05
 10
5.718999999999999
 20
6.375
 30
0.0
  0
INSERT
  5
1D4
330
1E
100
AcDbEntity
  8
DAMAN
100
AcDbBlockReference
  2
D05
 10
8.968999999999999
 20
6.375
 30
0.0
  0
INSERT
  5
1D5
330
1E
100
AcDbEntity
  8
DAMAN
100
AcDbBlockReference
  2
350MKT
 10
-0.5
 20
4.25
 30
0.0
  0
LINE
  5
1D6
330
1E
100
AcDbEntity
  8
DAMAN
100
AcDbLine
 10
16.75
 20
4.0
 30
0.0
 11
20.24999999999999
 21
4.0
 31
0.0
  0
INSERT
  5
1D7
330
1E
100
AcDbEntity
  8
DAMAN
100
AcDbBlockReference
  2
350MKT
 10
20.24999999999999
 20
4.25
 30
0.0
 41
-1.0
  0
LINE
  5
1D8
330
1E
100
AcDbEntity
  8
DAMAN
  6
HIDDEN
100
AcDbLine
 10
20.24999999999999
 20
4.0
 30
0.0
 11
20.24999999999999
 21
7.5
 31
0.0
  0
LINE
  5
1D9
330
1E
100
AcDbEntity
  8
DAMAN
100
AcDbLine
 10
16.75
 20
7.5
 30
0.0
 11
16.75
 21
4.0
 31
0.0
  0
TEXT
  5
1DA
330
1E
100
AcDbEntity
  8
DAMAN
100
AcDbText
 10
17.604769
 20
4.280869
 30
0.0
 40
0.188
  1
P
 50
90.0
100
AcDbText
  0
LINE
  5
1DB
330
1E
100
AcDbEntity
  8
DAMAN
100
AcDbLine
 10
20.24999999999999
 20
7.5
 30
0.0
 11
16.75
 21
7.5
 31
0.0
  0
TEXT
  5
1DC
330
1E
100
AcDbEntity
  8
DAMAN
100
AcDbText
 10
17.645574
 20
7.365938
 30
0.0
 40
0.188
  1
T
 50
90.0
 71
     2
100
AcDbText
  0
INSERT
  5
1DD
330
1E
100
AcDbEntity
  8
DAMAN
100
AcDbBlockReference
  2
075NPTFT
 10
1.25
 20
6.669999999999999
 30
0.0
  0
INSERT
  5
1DE
330
1E
100
AcDbEntity
  8
DAMAN
100
AcDbBlockReference
  2
075NPTFT
 10
18.5
 20
6.669999999999999
 30
0.0
  0
INSERT
  5
1DF
330
1E
100
AcDbEntity
  8
DAMAN
100
AcDbBlockReference
  2
075NPTFT
 10
1.25
 20
4.83
 30
0.0
  0
INSERT
  5
1E0
330
1E
100
AcDbEntity
  8
DAMAN
100
AcDbBlockReference
  2
075NPTFT
 10
18.5
 20
4.83
 30
0.0
  0
INSERT
  5
1E1
330
1E
100
AcDbEntity
  8
DAMAN
100
AcDbBlockReference
  2
075NPTFT
 10
18.5
 20
6.669999999999999
 30
0.0
  0
INSERT
  5
1E2
330
1E
100
AcDbEntity
  8
DAMAN
100
AcDbBlockReference
  2
050NPTFT
 10
6.562
 20
2.3125
 30
0.0
  0
INSERT
  5
1E3
330
1E
100
AcDbEntity
  8
DAMAN
100
AcDbBlockReference
  2
050NPTFT
 10
9.812000000000001
 20
2.3125
 30
0.0
  0
INSERT
  5
1E4
330
1E
100
AcDbEntity
  8
DAMAN
100
AcDbBlockReference
  2
050NPTFT
 10
9.812000000000001
 20
0.1885
 30
0.0
  0
INSERT
  5
1E5
330
1E
100
AcDbEntity
  8
DAMAN
100
AcDbBlockReference
  2
050NPTFT
 10
6.562
 20
0.1885
 30
0.0
  0
INSERT
  5
1E6
330
1E
100
AcDbEntity
  8
DAMAN
100
AcDbBlockReference
  2
025NPTFT
 10
8.1875
 20
1.25
 30
0.0
  0
INSERT
  5
20E
330
1E
100
AcDbEntity
  8
DAMAN
100
AcDbBlockReference
  2
D05
 10
12.21899999999999
 20
6.375
 30
0.0
  0
INSERT
  5
20F
330
1E
100
AcDbEntity
  8
DAMAN
100
AcDbBlockReference
  2
050NPTFT
 10
13.062
 20
2.3125
 30
0.0
  0
TEXT
  5
210
330
1E
100
AcDbEntity
  8
DAMAN
100
AcDbText
 10
13.701777
 20
2.741878999999999
 30
0.0
 40
0.188
  1
B
100
AcDbText
  0
INSERT
  5
211
330
1E
100
AcDbEntity
  8
DAMAN
100
AcDbBlockReference
  2
050NPTFT
 10
13.062
 20
0.1885
 30
0.0
  0
TEXT
  5
212
330
1E
100
AcDbEntity
  8
DAMAN
100
AcDbText
 10
13.701777
 20
0.46069
 30
0.0
 40
0.188
  1
A
100
AcDbText
  0
ENDSEC
  0
SECTION
  2
OBJECTS
  0
DICTIONARY
  5
C
330
0
100
AcDbDictionary
  3
ACAD_GROUP
350
D
  3
ACAD_LAYOUT
350
19
  3
ACAD_MLINESTYLE
350
16
  3
ACAD_PLOTSETTINGS
350
18
  3
ACAD_PLOTSTYLENAME
350
E
  3
ACDBHEADERROUNDTRIPXREC
350
214
  0
DICTIONARY
  5
236
330
1E
100
AcDbDictionary
280
     1
  3
ACAD_LAYOUTSELFREF
360
237
  0
DICTIONARY
  5
234
330
1A
100
AcDbDictionary
280
     1
  3
ACAD_LAYOUTSELFREF
360
235
  0
DICTIONARY
  5
D
102
{ACAD_REACTORS
330
C
102
}
330
C
100
AcDbDictionary
  0
DICTIONARY
  5
19
102
{ACAD_REACTORS
330
C
102
}
330
C
100
AcDbDictionary
  0
DICTIONARY
  5
16
102
{ACAD_REACTORS
330
C
102
}
330
C
100
AcDbDictionary
  3
STANDARD
350
17
  0
DICTIONARY
  5
18
102
{ACAD_REACTORS
330
C
102
}
330
C
100
AcDbDictionary
  0
ACDBDICTIONARYWDFLT
  5
E
102
{ACAD_REACTORS
330
C
102
}
330
C
100
AcDbDictionary
281
     1
  3
Normal
350
F
100
AcDbDictionaryWithDefault
340
F
  0
DICTIONARY
  5
214
102
{ACAD_REACTORS
330
C
102
}
330
C
100
AcDbDictionary
  3
CEPSNTYPE
350
21E
  3
FINGERPRINTGUID
350
21F
  3
HYPERLINKBASE
350
217
  3
INSUNITS
350
21D
  3
LAYOUTDICT
350
219
  3
LWETCUNION
350
21C
  3
PLOTSETDICT
350
21A
  3
PLOTSTYLNAMDICT
350
21B
  3
PSVPSCALE
350
221
  3
PUCSBASE
350
224
  3
PUCSORGBACK
350
22A
  3
PUCSORGBOTTOM
350
226
  3
PUCSORGFRONT
350
229
  3
PUCSORGLEFT
350
227
  3
PUCSORGRIGHT
350
228
  3
PUCSORGTOP
350
225
  3
PUCSORTHOREF
350
222
  3
PUCSORTHOVIEW
350
223
  3
STYLESHEET
350
218
  3
TSTACKALIGN
350
215
  3
TSTACKSIZE
350
216
  3
UCSBASE
350
22D
  3
UCSORGBACK
350
233
  3
UCSORGBOTTOM
350
22F
  3
UCSORGFRONT
350
232
  3
UCSORGLEFT
350
230
  3
UCSORGRIGHT
350
231
  3
UCSORGTOP
350
22E
  3
UCSORTHOREF
350
22B
  3
UCSORTHOVIEW
350
22C
  3
VERSIONGUID
350
220
  0
XRECORD
  5
237
102
{ACAD_REACTORS
330
236
102
}
330
236
100
AcDbXrecord
340
1E
  0
XRECORD
  5
235
102
{ACAD_REACTORS
330
234
102
}
330
234
100
AcDbXrecord
340
1A
  0
MLINESTYLE
  5
17
102
{ACAD_REACTORS
330
16
102
}
330
16
100
AcDbMlineStyle
  2
STANDARD
 70
     0
  3

 62
   256
 51
90.0
 52
90.0
 71
     2
 49
0.5
 62
   256
  6
BYLAYER
 49
-0.5
 62
   256
  6
BYLAYER
  0
ACDBPLACEHOLDER
  5
F
102
{ACAD_REACTORS
330
E
102
}
330
E
100
AcDbPlaceHolder
280
     0
  0
XRECORD
  5
21E
102
{ACAD_REACTORS
330
214
102
}
330
214
100
AcDbXrecord
 90
        0
  0
XRECORD
  5
21F
102
{ACAD_REACTORS
330
214
102
}
330
214
100
AcDbXrecord
  1
{C69AEB69-A9B9-4EAF-ADF9-C8EF75DA1B39}
  0
XRECORD
  5
217
102
{ACAD_REACTORS
330
214
102
}
330
214
100
AcDbXrecord
  1

  0
XRECORD
  5
21D
102
{ACAD_REACTORS
330
214
102
}
330
214
100
AcDbXrecord
 90
        0
  0
XRECORD
  5
219
102
{ACAD_REACTORS
330
214
102
}
330
214
100
AcDbXrecord
340
19
  0
XRECORD
  5
21C
102
{ACAD_REACTORS
330
214
102
}
330
214
100
AcDbXrecord
 90
    10781
  0
XRECORD
  5
21A
102
{ACAD_REACTORS
330
214
102
}
330
214
100
AcDbXrecord
340
18
  0
XRECORD
  5
21B
102
{ACAD_REACTORS
330
214
102
}
330
214
100
AcDbXrecord
340
E
  0
XRECORD
  5
221
102
{ACAD_REACTORS
330
214
102
}
330
214
100
AcDbXrecord
 40
0.0
  0
XRECORD
  5
224
102
{ACAD_REACTORS
330
214
102
}
330
214
100
AcDbXrecord
340
0
  0
XRECORD
  5
22A
102
{ACAD_REACTORS
330
214
102
}
330
214
100
AcDbXrecord
 10
0.0
 20
0.0
 30
0.0
  0
XRECORD
  5
226
102
{ACAD_REACTORS
330
214
102
}
330
214
100
AcDbXrecord
 10
0.0
 20
0.0
 30
0.0
  0
XRECORD
  5
229
102
{ACAD_REACTORS
330
214
102
}
330
214
100
AcDbXrecord
 10
0.0
 20
0.0
 30
0.0
  0
XRECORD
  5
227
102
{ACAD_REACTORS
330
214
102
}
330
214
100
AcDbXrecord
 10
0.0
 20
0.0
 30
0.0
  0
XRECORD
  5
228
102
{ACAD_REACTORS
330
214
102
}
330
214
100
AcDbXrecord
 10
0.0
 20
0.0
 30
0.0
  0
XRECORD
  5
225
102
{ACAD_REACTORS
330
214
102
}
330
214
100
AcDbXrecord
 10
0.0
 20
0.0
 30
0.0
  0
XRECORD
  5
222
102
{ACAD_REACTORS
330
214
102
}
330
214
100
AcDbXrecord
340
0
  0
XRECORD
  5
223
102
{ACAD_REACTORS
330
214
102
}
330
214
100
AcDbXrecord
 70
     0
  0
XRECORD
  5
218
102
{ACAD_REACTORS
330
214
102
}
330
214
100
AcDbXrecord
  1

  0
XRECORD
  5
215
102
{ACAD_REACTORS
330
214
102
}
330
214
100
AcDbXrecord
 90
        1
  0
XRECORD
  5
216
102
{ACAD_REACTORS
330
214
102
}
330
214
100
AcDbXrecord
 90
       70
  0
XRECORD
  5
22D
102
{ACAD_REACTORS
330
214
102
}
330
214
100
AcDbXrecord
340
0
  0
XRECORD
  5
233
102
{ACAD_REACTORS
330
214
102
}
330
214
100
AcDbXrecord
 10
0.0
 20
0.0
 30
0.0
  0
XRECORD
  5
22F
102
{ACAD_REACTORS
330
214
102
}
330
214
100
AcDbXrecord
 10
0.0
 20
0.0
 30
0.0
  0
XRECORD
  5
232
102
{ACAD_REACTORS
330
214
102
}
330
214
100
AcDbXrecord
 10
0.0
 20
0.0
 30
0.0
  0
XRECORD
  5
230
102
{ACAD_REACTORS
330
214
102
}
330
214
100
AcDbXrecord
 10
0.0
 20
0.0
 30
0.0
  0
XRECORD
  5
231
102
{ACAD_REACTORS
330
214
102
}
330
214
100
AcDbXrecord
 10
0.0
 20
0.0
 30
0.0
  0
XRECORD
  5
22E
102
{ACAD_REACTORS
330
214
102
}
330
214
100
AcDbXrecord
 10
0.0
 20
0.0
 30
0.0
  0
XRECORD
  5
22B
102
{ACAD_REACTORS
330
214
102
}
330
214
100
AcDbXrecord
340
0
  0
XRECORD
  5
22C
102
{ACAD_REACTORS
330
214
102
}
330
214
100
AcDbXrecord
 70
     0
  0
XRECORD
  5
220
102
{ACAD_REACTORS
330
214
102
}
330
214
100
AcDbXrecord
  1
{E5B28001-0157-4776-9873-7F677D08960C}
  0
ENDSEC
  0
EOF
