  0
SECTION
  2
HEADER
  9
$ACADVER
  1
AC1009
  9
$INSBASE
 10
0.0
 20
0.0
 30
0.0
  9
$EXTMIN
 10
-2.5629999999999979
 20
-6.5619999999999994
 30
0.0
  9
$EXTMAX
 10
36.563000000000002
 20
13.561999999999999
 30
0.0
  9
$LIMMIN
 10
0.0
 20
0.0
  9
$LIMMAX
 10
12.0
 20
9.0
  9
$ORTHOMODE
 70
     0
  9
$REGENMODE
 70
     1
  9
$FILLMODE
 70
     1
  9
$QTEXTMODE
 70
     0
  9
$MIRRTEXT
 70
     1
  9
$DRAGMODE
 70
     2
  9
$LTSCALE
 40
1.0
  9
$OSMODE
 70
    37
  9
$ATTMODE
 70
     1
  9
$TEXTSIZE
 40
0.2
  9
$TRACEWID
 40
0.05
  9
$TEXTSTYLE
  7
STANDARD
  9
$CLAYER
  8
DAMAN
  9
$CELTYPE
  6
BYLAYER
  9
$CECOLOR
 62
   256
  9
$DIMSCALE
 40
1.0
  9
$DIMASZ
 40
0.18
  9
$DIMEXO
 40
0.0625
  9
$DIMDLI
 40
0.38
  9
$DIMRND
 40
0.0
  9
$DIMDLE
 40
0.0
  9
$DIMEXE
 40
0.18
  9
$DIMTP
 40
0.0
  9
$DIMTM
 40
0.0
  9
$DIMTXT
 40
0.18
  9
$DIMCEN
 40
0.09
  9
$DIMTSZ
 40
0.0
  9
$DIMTOL
 70
     0
  9
$DIMLIM
 70
     0
  9
$DIMTIH
 70
     1
  9
$DIMTOH
 70
     1
  9
$DIMSE1
 70
     0
  9
$DIMSE2
 70
     0
  9
$DIMTAD
 70
     0
  9
$DIMZIN
 70
     0
  9
$DIMBLK
  1

  9
$DIMASO
 70
     1
  9
$DIMSHO
 70
     1
  9
$DIMPOST
  1

  9
$DIMAPOST
  1

  9
$DIMALT
 70
     0
  9
$DIMALTD
 70
     2
  9
$DIMALTF
 40
25.399999999999999
  9
$DIMLFAC
 40
1.0
  9
$DIMTOFL
 70
     0
  9
$DIMTVP
 40
0.0
  9
$DIMTIX
 70
     0
  9
$DIMSOXD
 70
     0
  9
$DIMSAH
 70
     0
  9
$DIMBLK1
  1

  9
$DIMBLK2
  1

  9
$DIMSTYLE
  2
STANDARD
  9
$DIMCLRD
 70
     0
  9
$DIMCLRE
 70
     0
  9
$DIMCLRT
 70
     0
  9
$DIMTFAC
 40
1.0
  9
$DIMGAP
 40
0.09
  9
$LUNITS
 70
     2
  9
$LUPREC
 70
     4
  9
$SKETCHINC
 40
0.1
  9
$FILLETRAD
 40
0.0
  9
$AUNITS
 70
     0
  9
$AUPREC
 70
     0
  9
$MENU
  1
tom
  9
$ELEVATION
 40
0.0
  9
$PELEVATION
 40
0.0
  9
$THICKNESS
 40
0.0
  9
$LIMCHECK
 70
     0
  9
$BLIPMODE
 70
     0
  9
$CHAMFERA
 40
0.0
  9
$CHAMFERB
 40
0.0
  9
$SKPOLY
 70
     0
  9
$TDCREATE
 40
2449826.6338883219
  9
$TDUPDATE
 40
2453222.4576760302
  9
$TDINDWG
 40
0.0001117593
  9
$TDUSRTIMER
 40
0.0001117593
  9
$USRTIMER
 70
     1
  9
$ANGBASE
 50
0.0
  9
$ANGDIR
 70
     0
  9
$PDMODE
 70
     0
  9
$PDSIZE
 40
0.0
  9
$PLINEWID
 40
0.0
  9
$COORDS
 70
     1
  9
$SPLFRAME
 70
     0
  9
$SPLINETYPE
 70
     6
  9
$SPLINESEGS
 70
     8
  9
$ATTDIA
 70
     0
  9
$ATTREQ
 70
     1
  9
$HANDLING
 70
-16383
  9
$HANDSEED
  5
2DB
  9
$SURFTAB1
 70
     6
  9
$SURFTAB2
 70
     6
  9
$SURFTYPE
 70
     6
  9
$SURFU
 70
     6
  9
$SURFV
 70
     6
  9
$UCSNAME
  2

  9
$UCSORG
 10
0.0
 20
0.0
 30
0.0
  9
$UCSXDIR
 10
1.0
 20
0.0
 30
0.0
  9
$UCSYDIR
 10
0.0
 20
1.0
 30
0.0
  9
$PUCSNAME
  2

  9
$PUCSORG
 10
0.0
 20
0.0
 30
0.0
  9
$PUCSXDIR
 10
1.0
 20
0.0
 30
0.0
  9
$PUCSYDIR
 10
0.0
 20
1.0
 30
0.0
  9
$USERI1
 70
     0
  9
$USERI2
 70
     0
  9
$USERI3
 70
     0
  9
$USERI4
 70
     0
  9
$USERI5
 70
     0
  9
$USERR1
 40
0.0
  9
$USERR2
 40
0.0
  9
$USERR3
 40
0.0
  9
$USERR4
 40
0.0
  9
$USERR5
 40
0.0
  9
$WORLDVIEW
 70
     1
  9
$SHADEDGE
 70
     3
  9
$SHADEDIF
 70
    70
  9
$TILEMODE
 70
     1
  9
$MAXACTVP
 70
    16
  9
$PLIMCHECK
 70
     0
  9
$PEXTMIN
 10
1.0000000000000000E+020
 20
1.0000000000000000E+020
 30
1.0000000000000000E+020
  9
$PEXTMAX
 10
-1.0000000000000000E+020
 20
-1.0000000000000000E+020
 30
-1.0000000000000000E+020
  9
$PLIMMIN
 10
0.0
 20
0.0
  9
$PLIMMAX
 10
12.0
 20
9.0
  9
$UNITMODE
 70
     0
  9
$VISRETAIN
 70
     0
  9
$PLINEGEN
 70
     0
  9
$PSLTSCALE
 70
     1
  0
ENDSEC
  0
SECTION
  2
TABLES
  0
TABLE
  2
VPORT
 70
     2
  0
VPORT
  2
*ACTIVE
 70
     0
 10
0.0
 20
0.0
 11
1.0
 21
1.0
 12
24.206484805244191
 22
8.8960375903833686
 13
0.0
 23
0.0
 14
0.03125
 24
0.03125
 15
0.0
 25
0.0
 16
0.0
 26
0.0
 36
1.0
 17
0.0
 27
0.0
 37
0.0
 40
30.916075180766729
 41
1.7317518248175181
 42
50.0
 43
0.0
 44
0.0
 50
0.0
 51
0.0
 71
     0
 72
   100
 73
     1
 74
     1
 75
     1
 76
     0
 77
     0
 78
     0
  0
ENDTAB
  0
TABLE
  2
LTYPE
 70
     4
  0
LTYPE
  2
CONTINUOUS
 70
     0
  3
Solid line
 72
    65
 73
     0
 40
0.0
  0
LTYPE
  2
HIDDEN
 70
     0
  3
_ _ _ _ _ _ _ _ _ _ _ _ _ _ _ _ _ _ _ _ _ _ _
 72
    65
 73
     2
 40
0.375
 49
0.25
 49
-0.125
  0
LTYPE
  2
CENTER
 70
     0
  3
____ _ ____ _ ____ _ ____ _ ____ _ ____ _ ____
 72
    65
 73
     4
 40
2.0
 49
1.25
 49
-0.25
 49
0.25
 49
-0.25
  0
LTYPE
  2
PHANTOM
 70
     0
  3
_____ _ _ _____ _ _ _____ _ _ _____ _ _ ____
 72
    65
 73
     6
 40
2.5
 49
1.25
 49
-0.25
 49
0.25
 49
-0.25
 49
0.25
 49
-0.25
  0
ENDTAB
  0
TABLE
  2
LAYER
 70
    10
  0
LAYER
  2
0
 70
     0
 62
     7
  6
CONTINUOUS
  0
LAYER
  2
DAMAN
 70
     0
 62
     5
  6
CONTINUOUS
  0
LAYER
  2
CHIDDEN
 70
     0
 62
     3
  6
HIDDEN
  0
LAYER
  2
CSOLID
 70
     0
 62
     3
  6
CONTINUOUS
  0
LAYER
  2
CCENTER
 70
     0
 62
     4
  6
CENTER
  0
LAYER
  2
PHANTOM
 70
     0
 62
     1
  6
PHANTOM
  0
ENDTAB
  0
TABLE
  2
STYLE
 70
     2
  0
STYLE
  2
STANDARD
 70
     0
 40
0.0
 41
1.0
 50
0.0
 71
     0
 42
0.2
  3
txt
  4

  0
ENDTAB
  0
TABLE
  2
VIEW
 70
     0
  0
ENDTAB
  0
TABLE
  2
UCS
 70
     0
  0
ENDTAB
  0
TABLE
  2
APPID
 70
     1
  0
APPID
  2
ACAD
 70
     0
  0
ENDTAB
  0
TABLE
  2
DIMSTYLE
 70
     1
  0
DIMSTYLE
  2
STANDARD
 70
     0
  3

  4

  5

  6

  7

 40
1.0
 41
0.18
 42
0.0625
 43
0.38
 44
0.18
 45
0.0
 46
0.0
 47
0.0
 48
0.0
140
0.18
141
0.09
142
0.0
143
25.399999999999999
144
1.0
145
0.0
146
1.0
147
0.09
 71
     0
 72
     0
 73
     1
 74
     1
 75
     0
 76
     0
 77
     0
 78
     0
170
     0
171
     2
172
     0
173
     0
174
     0
175
     0
176
     0
177
     0
178
     0
  0
ENDTAB
  0
ENDSEC
  0
SECTION
  2
BLOCKS
  0
BLOCK
  8
0
  2
$MODEL_SPACE
 70
     0
 10
0.0
 20
0.0
 30
0.0
  3
$MODEL_SPACE
  1

  0
ENDBLK
  5
2AC
  8
0
  0
BLOCK
 67
     1
  8
0
  2
$PAPER_SPACE
 70
     0
 10
0.0
 20
0.0
 30
0.0
  3
$PAPER_SPACE
  1

  0
ENDBLK
  5
2AA
 67
     1
  8
0
  0
BLOCK
  8
0
  2
500MKT
 70
     0
 10
0.0
 20
0.0
 30
0.0
  3
500MKT
  1

  0
INSERT
  5
3E
  8
DAMAN
  2
100CROSS
 10
-0.9370000000000091
 20
-0.4370000000000083
 30
0.0
 41
0.4220000000000001
 42
0.4220000000000001
  0
LINE
  5
3F
  8
DAMAN
 10
-0.2182500000000007
 20
-0.03125
 30
0.0
 11
-0.2182500000000007
 21
-0.8432500000000002
 31
0.0
  0
LINE
  5
40
  8
DAMAN
 10
-0.1560000000000001
 20
-5.0
 30
0.0
 11
-0.1560000000000001
 21
0.0
 31
0.0
  0
LINE
  5
41
  8
DAMAN
 10
0.0
 20
-5.0
 30
0.0
 11
0.0
 21
0.0
 31
0.0
  0
LINE
  5
42
  8
DAMAN
 10
-0.2182500000000007
 20
-0.8432500000000002
 30
0.0
 11
-0.1557500000000007
 21
-0.8432500000000002
 31
0.0
  0
LINE
  5
43
  8
DAMAN
 10
-0.4372499999999997
 20
-0.2642500000000005
 30
0.0
 11
-0.4682500000000003
 21
-0.2642500000000005
 31
0.0
  0
LINE
  5
44
  8
DAMAN
 10
-0.4682500000000003
 20
-0.1242500000000009
 30
0.0
 11
-0.2182500000000007
 21
-0.1242500000000009
 31
0.0
  0
LINE
  5
45
  8
DAMAN
  6
CENTER
 10
-0.7500000000000009
 20
-0.4370000000000003
 30
0.0
 11
0.9999999999999991
 21
-0.4370000000000003
 31
0.0
  0
LINE
  5
46
  8
DAMAN
 10
-0.4372499999999997
 20
-0.6092500000000003
 30
0.0
 11
-0.4682500000000003
 21
-0.6092500000000003
 31
0.0
  0
LINE
  5
47
  8
DAMAN
 10
-0.2182500000000007
 20
-0.7492500000000009
 30
0.0
 11
-0.4682500000000003
 21
-0.7492500000000009
 31
0.0
  0
LINE
  5
48
  8
DAMAN
 10
0.0
 20
0.0
 30
0.0
 11
-1.375
 21
0.0
 31
0.0
  0
POLYLINE
  5
49
  8
DAMAN
 66
     1
 10
0.0
 20
0.0
 30
0.0
 70
     1
  0
VERTEX
  5
2BB
  8
DAMAN
 10
-1.2071999259807451
 20
-0.593
 30
0.0
  0
VERTEX
  5
2BC
  8
DAMAN
 10
-0.9370000000000002
 20
-0.7490000000000006
 30
0.0
  0
VERTEX
  5
2BD
  8
DAMAN
 10
-0.6668000740192559
 20
-0.593
 30
0.0
  0
VERTEX
  5
2BE
  8
DAMAN
 10
-0.6668000740192559
 20
-0.2810000000000006
 30
0.0
  0
VERTEX
  5
2BF
  8
DAMAN
 10
-0.9370000000000002
 20
-0.125
 30
0.0
  0
VERTEX
  5
2C0
  8
DAMAN
 10
-1.2071999259807451
 20
-0.2809999999999997
 30
0.0
  0
SEQEND
  5
2C1
  8
DAMAN
  0
CIRCLE
  5
51
  8
DAMAN
 10
-0.9370000000000002
 20
-0.4370000000000003
 30
0.0
 40
0.265
  0
LINE
  5
52
  8
DAMAN
 10
-0.4682500000000003
 20
-0.7492500000000009
 30
0.0
 11
-0.4682500000000003
 21
-0.1242500000000009
 31
0.0
  0
POINT
  5
53
  8
CHIDDEN
 10
-0.7342925392818751
 20
-0.4955720528000107
 30
0.0
  0
LINE
  5
54
  8
DAMAN
 10
-0.0000000000000009
 20
-0.2802500000000005
 30
0.0
 11
0.8439999999999994
 21
-0.2802500000000005
 31
0.0
  0
LINE
  5
55
  8
DAMAN
 10
0.8119999999999993
 20
-0.24925
 30
0.0
 11
-0.0000000000000009
 21
-0.24925
 31
0.0
  0
LINE
  5
56
  8
DAMAN
 10
-0.0000000000000009
 20
-0.5932500000000003
 30
0.0
 11
0.8439999999999994
 21
-0.5932500000000003
 31
0.0
  0
LINE
  5
57
  8
DAMAN
 10
-0.0000000000000009
 20
-0.62425
 30
0.0
 11
0.8119999999999993
 21
-0.62425
 31
0.0
  0
LINE
  5
58
  8
DAMAN
 10
-0.2182500000000007
 20
-0.6092500000000003
 30
0.0
 11
-0.4372499999999997
 21
-0.6092500000000003
 31
0.0
  0
LINE
  5
59
  8
DAMAN
 10
-0.1562500000000004
 20
-0.03125
 30
0.0
 11
-0.2182500000000007
 21
-0.03125
 31
0.0
  0
LINE
  5
5A
  8
DAMAN
 10
-0.2182500000000007
 20
-0.2642500000000005
 30
0.0
 11
-0.4372499999999997
 21
-0.2642500000000005
 31
0.0
  0
LINE
  5
5B
  8
DAMAN
 10
0.8749999999999991
 20
-0.56175
 30
0.0
 11
0.8749999999999991
 21
-0.3122500000000006
 31
0.0
  0
LINE
  5
5C
  8
DAMAN
 10
0.8119999999999993
 20
-0.62425
 30
0.0
 11
0.8749999999999991
 21
-0.56175
 31
0.0
  0
LINE
  5
5D
  8
DAMAN
 10
0.8749999999999991
 20
-0.3122500000000006
 30
0.0
 11
0.8119999999999993
 21
-0.24925
 31
0.0
  0
LINE
  5
5E
  8
DAMAN
 10
-0.4682500000000003
 20
-4.24925
 30
0.0
 11
-0.2182500000000007
 21
-4.24925
 31
0.0
  0
LINE
  5
5F
  8
DAMAN
 10
-0.4372499999999997
 20
-4.3892499999999997
 30
0.0
 11
-0.4682500000000003
 21
-4.3892499999999997
 31
0.0
  0
LINE
  5
60
  8
DAMAN
  6
CENTER
 10
-0.7500000000000009
 20
-4.5620000000000003
 30
0.0
 11
0.9999999999999991
 21
-4.5620000000000003
 31
0.0
  0
LINE
  5
61
  8
DAMAN
 10
-0.4682500000000003
 20
-4.87425
 30
0.0
 11
-0.4682500000000003
 21
-4.24925
 31
0.0
  0
INSERT
  5
62
  8
DAMAN
  2
100CROSS
 10
-0.9370000000000091
 20
-4.5620000000000083
 30
0.0
 41
0.4220000000000001
 42
0.4220000000000001
  0
POLYLINE
  5
63
  8
DAMAN
 66
     1
 10
0.0
 20
0.0
 30
0.0
 70
     1
  0
VERTEX
  5
2C2
  8
DAMAN
 10
-1.2071999259807451
 20
-4.7179999999999991
 30
0.0
  0
VERTEX
  5
2C3
  8
DAMAN
 10
-0.9370000000000002
 20
-4.8739999999999997
 30
0.0
  0
VERTEX
  5
2C4
  8
DAMAN
 10
-0.6668000740192559
 20
-4.7179999999999991
 30
0.0
  0
VERTEX
  5
2C5
  8
DAMAN
 10
-0.6668000740192559
 20
-4.4059999999999997
 30
0.0
  0
VERTEX
  5
2C6
  8
DAMAN
 10
-0.9370000000000002
 20
-4.25
 30
0.0
  0
VERTEX
  5
2C7
  8
DAMAN
 10
-1.2071999259807451
 20
-4.4059999999999988
 30
0.0
  0
SEQEND
  5
2C8
  8
DAMAN
  0
CIRCLE
  5
6B
  8
DAMAN
 10
-0.9370000000000002
 20
-4.5620000000000003
 30
0.0
 40
0.265
  0
POINT
  5
6C
  8
CHIDDEN
 10
-0.7342925392818751
 20
-4.6205720528000098
 30
0.0
  0
LINE
  5
6D
  8
DAMAN
 10
-0.2182500000000007
 20
-4.15625
 30
0.0
 11
-0.2182500000000007
 21
-4.9682500000000003
 31
0.0
  0
LINE
  5
6E
  8
DAMAN
 10
0.8119999999999993
 20
-4.3742499999999991
 30
0.0
 11
-0.0000000000000009
 21
-4.3742499999999991
 31
0.0
  0
LINE
  5
6F
  8
DAMAN
 10
-0.0000000000000009
 20
-4.4052499999999997
 30
0.0
 11
0.8439999999999994
 21
-4.4052499999999997
 31
0.0
  0
LINE
  5
70
  8
DAMAN
 10
-0.2182500000000007
 20
-4.3892499999999997
 30
0.0
 11
-0.4372499999999997
 21
-4.3892499999999997
 31
0.0
  0
LINE
  5
71
  8
DAMAN
 10
0.8749999999999991
 20
-4.6867499999999991
 30
0.0
 11
0.8749999999999991
 21
-4.4372499999999997
 31
0.0
  0
LINE
  5
72
  8
DAMAN
 10
0.8749999999999991
 20
-4.4372499999999997
 30
0.0
 11
0.8119999999999993
 21
-4.3742499999999991
 31
0.0
  0
LINE
  5
73
  8
DAMAN
 10
-0.1562500000000004
 20
-4.15625
 30
0.0
 11
-0.2182500000000007
 21
-4.15625
 31
0.0
  0
LINE
  5
74
  8
DAMAN
 10
-0.4372499999999997
 20
-4.7342500000000003
 30
0.0
 11
-0.4682500000000003
 21
-4.7342500000000003
 31
0.0
  0
LINE
  5
75
  8
DAMAN
 10
-0.0000000000000009
 20
-4.7492499999999991
 30
0.0
 11
0.8119999999999993
 21
-4.7492499999999991
 31
0.0
  0
LINE
  5
76
  8
DAMAN
 10
-0.0000000000000009
 20
-4.7182500000000003
 30
0.0
 11
0.8439999999999994
 21
-4.7182500000000003
 31
0.0
  0
LINE
  5
77
  8
DAMAN
 10
-0.2182500000000007
 20
-4.7342500000000003
 30
0.0
 11
-0.4372499999999997
 21
-4.7342500000000003
 31
0.0
  0
LINE
  5
78
  8
DAMAN
 10
0.8119999999999993
 20
-4.7492499999999991
 30
0.0
 11
0.8749999999999991
 21
-4.6867499999999991
 31
0.0
  0
LINE
  5
79
  8
DAMAN
 10
-0.2182500000000007
 20
-4.87425
 30
0.0
 11
-0.4682500000000003
 21
-4.87425
 31
0.0
  0
LINE
  5
7A
  8
DAMAN
 10
-1.375
 20
-5.0
 30
0.0
 11
0.0
 21
-5.0
 31
0.0
  0
LINE
  5
7B
  8
DAMAN
 10
-0.2182500000000007
 20
-4.9682500000000003
 30
0.0
 11
-0.1557500000000007
 21
-4.9682500000000003
 31
0.0
  0
LINE
  5
7C
  8
DAMAN
 10
-1.375
 20
0.0
 30
0.0
 11
-1.375
 21
-5.0
 31
0.0
  0
ENDBLK
  5
7D
  8
0
  0
BLOCK
  8
0
  2
100CROSS
 70
     0
 10
5.62500000000004
 20
4.5937500000000391
 30
0.0
  3
100CROSS
  1

  0
INSERT
  5
7F
  8
0
  2
050CROSS
 10
5.62500000000004
 20
4.5937500000000391
 30
0.0
  0
ENDBLK
  5
80
  8
0
  0
BLOCK
  8
0
  2
050CROSS
 70
     0
 10
5.0000000000000391
 20
5.0000000000000391
 30
0.0
  3
050CROSS
  1

  0
LINE
  5
82
  8
0
 10
5.0000000000000391
 20
5.2812500000000391
 30
0.0
 11
5.000000000000079
 21
5.78125000000004
 31
0.0
  0
LINE
  5
83
  8
0
 10
5.0000000000000391
 20
4.8750000000000391
 30
0.0
 11
5.000000000000079
 21
5.1250000000000391
 31
0.0
  0
LINE
  5
84
  8
0
 10
5.0000000000000391
 20
4.1562500000000391
 30
0.0
 11
5.000000000000079
 21
4.7187500000000391
 31
0.0
  0
LINE
  5
85
  8
0
 10
5.2500000000000391
 20
5.0000000000000391
 30
0.0
 11
5.81250000000004
 21
5.000000000000079
 31
0.0
  0
LINE
  5
86
  8
0
 10
4.9062500000000391
 20
5.0000000000000391
 30
0.0
 11
5.0937500000000391
 21
5.000000000000079
 31
0.0
  0
LINE
  5
87
  8
0
 10
4.1875000000000391
 20
5.0000000000000391
 30
0.0
 11
4.7500000000000391
 21
5.000000000000079
 31
0.0
  0
ENDBLK
  5
88
  8
0
  0
BLOCK
  8
0
  2
500MKCT
 70
     0
 10
0.0
 20
0.0
 30
0.0
  3
500MKCT
  1

  0
INSERT
  5
8A
  8
DAMAN
  2
100CROSS
 10
-0.9370000000000091
 20
-0.4370000000000083
 30
0.0
 41
0.4220000000000001
 42
0.4220000000000001
  0
LINE
  5
8B
  8
DAMAN
 10
-0.2182500000000007
 20
-0.03125
 30
0.0
 11
-0.2182500000000007
 21
-0.8432500000000002
 31
0.0
  0
LINE
  5
8C
  8
DAMAN
 10
-0.1560000000000001
 20
-5.0
 30
0.0
 11
-0.1560000000000001
 21
0.0
 31
0.0
  0
LINE
  5
8D
  8
DAMAN
 10
-1.375
 20
0.0
 30
0.0
 11
-1.375
 21
-5.0
 31
0.0
  0
LINE
  5
8E
  8
DAMAN
 10
0.0
 20
-5.0
 30
0.0
 11
0.0
 21
0.0
 31
0.0
  0
LINE
  5
8F
  8
DAMAN
 10
-0.2182500000000007
 20
-4.87425
 30
0.0
 11
-0.4682500000000003
 21
-4.87425
 31
0.0
  0
LINE
  5
90
  8
DAMAN
 10
-0.4372499999999997
 20
-4.7342500000000003
 30
0.0
 11
-0.4682500000000003
 21
-4.7342500000000003
 31
0.0
  0
LINE
  5
91
  8
DAMAN
 10
-0.4682500000000003
 20
-4.24925
 30
0.0
 11
-0.2182500000000007
 21
-4.24925
 31
0.0
  0
LINE
  5
92
  8
DAMAN
 10
-0.4372499999999997
 20
-4.3892499999999997
 30
0.0
 11
-0.4682500000000003
 21
-4.3892499999999997
 31
0.0
  0
LINE
  5
93
  8
DAMAN
 10
-1.375
 20
-5.0
 30
0.0
 11
0.0
 21
-5.0
 31
0.0
  0
LINE
  5
94
  8
DAMAN
 10
-0.4682500000000003
 20
-4.87425
 30
0.0
 11
-0.4682500000000003
 21
-4.24925
 31
0.0
  0
INSERT
  5
95
  8
DAMAN
  2
100CROSS
 10
-0.9370000000000091
 20
-4.5620000000000083
 30
0.0
 41
0.4220000000000001
 42
0.4220000000000001
  0
POLYLINE
  5
96
  8
DAMAN
 66
     1
 10
0.0
 20
0.0
 30
0.0
 70
     1
  0
VERTEX
  5
2C9
  8
DAMAN
 10
-1.2071999259807451
 20
-4.7179999999999991
 30
0.0
  0
VERTEX
  5
2CA
  8
DAMAN
 10
-0.9370000000000002
 20
-4.8739999999999997
 30
0.0
  0
VERTEX
  5
2CB
  8
DAMAN
 10
-0.6668000740192559
 20
-4.7179999999999991
 30
0.0
  0
VERTEX
  5
2CC
  8
DAMAN
 10
-0.6668000740192559
 20
-4.4059999999999997
 30
0.0
  0
VERTEX
  5
2CD
  8
DAMAN
 10
-0.9370000000000002
 20
-4.25
 30
0.0
  0
VERTEX
  5
2CE
  8
DAMAN
 10
-1.2071999259807451
 20
-4.4059999999999988
 30
0.0
  0
SEQEND
  5
2CF
  8
DAMAN
  0
CIRCLE
  5
9E
  8
DAMAN
 10
-0.9370000000000002
 20
-4.5620000000000003
 30
0.0
 40
0.265
  0
POINT
  5
9F
  8
CHIDDEN
 10
-1.0747166467447069
 20
-4.7218597047707718
 30
0.0
  0
POINT
  5
A0
  8
CHIDDEN
 10
-1.0249283445109469
 20
-4.3701938316123208
 30
0.0
  0
POINT
  5
A1
  8
CHIDDEN
 10
-0.7342925392818751
 20
-4.6205720528000098
 30
0.0
  0
LINE
  5
A2
  8
DAMAN
 10
-0.2182500000000007
 20
-4.15625
 30
0.0
 11
-0.2182500000000007
 21
-4.9682500000000003
 31
0.0
  0
LINE
  5
A3
  8
DAMAN
 10
-0.2182500000000007
 20
-4.9682500000000003
 30
0.0
 11
-0.1557500000000007
 21
-4.9682500000000003
 31
0.0
  0
LINE
  5
A4
  8
DAMAN
 10
-0.2182500000000007
 20
-4.7342500000000003
 30
0.0
 11
-0.4372499999999997
 21
-4.7342500000000003
 31
0.0
  0
LINE
  5
A5
  8
DAMAN
 10
-0.2182500000000007
 20
-4.3892499999999997
 30
0.0
 11
-0.4372499999999997
 21
-4.3892499999999997
 31
0.0
  0
LINE
  5
A6
  8
DAMAN
 10
-0.1562500000000004
 20
-4.15625
 30
0.0
 11
-0.2182500000000007
 21
-4.15625
 31
0.0
  0
LINE
  5
A7
  8
DAMAN
 10
-0.2182500000000007
 20
-0.8432500000000002
 30
0.0
 11
-0.1557500000000007
 21
-0.8432500000000002
 31
0.0
  0
LINE
  5
A8
  8
DAMAN
 10
-0.4372499999999997
 20
-0.2642500000000005
 30
0.0
 11
-0.4682500000000003
 21
-0.2642500000000005
 31
0.0
  0
LINE
  5
A9
  8
DAMAN
 10
-0.4682500000000003
 20
-0.1242500000000009
 30
0.0
 11
-0.2182500000000007
 21
-0.1242500000000009
 31
0.0
  0
LINE
  5
AA
  8
DAMAN
 10
-0.4372499999999997
 20
-0.6092500000000003
 30
0.0
 11
-0.4682500000000003
 21
-0.6092500000000003
 31
0.0
  0
LINE
  5
AB
  8
DAMAN
 10
-0.2182500000000007
 20
-0.7492500000000009
 30
0.0
 11
-0.4682500000000003
 21
-0.7492500000000009
 31
0.0
  0
LINE
  5
AC
  8
DAMAN
 10
0.0
 20
0.0
 30
0.0
 11
-1.375
 21
0.0
 31
0.0
  0
POLYLINE
  5
AD
  8
DAMAN
 66
     1
 10
0.0
 20
0.0
 30
0.0
 70
     1
  0
VERTEX
  5
2D0
  8
DAMAN
 10
-1.2071999259807451
 20
-0.593
 30
0.0
  0
VERTEX
  5
2D1
  8
DAMAN
 10
-0.9370000000000002
 20
-0.7490000000000006
 30
0.0
  0
VERTEX
  5
2D2
  8
DAMAN
 10
-0.6668000740192559
 20
-0.593
 30
0.0
  0
VERTEX
  5
2D3
  8
DAMAN
 10
-0.6668000740192559
 20
-0.2810000000000006
 30
0.0
  0
VERTEX
  5
2D4
  8
DAMAN
 10
-0.9370000000000002
 20
-0.125
 30
0.0
  0
VERTEX
  5
2D5
  8
DAMAN
 10
-1.2071999259807451
 20
-0.2809999999999997
 30
0.0
  0
SEQEND
  5
2D6
  8
DAMAN
  0
CIRCLE
  5
B5
  8
DAMAN
 10
-0.9370000000000002
 20
-0.4370000000000003
 30
0.0
 40
0.265
  0
POINT
  5
B6
  8
CHIDDEN
 10
-1.0747166467447069
 20
-0.5968597047707727
 30
0.0
  0
POINT
  5
B7
  8
CHIDDEN
 10
-1.0249283445109469
 20
-0.2451938316123217
 30
0.0
  0
LINE
  5
B8
  8
DAMAN
 10
-0.4682500000000003
 20
-0.7492500000000009
 30
0.0
 11
-0.4682500000000003
 21
-0.1242500000000009
 31
0.0
  0
POINT
  5
B9
  8
CHIDDEN
 10
-0.7342925392818751
 20
-0.4955720528000107
 30
0.0
  0
LINE
  5
BA
  8
DAMAN
 10
-0.2182500000000007
 20
-0.6092500000000003
 30
0.0
 11
-0.4372499999999997
 21
-0.6092500000000003
 31
0.0
  0
LINE
  5
BB
  8
DAMAN
 10
-0.1562500000000004
 20
-0.03125
 30
0.0
 11
-0.2182500000000007
 21
-0.03125
 31
0.0
  0
LINE
  5
BC
  8
DAMAN
 10
-0.2182500000000007
 20
-0.2642500000000005
 30
0.0
 11
-0.4372499999999997
 21
-0.2642500000000005
 31
0.0
  0
ENDBLK
  5
BD
  8
0
  0
BLOCK
  8
0
  2
500MKS
 70
     0
 10
0.0
 20
0.0
 30
0.0
  3
500MKS
  1

  0
LINE
  5
BF
  8
DAMAN
 10
-0.3129999999999991
 20
-0.7187499999999996
 30
0.0
 11
-1.1249999999999989
 21
-0.7187499999999996
 31
0.0
  0
LINE
  5
C0
  8
DAMAN
 10
-1.030999999999999
 20
-0.4687499999999996
 30
0.0
 11
-0.4059999999999999
 21
-0.4687499999999996
 31
0.0
  0
LINE
  5
C1
  8
DAMAN
 10
-0.1877499999999994
 20
-0.7809999999999997
 30
0.0
 11
-1.1567499999999991
 21
-0.7809999999999997
 31
0.0
  0
LINE
  5
C2
  8
DAMAN
 10
-1.1567499999999991
 20
-0.9369999999999995
 30
0.0
 11
-0.1877499999999994
 21
-0.9369999999999995
 31
0.0
  0
LINE
  5
C3
  8
DAMAN
  6
CENTER
 10
-0.7187499999999993
 20
-0.1869999999999996
 30
0.0
 11
-0.7187499999999993
 21
-1.9369999999999989
 31
0.0
  0
LINE
  5
C4
  8
DAMAN
 10
-0.8749999999999989
 20
-0.9369999999999995
 30
0.0
 11
-0.8749999999999989
 21
-1.780999999999999
 31
0.0
  0
LINE
  5
C5
  8
DAMAN
 10
-0.5619999999999993
 20
-0.9369999999999995
 30
0.0
 11
-0.5619999999999993
 21
-1.780999999999999
 31
0.0
  0
LINE
  5
C6
  8
DAMAN
 10
-0.530999999999999
 20
-1.748999999999999
 30
0.0
 11
-0.530999999999999
 21
-0.9369999999999995
 31
0.0
  0
LINE
  5
C7
  8
DAMAN
 10
-0.9059999999999989
 20
-0.9369999999999995
 30
0.0
 11
-0.9059999999999989
 21
-1.748999999999999
 31
0.0
  0
LINE
  5
C8
  8
DAMAN
 10
-0.9059999999999989
 20
-1.748999999999999
 30
0.0
 11
-0.8434999999999989
 21
-1.8119999999999989
 31
0.0
  0
LINE
  5
C9
  8
DAMAN
 10
-0.5939999999999993
 20
-1.8119999999999989
 30
0.0
 11
-0.530999999999999
 21
-1.748999999999999
 31
0.0
  0
LINE
  5
CA
  8
DAMAN
 10
-0.8434999999999989
 20
-1.8119999999999989
 30
0.0
 11
-0.5939999999999993
 21
-1.8119999999999989
 31
0.0
  0
LINE
  5
CB
  8
DAMAN
 10
-1.1567499999999991
 20
-0.7809999999999997
 30
0.0
 11
-1.1567499999999991
 21
-0.9369999999999995
 31
0.0
  0
LINE
  5
CC
  8
DAMAN
 10
-1.030999999999999
 20
-0.7187499999999996
 30
0.0
 11
-1.030999999999999
 21
-0.4687499999999996
 31
0.0
  0
LINE
  5
CD
  8
DAMAN
 10
-0.8909999999999994
 20
-0.7187499999999996
 30
0.0
 11
-0.8909999999999994
 21
-0.4997500000000002
 31
0.0
  0
LINE
  5
CE
  8
DAMAN
 10
-1.1249999999999989
 20
-0.7187499999999996
 30
0.0
 11
-1.1249999999999989
 21
-0.7812499999999996
 31
0.0
  0
LINE
  5
CF
  8
DAMAN
 10
-0.8909999999999994
 20
-0.4997500000000002
 30
0.0
 11
-0.8909999999999994
 21
-0.4687499999999996
 31
0.0
  0
LINE
  5
D0
  8
DAMAN
 10
-0.5459999999999996
 20
-0.7187499999999996
 30
0.0
 11
-0.5459999999999996
 21
-0.4997500000000002
 31
0.0
  0
LINE
  5
D1
  8
DAMAN
 10
-0.5459999999999996
 20
-0.4997500000000002
 30
0.0
 11
-0.5459999999999996
 21
-0.4687499999999996
 31
0.0
  0
LINE
  5
D2
  8
DAMAN
 10
-0.25
 20
-0.3120000000000007
 30
0.0
 11
-0.25
 21
0.3129999999999993
 31
0.0
  0
LINE
  5
D3
  8
DAMAN
 10
0.0
 20
0.4060000000000002
 30
0.0
 11
0.0
 21
-0.4060000000000002
 31
0.0
  0
LINE
  5
D4
  8
DAMAN
 10
0.0625
 20
-0.4060000000000002
 30
0.0
 11
0.0620000000000003
 21
0.4060000000000002
 31
0.0
  0
LINE
  5
D5
  8
DAMAN
 10
0.0622500000000006
 20
0.4380000000000005
 30
0.0
 11
0.0622500000000006
 21
-0.5309999999999997
 31
0.0
  0
LINE
  5
D6
  8
DAMAN
 10
0.2182500000000007
 20
-0.5309999999999996
 30
0.0
 11
0.2182500000000007
 21
0.4380000000000005
 31
0.0
  0
ARC
  5
D7
  8
DAMAN
 10
-0.1877499999999994
 20
-0.5309999999999996
 30
0.0
 40
0.4060000000000001
 50
270.0
 51
0.0
  0
LINE
  5
D8
  8
DAMAN
 10
0.0
 20
-0.4060000000000002
 30
0.0
 11
0.0625
 21
-0.4060000000000002
 31
0.0
  0
ARC
  5
D9
  8
DAMAN
 10
-0.1877499999999994
 20
-0.5309999999999997
 30
0.0
 40
0.25
 50
270.0
 51
0.0
  0
LINE
  5
DA
  8
DAMAN
 10
-0.4059999999999999
 20
-0.4687499999999996
 30
0.0
 11
-0.4059999999999999
 21
-0.7187499999999996
 31
0.0
  0
LINE
  5
DB
  8
DAMAN
 10
-0.3129999999999991
 20
-0.7807499999999999
 30
0.0
 11
-0.3129999999999991
 21
-0.7187499999999996
 31
0.0
  0
LINE
  5
DC
  8
DAMAN
 10
0.0
 20
-0.3120000000000007
 30
0.0
 11
-0.25
 21
-0.3120000000000007
 31
0.0
  0
LINE
  5
DD
  8
DAMAN
 10
-0.2189999999999994
 20
-0.1720000000000001
 30
0.0
 11
-0.25
 21
-0.1720000000000001
 31
0.0
  0
LINE
  5
DE
  8
DAMAN
 10
0.0
 20
-0.1720000000000001
 30
0.0
 11
-0.2189999999999994
 21
-0.1720000000000001
 31
0.0
  0
LINE
  5
DF
  8
DAMAN
 10
-0.2189999999999994
 20
0.1729999999999996
 30
0.0
 11
-0.25
 21
0.1729999999999996
 31
0.0
  0
LINE
  5
E0
  8
DAMAN
 10
0.0
 20
0.1729999999999996
 30
0.0
 11
-0.2189999999999994
 21
0.1729999999999996
 31
0.0
  0
LINE
  5
E1
  8
DAMAN
 10
0.0620000000000003
 20
0.4060000000000002
 30
0.0
 11
0.0
 21
0.4060000000000002
 31
0.0
  0
LINE
  5
E2
  8
DAMAN
 10
-0.25
 20
0.3129999999999993
 30
0.0
 11
0.0
 21
0.3129999999999993
 31
0.0
  0
LINE
  5
E3
  8
DAMAN
 10
0.2182500000000007
 20
0.4380000000000005
 30
0.0
 11
0.0622500000000006
 21
0.4380000000000005
 31
0.0
  0
ENDBLK
  5
E4
  8
0
  0
BLOCK
  8
0
  2
750NPTFT
 70
     0
 10
0.0
 20
0.0
 30
0.0
  3
750NPTFT
  1

  0
INSERT
  5
122
  8
DAMAN
 62
     5
  2
100CROSS
 10
6.4108925841296189
 20
4.5555434009525291
 30
0.0
 41
0.98
 42
0.98
  0
CIRCLE
  5
123
  8
DAMAN
 62
     5
 10
6.4108925841295701
 20
4.5555434009521303
 30
0.0
 40
0.4910669150803457
  0
CIRCLE
  5
124
  8
DAMAN
 62
     5
 10
6.4108925841296189
 20
4.5555434009525291
 30
0.0
 40
0.453
  0
CIRCLE
  5
125
  8
DAMAN
 62
     5
 10
6.4108925841296189
 20
4.5555434009525291
 30
0.0
 40
0.53125
  0
ENDBLK
  5
126
  8
0
  0
BLOCK
  8
0
  2
100NPTFT
 70
     0
 10
0.0
 20
0.0
 30
0.0
  3
100NPTFT
  1

  0
CIRCLE
  5
128
  8
DAMAN
 10
0.0
 20
0.0
 30
0.0
 40
0.5625
  0
CIRCLE
  5
129
  8
DAMAN
 10
0.0
 20
0.0
 30
0.0
 40
0.6720000000000002
  0
INSERT
  5
12A
  8
DAMAN
  2
100CROSS
 10
0.0
 20
0.0
 30
0.0
 41
1.1999999999999991
 42
1.1999999999999991
  0
CIRCLE
  5
12B
  8
DAMAN
 10
-0.0000000000000409
 20
-0.00000000000004
 30
0.0
 40
0.625
  0
ENDBLK
  5
12C
  8
0
  0
BLOCK
  8
0
  2
038NPTFT
 70
     0
 10
0.0
 20
0.0
 30
0.0
  3
038NPTFT
  1

  0
INSERT
  5
12E
  8
DAMAN
  2
375NPTFT
 10
0.0000000000000391
 20
0.0000000000003979
 30
0.0
  0
ENDBLK
  5
12F
  8
0
  0
BLOCK
  8
0
  2
375NPTFT
 70
     0
 10
0.0
 20
0.0
 30
0.0
  3
375NPTFT
  1

  0
INSERT
  5
131
  8
DAMAN
  2
100CROSS
 10
0.0
 20
0.0
 30
0.0
 41
0.6800000000000001
 42
0.6800000000000001
  0
CIRCLE
  5
132
  8
DAMAN
 10
-0.0000000000000391
 20
-0.0000000000003979
 30
0.0
 40
0.3125
  0
CIRCLE
  5
133
  8
DAMAN
 10
0.0
 20
0.0
 30
0.0
 40
0.281
  0
CIRCLE
  5
134
  8
DAMAN
 10
0.0
 20
0.0
 30
0.0
 40
0.3439999999999999
  0
ENDBLK
  5
135
  8
0
  0
BLOCK
  8
0
  2
025NPTFT
 70
     0
 10
0.0
 20
0.0
 30
0.0
  3
025NPTFT
  1

  0
INSERT
  5
137
  8
DAMAN
  2
250NPTFT
 10
0.0
 20
0.0
 30
0.0
  0
ENDBLK
  5
138
  8
0
  0
BLOCK
  8
0
  2
250NPTFT
 70
     0
 10
0.0
 20
0.0
 30
0.0
  3
250NPTFT
  1

  0
CIRCLE
  5
13A
  8
DAMAN
 10
0.0
 20
0.0
 30
0.0
 40
0.273
  0
CIRCLE
  5
13B
  8
DAMAN
 10
0.0
 20
0.0
 30
0.0
 40
0.211
  0
INSERT
  5
13C
  8
DAMAN
  2
100CROSS
 10
0.0
 20
0.0
 30
0.0
 41
0.4220000000000001
 42
0.4220000000000001
  0
CIRCLE
  5
13D
  8
DAMAN
 10
0.0000000000000071
 20
0.000000000000008
 30
0.0
 40
0.2422508395811249
  0
POINT
  5
13E
  8
CHIDDEN
 10
-0.0879283445109387
 20
0.1918061683876866
 30
0.0
  0
POINT
  5
13F
  8
CHIDDEN
 10
-0.137716646744698
 20
-0.1598597047707644
 30
0.0
  0
POINT
  5
140
  8
CHIDDEN
 10
0.2027074607181341
 20
-0.0585720528000025
 30
0.0
  0
ENDBLK
  5
141
  8
0
  0
BLOCK
  8
0
  2
125NPTFT
 70
     0
 10
0.0
 20
0.0
 30
0.0
  3
125NPTFT
  1

  0
CIRCLE
  5
16F
  8
DAMAN
 10
0.00000000000004
 20
0.0000000000003997
 30
0.0
 40
0.8440000000000001
  0
CIRCLE
  5
170
  8
DAMAN
 10
0.00000000000004
 20
0.0000000000003997
 30
0.0
 40
0.7265000000000002
  0
INSERT
  5
171
  8
DAMAN
  2
100CROSS
 10
0.00000000000004
 20
0.0000000000003997
 30
0.0
 41
1.399999999999999
 42
1.399999999999999
  0
CIRCLE
  5
172
  8
DAMAN
 10
0.0
 20
0.0
 30
0.0
 40
0.78125
  0
ENDBLK
  5
173
  8
0
  0
BLOCK
  8
0
  2
D05
 70
     0
 10
0.0
 20
0.0
 30
0.0
  3
D05
  1

  0
CIRCLE
  5
175
  8
DAMAN
  6
HIDDEN
 10
1.8125
 20
0.0
 30
0.0
 40
0.125
  0
CIRCLE
  5
176
  8
DAMAN
  6
HIDDEN
 10
1.8125
 20
-2.125
 30
0.0
 40
0.125
  0
CIRCLE
  5
177
  8
DAMAN
  6
HIDDEN
 10
0.0
 20
0.0
 30
0.0
 40
0.125
  0
CIRCLE
  5
178
  8
DAMAN
  6
HIDDEN
 10
0.0
 20
-2.125
 30
0.0
 40
0.125
  0
INSERT
  5
179
  8
DAMAN
  2
100CROSS
 10
-0.0000000000000995
 20
-0.0000000000000782
 30
0.0
 41
0.25
 42
0.25
  0
CIRCLE
  5
17A
  8
DAMAN
 10
-0.0000000000000995
 20
-0.0000000000000782
 30
0.0
 40
0.1055
  0
CIRCLE
  5
17B
  8
DAMAN
 10
-0.0000000000000995
 20
-2.1250000000000782
 30
0.0
 40
0.1055
  0
INSERT
  5
17C
  8
DAMAN
  2
100CROSS
 10
-0.0000000000000995
 20
-2.1250000000000782
 30
0.0
 41
0.25
 42
0.25
  0
CIRCLE
  5
17D
  8
DAMAN
 10
1.8124999999999001
 20
-0.0000000000000782
 30
0.0
 40
0.1055
  0
INSERT
  5
17E
  8
DAMAN
  2
100CROSS
 10
1.8124999999999001
 20
-0.0000000000000782
 30
0.0
 41
0.25
 42
0.25
  0
CIRCLE
  5
17F
  8
DAMAN
 10
1.8124999999999001
 20
-2.1250000000000782
 30
0.0
 40
0.1055
  0
INSERT
  5
180
  8
DAMAN
  2
100CROSS
 10
1.8124999999999001
 20
-2.1250000000000782
 30
0.0
 41
0.25
 42
0.25
  0
INSERT
  5
181
  8
DAMAN
  2
100CROSS
 10
0.5309999999998994
 20
-0.1250000000000782
 30
0.0
 41
0.4379999999999999
 42
0.4379999999999999
  0
CIRCLE
  5
182
  8
DAMAN
 10
0.5309999999998994
 20
-0.1250000000000782
 30
0.0
 40
0.21875
  0
CIRCLE
  5
183
  8
DAMAN
 10
0.9684999999998993
 20
-0.656000000000077
 30
0.0
 40
0.21875
  0
INSERT
  5
184
  8
DAMAN
  2
100CROSS
 10
0.9684999999998993
 20
-0.656000000000077
 30
0.0
 41
0.4379999999999999
 42
0.4379999999999999
  0
INSERT
  5
185
  8
DAMAN
  2
100CROSS
 10
0.9684999999998993
 20
-1.4685000000000761
 30
0.0
 41
0.4379999999999999
 42
0.4379999999999999
  0
CIRCLE
  5
186
  8
DAMAN
 10
0.9684999999998993
 20
-1.4685000000000761
 30
0.0
 40
0.21875
  0
CIRCLE
  5
187
  8
DAMAN
 10
1.5624999999999001
 20
-1.0622500000000761
 30
0.0
 40
0.21875
  0
INSERT
  5
188
  8
DAMAN
  2
100CROSS
 10
1.5624999999999001
 20
-1.0622500000000761
 30
0.0
 41
0.4379999999999999
 42
0.4379999999999999
  0
CIRCLE
  5
189
  8
DAMAN
 10
0.5309999999998994
 20
-1.9995000000000751
 30
0.0
 40
0.21875
  0
INSERT
  5
18A
  8
DAMAN
  2
100CROSS
 10
0.5309999999998994
 20
-1.9995000000000751
 30
0.0
 41
-0.4379999999999999
 42
0.4379999999999999
 50
180.0
  0
ENDBLK
  5
18B
  8
0
  0
BLOCK
  8
0
  2
T16AT
 70
     0
 10
0.0
 20
0.0
 30
0.0
  3
T16AT
  1

  0
CIRCLE
  5
18D
  8
DAMAN
 10
0.0
 20
0.0
 30
0.0
 40
0.5
  0
CIRCLE
  5
18E
  8
DAMAN
 10
0.0
 20
0.0
 30
0.0
 40
0.625
  0
CIRCLE
  5
18F
  8
DAMAN
 10
0.0
 20
0.0
 30
0.0
 40
0.6720000000000002
  0
CIRCLE
  5
190
  8
DAMAN
 10
0.0
 20
0.0
 30
0.0
 40
0.72
  0
CIRCLE
  5
191
  8
DAMAN
 10
0.0
 20
0.0
 30
0.0
 40
0.7809999999999999
  0
CIRCLE
  5
192
  8
DAMAN
  6
HIDDEN
 10
0.0
 20
0.0
 30
0.0
 40
0.6875
  0
INSERT
  5
193
  8
DAMAN
  2
100CROSS
 10
-0.0000000000000266
 20
-0.0000000000000302
 30
0.0
 41
1.399999999999999
 42
1.399999999999999
  0
ENDBLK
  5
194
  8
0
  0
BLOCK
  8
0
  2
16SAET
 70
     0
 10
0.0
 20
0.0
 30
0.0
  3
16SAET
  1

  0
CIRCLE
  5
19C
  8
DAMAN
 10
0.0
 20
0.0
 30
0.0
 40
0.6125
  0
CIRCLE
  5
19D
  8
DAMAN
 10
0.0
 20
0.0
 30
0.0
 40
0.5620000000000001
  0
CIRCLE
  5
19E
  8
DAMAN
 10
0.0
 20
0.0
 30
0.0
 40
1.0
  0
INSERT
  5
19F
  8
DAMAN
  2
100CROSS
 10
0.0
 20
0.0
 30
0.0
 41
1.6000000000000001
 42
1.6000000000000001
  0
CIRCLE
  5
1A0
  8
DAMAN
 10
0.0
 20
0.0
 30
0.0
 40
0.65625
  0
ENDBLK
  5
1A1
  8
0
  0
BLOCK
  8
0
  2
20SAET
 70
     0
 10
0.0
 20
0.0
 30
0.0
  3
20SAET
  1

  0
INSERT
  5
1A3
  8
DAMAN
  2
100CROSS
 10
0.0
 20
0.0
 30
0.0
 41
1.7
 42
1.7
  0
CIRCLE
  5
1A4
  8
DAMAN
 10
0.0
 20
0.0
 30
0.0
 40
0.8125
  0
CIRCLE
  5
1A5
  8
DAMAN
 10
0.0
 20
0.0
 30
0.0
 40
1.125
  0
CIRCLE
  5
1A6
  8
DAMAN
 10
0.0
 20
0.0
 30
0.0
 40
0.75
  0
ENDBLK
  5
1A7
  8
0
  0
BLOCK
  8
0
  2
06SAET
 70
     0
 10
0.0
 20
0.0
 30
0.0
  3
06SAET
  1

  0
INSERT
  5
1B0
  8
DAMAN
  2
100CROSS
 10
0.0
 20
0.0
 30
0.0
  0
CIRCLE
  5
1B1
  8
DAMAN
 10
0.0
 20
0.0
 30
0.0
 40
0.28125
  0
CIRCLE
  5
1B2
  8
DAMAN
 10
0.0
 20
0.0
 30
0.0
 40
0.5
  0
CIRCLE
  5
1B3
  8
DAMAN
 10
0.0
 20
0.0
 30
0.0
 40
0.25
  0
ENDBLK
  5
1B4
  8
0
  0
ENDSEC
  0
SECTION
  2
ENTITIES
  0
LINE
  5
1
  8
DAMAN
 10
-1.0
 20
1.0
 30
0.0
 11
4.0
 21
1.0
 31
0.0
  0
LINE
  5
2
  8
DAMAN
 10
4.0
 20
1.0
 30
0.0
 11
4.0
 21
6.0
 31
0.0
  0
LINE
  5
3
  8
DAMAN
 10
4.0
 20
6.0
 30
0.0
 11
-1.0
 21
6.0
 31
0.0
  0
LINE
  5
4
  8
DAMAN
  6
HIDDEN
 10
-1.0
 20
6.0
 30
0.0
 11
-1.0
 21
1.0
 31
0.0
  0
LINE
  5
5
  8
DAMAN
 10
6.75
 20
1.0
 30
0.0
 11
27.25
 21
1.0
 31
0.0
  0
LINE
  5
6
  8
DAMAN
 10
27.25
 20
1.0
 30
0.0
 11
27.25
 21
6.0
 31
0.0
  0
LINE
  5
7
  8
DAMAN
 10
27.25
 20
6.0
 30
0.0
 11
6.75
 21
6.0
 31
0.0
  0
LINE
  5
8
  8
DAMAN
 10
6.75
 20
6.0
 30
0.0
 11
6.75
 21
1.0
 31
0.0
  0
LINE
  5
9
  8
DAMAN
 10
30.0
 20
6.0
 30
0.0
 11
35.0
 21
6.0
 31
0.0
  0
LINE
  5
A
  8
DAMAN
 10
35.0
 20
1.0
 30
0.0
 11
30.0
 21
1.0
 31
0.0
  0
LINE
  5
B
  8
DAMAN
  6
HIDDEN
 10
35.0
 20
6.0
 30
0.0
 11
35.0
 21
1.0
 31
0.0
  0
LINE
  5
C
  8
DAMAN
 10
30.0
 20
1.0
 30
0.0
 11
30.0
 21
6.0
 31
0.0
  0
LINE
  5
D
  8
DAMAN
 10
27.25
 20
0.0
 30
0.0
 11
6.75
 21
0.0
 31
0.0
  0
LINE
  5
E
  8
DAMAN
 10
6.75
 20
-5.0
 30
0.0
 11
27.25
 21
-5.0
 31
0.0
  0
LINE
  5
F
  8
DAMAN
 10
6.75
 20
0.0
 30
0.0
 11
6.75
 21
-5.0
 31
0.0
  0
LINE
  5
10
  8
DAMAN
 10
27.25
 20
-5.0
 30
0.0
 11
27.25
 21
0.0
 31
0.0
  0
INSERT
  5
11
  8
DAMAN
  2
500MKCT
 10
6.75
 20
6.0
 30
0.0
  0
INSERT
  5
12
  8
DAMAN
  2
500MKCT
 10
27.25
 20
1.0
 30
0.0
 50
180.0
  0
INSERT
  5
13
  8
DAMAN
  2
500MKT
 10
35.563000000000002
 20
6.0
 30
0.0
  0
INSERT
  5
14
  8
DAMAN
  2
500MKT
 10
-1.5629999999999991
 20
1.0
 30
0.0
 50
180.0
  0
INSERT
  5
15
  8
DAMAN
  2
500MKS
 10
6.5309999999999988
 20
-4.625
 30
0.0
  0
INSERT
  5
16
  8
DAMAN
  2
500MKS
 10
27.469000000000001
 20
-4.625
 30
0.0
 41
-1.0
  0
TEXT
  5
17
  8
DAMAN
 10
2.46875
 20
5.6875
 30
0.0
 40
0.2
  1
T
 50
270.0
  0
TEXT
  5
18
  8
DAMAN
 10
31.59375
 20
5.6875
 30
0.0
 40
0.2
  1
T
 50
90.0
  0
TEXT
  5
19
  8
DAMAN
 10
2.375
 20
1.78125
 30
0.0
 40
0.2
  1
P
 50
270.0
  0
TEXT
  5
1A
  8
DAMAN
 10
31.84375
 20
1.625
 30
0.0
 40
0.2
  1
P
 50
90.0
  0
TEXT
  5
1B
  8
DAMAN
 10
9.375
 20
-2.03125
 30
0.0
 40
0.2
  1
DAMAN ****
  0
TEXT
  5
1C
  8
DAMAN
 10
9.75
 20
-0.5
 30
0.0
 40
0.2
  1
B
  0
TEXT
  5
1D
  8
DAMAN
 10
9.8125
 20
-3.46875
 30
0.0
 40
0.2
  1
A
  0
TEXT
  5
1E
  8
DAMAN
 10
13.0
 20
-0.5
 30
0.0
 40
0.2
  1
B
  0
TEXT
  5
1F
  8
DAMAN
 10
13.0625
 20
-3.46875
 30
0.0
 40
0.2
  1
A
  0
INSERT
  5
20
  8
DAMAN
  2
D05
 10
7.9685000000001001
 20
4.9057500000000767
 30
0.0
  0
INSERT
  5
21
  8
DAMAN
  2
D05
 10
11.2185000000001
 20
4.9057500000000767
 30
0.0
  0
LINE
  5
22
  8
DAMAN
 10
27.25
 20
7.0
 30
0.0
 11
6.75
 21
7.0
 31
0.0
  0
LINE
  5
23
  8
DAMAN
 10
27.25
 20
12.0
 30
0.0
 11
27.25
 21
7.0
 31
0.0
  0
INSERT
  5
24
  8
DAMAN
  2
500MKS
 10
27.469000000000001
 20
11.625
 30
0.0
 50
180.0
  0
LINE
  5
25
  8
DAMAN
 10
6.75
 20
12.0
 30
0.0
 11
27.25
 21
12.0
 31
0.0
  0
INSERT
  5
26
  8
DAMAN
  2
500MKS
 10
6.5309999999999988
 20
11.625
 30
0.0
 41
-1.0
 50
180.0
  0
LINE
  5
27
  8
DAMAN
 10
6.75
 20
7.0
 30
0.0
 11
6.75
 21
12.0
 31
0.0
  0
INSERT
  5
28
  8
DAMAN
  2
T16AT
 10
10.5
 20
10.749999999999989
 30
0.0
  0
INSERT
  5
29
  8
DAMAN
  2
20SAET
 10
1.5
 20
4.875
 30
0.0
  0
INSERT
  5
2A
  8
DAMAN
  2
20SAET
 10
32.500000000000043
 20
4.8750000000003988
 30
0.0
  0
INSERT
  5
2B
  8
DAMAN
  2
16SAET
 10
1.5
 20
2.75
 30
0.0
  0
INSERT
  5
2C
  8
DAMAN
  2
16SAET
 10
8.7810000000000006
 20
-1.0625
 30
0.0
  0
INSERT
  5
2D
  8
DAMAN
  2
16SAET
 10
8.7810000000000006
 20
-3.9380000000000002
 30
0.0
  0
INSERT
  5
2E
  8
DAMAN
  2
16SAET
 10
12.03099999999996
 20
-1.0625000000000391
 30
0.0
  0
INSERT
  5
2F
  8
DAMAN
  2
16SAET
 10
12.03099999999996
 20
-3.9380000000000388
 30
0.0
  0
INSERT
  5
30
  8
DAMAN
  2
16SAET
 10
32.5
 20
2.75
 30
0.0
  0
TEXT
  5
33
  8
DAMAN
 10
7.375
 20
7.375
 30
0.0
 40
0.2
  1
Y
 50
180.0
  0
TEXT
  5
34
  8
DAMAN
 10
26.8125
 20
7.375
 30
0.0
 40
0.2
  1
Y
 50
180.0
  0
CIRCLE
  5
35
  8
DAMAN
 10
8.0630000000000024
 20
5.3434999999999997
 30
0.0
 40
0.094
  0
INSERT
  5
36
  8
DAMAN
  6
CENTER
 62
     5
  2
100CROSS
 10
8.0629999999999953
 20
5.3434999999999953
 30
0.0
 41
0.2459999999999999
 42
0.2459999999999999
  0
CIRCLE
  5
37
  8
DAMAN
 10
11.313000000000001
 20
5.3434999999999997
 30
0.0
 40
0.094
  0
INSERT
  5
38
  8
DAMAN
  6
CENTER
 62
     5
  2
100CROSS
 10
11.31299999999999
 20
5.3434999999999953
 30
0.0
 41
0.2459999999999999
 42
0.2459999999999999
  0
INSERT
  5
39
  8
DAMAN
  2
06SAET
 10
7.75
 20
8.0
 30
0.0
  0
INSERT
  5
3A
  8
DAMAN
  2
06SAET
 10
26.25
 20
8.0
 30
0.0
  0
CIRCLE
  5
3B
  8
DAMAN
 10
8.7810000000000006
 20
-1.0625
 30
0.0
 40
0.21875
  0
CIRCLE
  5
3C
  8
DAMAN
 10
12.03099999999996
 20
-1.0625000000000391
 30
0.0
 40
0.21875
  0
INSERT
  5
241
  8
DAMAN
  2
D05
 10
14.4685000000001
 20
4.9057500000000767
 30
0.0
  0
INSERT
  5
242
  8
DAMAN
  6
CENTER
 62
     5
  2
100CROSS
 10
14.56299999999999
 20
5.3434999999999953
 30
0.0
 41
0.2459999999999999
 42
0.2459999999999999
  0
CIRCLE
  5
243
  8
DAMAN
 10
14.563000000000001
 20
5.3434999999999997
 30
0.0
 40
0.094
  0
CIRCLE
  5
244
  8
DAMAN
 10
15.280999999999951
 20
-1.0625000000000391
 30
0.0
 40
0.21875
  0
INSERT
  5
245
  8
DAMAN
  2
16SAET
 10
15.280999999999951
 20
-1.0625000000000391
 30
0.0
  0
INSERT
  5
246
  8
DAMAN
  2
16SAET
 10
15.280999999999951
 20
-3.9380000000000388
 30
0.0
  0
TEXT
  5
247
  8
DAMAN
 10
16.3125
 20
-3.46875
 30
0.0
 40
0.2
  1
A
  0
TEXT
  5
248
  8
DAMAN
 10
16.25
 20
-0.5
 30
0.0
 40
0.2
  1
B
  0
INSERT
  5
249
  8
DAMAN
  2
D05
 10
17.718500000000091
 20
4.9057500000000767
 30
0.0
  0
INSERT
  5
24A
  8
DAMAN
  2
16SAET
 10
18.530999999999949
 20
-3.9380000000000388
 30
0.0
  0
TEXT
  5
24B
  8
DAMAN
 10
19.5625
 20
-3.46875
 30
0.0
 40
0.2
  1
A
  0
TEXT
  5
24C
  8
DAMAN
 10
19.5
 20
-0.5
 30
0.0
 40
0.2
  1
B
  0
INSERT
  5
24D
  8
DAMAN
  2
16SAET
 10
18.530999999999949
 20
-1.0625000000000391
 30
0.0
  0
CIRCLE
  5
24E
  8
DAMAN
 10
18.530999999999949
 20
-1.0625000000000391
 30
0.0
 40
0.21875
  0
INSERT
  5
24F
  8
DAMAN
  6
CENTER
 62
     5
  2
100CROSS
 10
17.812999999999992
 20
5.3434999999999953
 30
0.0
 41
0.2459999999999999
 42
0.2459999999999999
  0
CIRCLE
  5
250
  8
DAMAN
 10
17.812999999999999
 20
5.3434999999999997
 30
0.0
 40
0.094
  0
INSERT
  5
251
  8
DAMAN
  2
D05
 10
20.968500000000098
 20
4.9057500000000767
 30
0.0
  0
INSERT
  5
252
  8
DAMAN
  2
16SAET
 10
21.78099999999996
 20
-3.9380000000000388
 30
0.0
  0
TEXT
  5
253
  8
DAMAN
 10
22.8125
 20
-3.46875
 30
0.0
 40
0.2
  1
A
  0
INSERT
  5
254
  8
DAMAN
  2
16SAET
 10
21.78099999999996
 20
-1.0625000000000391
 30
0.0
  0
CIRCLE
  5
255
  8
DAMAN
 10
21.78099999999996
 20
-1.0625000000000391
 30
0.0
 40
0.21875
  0
TEXT
  5
256
  8
DAMAN
 10
22.749999999999989
 20
-0.5
 30
0.0
 40
0.2
  1
B
  0
INSERT
  5
257
  8
DAMAN
  6
CENTER
 62
     5
  2
100CROSS
 10
21.062999999999992
 20
5.3434999999999953
 30
0.0
 41
0.2459999999999999
 42
0.2459999999999999
  0
CIRCLE
  5
258
  8
DAMAN
 10
21.062999999999999
 20
5.3434999999999997
 30
0.0
 40
0.094
  0
INSERT
  5
259
  8
DAMAN
  2
D05
 10
24.218500000000091
 20
4.9057500000000767
 30
0.0
  0
INSERT
  5
25A
  8
DAMAN
  2
16SAET
 10
25.03099999999996
 20
-3.9380000000000388
 30
0.0
  0
TEXT
  5
25B
  8
DAMAN
 10
26.0625
 20
-3.46875
 30
0.0
 40
0.2
  1
A
  0
CIRCLE
  5
25C
  8
DAMAN
 10
25.03099999999996
 20
-1.0625000000000391
 30
0.0
 40
0.21875
  0
INSERT
  5
25D
  8
DAMAN
  2
16SAET
 10
25.03099999999996
 20
-1.0625000000000391
 30
0.0
  0
TEXT
  5
25E
  8
DAMAN
 10
26.0
 20
-0.5
 30
0.0
 40
0.2
  1
B
  0
INSERT
  5
25F
  8
DAMAN
  6
CENTER
 62
     5
  2
100CROSS
 10
24.312999999999992
 20
5.3434999999999953
 30
0.0
 41
0.2459999999999999
 42
0.2459999999999999
  0
CIRCLE
  5
260
  8
DAMAN
 10
24.312999999999999
 20
5.3434999999999997
 30
0.0
 40
0.094
  0
ENDSEC
  0
EOF
