  0
SECTION
  2
HEADER
  9
$ACADVER
  1
AC1009
  9
$INSBASE
 10
0.0
 20
0.0
 30
0.0
  9
$EXTMIN
 10
-2.563
 20
-6.562
 30
0.0
  9
$EXTMAX
 10
26.813
 20
13.562
 30
0.0
  9
$LIMMIN
 10
0.0
 20
0.0
  9
$LIMMAX
 10
12.0
 20
9.0
  9
$ORTHOMODE
 70
     0
  9
$REGENMODE
 70
     1
  9
$FILLMODE
 70
     1
  9
$QTEXTMODE
 70
     0
  9
$MIRRTEXT
 70
     1
  9
$DRAGMODE
 70
     2
  9
$LTSCALE
 40
1.0
  9
$OSMODE
 70
     0
  9
$ATTMODE
 70
     1
  9
$TEXTSIZE
 40
0.2
  9
$TRACEWID
 40
0.05
  9
$TEXTSTYLE
  7
STANDARD
  9
$CLAYER
  8
DAMAN
  9
$CELTYPE
  6
BYLAYER
  9
$CECOLOR
 62
   256
  9
$DIMSCALE
 40
1.0
  9
$DIMASZ
 40
0.18
  9
$DIMEXO
 40
0.0625
  9
$DIMDLI
 40
0.38
  9
$DIMRND
 40
0.0
  9
$DIMDLE
 40
0.0
  9
$DIMEXE
 40
0.18
  9
$DIMTP
 40
0.0
  9
$DIMTM
 40
0.0
  9
$DIMTXT
 40
0.18
  9
$DIMCEN
 40
0.09
  9
$DIMTSZ
 40
0.0
  9
$DIMTOL
 70
     0
  9
$DIMLIM
 70
     0
  9
$DIMTIH
 70
     1
  9
$DIMTOH
 70
     1
  9
$DIMSE1
 70
     0
  9
$DIMSE2
 70
     0
  9
$DIMTAD
 70
     0
  9
$DIMZIN
 70
     0
  9
$DIMBLK
  1

  9
$DIMASO
 70
     1
  9
$DIMSHO
 70
     1
  9
$DIMPOST
  1

  9
$DIMAPOST
  1

  9
$DIMALT
 70
     0
  9
$DIMALTD
 70
     2
  9
$DIMALTF
 40
25.4
  9
$DIMLFAC
 40
1.0
  9
$DIMTOFL
 70
     0
  9
$DIMTVP
 40
0.0
  9
$DIMTIX
 70
     0
  9
$DIMSOXD
 70
     0
  9
$DIMSAH
 70
     0
  9
$DIMBLK1
  1

  9
$DIMBLK2
  1

  9
$DIMSTYLE
  2
*UNNAMED
  9
$DIMCLRD
 70
     0
  9
$DIMCLRE
 70
     0
  9
$DIMCLRT
 70
     0
  9
$DIMTFAC
 40
1.0
  9
$DIMGAP
 40
0.09
  9
$LUNITS
 70
     2
  9
$LUPREC
 70
     4
  9
$SKETCHINC
 40
0.1
  9
$FILLETRAD
 40
0.0
  9
$AUNITS
 70
     0
  9
$AUPREC
 70
     0
  9
$MENU
  1
tom
  9
$ELEVATION
 40
0.0
  9
$PELEVATION
 40
0.0
  9
$THICKNESS
 40
0.0
  9
$LIMCHECK
 70
     0
  9
$BLIPMODE
 70
     1
  9
$CHAMFERA
 40
0.0
  9
$CHAMFERB
 40
0.0
  9
$SKPOLY
 70
     0
  9
$TDCREATE
 40
2449799.281504212
  9
$TDUPDATE
 40
2449825.379851620
  9
$TDINDWG
 40
0.0011974537
  9
$TDUSRTIMER
 40
0.0011974537
  9
$USRTIMER
 70
     1
  9
$ANGBASE
 50
0.0
  9
$ANGDIR
 70
     0
  9
$PDMODE
 70
     0
  9
$PDSIZE
 40
0.0
  9
$PLINEWID
 40
0.0
  9
$COORDS
 70
     0
  9
$SPLFRAME
 70
     0
  9
$SPLINETYPE
 70
     6
  9
$SPLINESEGS
 70
     8
  9
$ATTDIA
 70
     0
  9
$ATTREQ
 70
     1
  9
$HANDLING
 70
     1
  9
$HANDSEED
  5
2EB
  9
$SURFTAB1
 70
     6
  9
$SURFTAB2
 70
     6
  9
$SURFTYPE
 70
     6
  9
$SURFU
 70
     6
  9
$SURFV
 70
     6
  9
$UCSNAME
  2

  9
$UCSORG
 10
0.0
 20
0.0
 30
0.0
  9
$UCSXDIR
 10
1.0
 20
0.0
 30
0.0
  9
$UCSYDIR
 10
0.0
 20
1.0
 30
0.0
  9
$PUCSNAME
  2

  9
$PUCSORG
 10
0.0
 20
0.0
 30
0.0
  9
$PUCSXDIR
 10
1.0
 20
0.0
 30
0.0
  9
$PUCSYDIR
 10
0.0
 20
1.0
 30
0.0
  9
$USERI1
 70
     0
  9
$USERI2
 70
     0
  9
$USERI3
 70
     0
  9
$USERI4
 70
     0
  9
$USERI5
 70
     0
  9
$USERR1
 40
0.0
  9
$USERR2
 40
0.0
  9
$USERR3
 40
0.0
  9
$USERR4
 40
0.0
  9
$USERR5
 40
0.0
  9
$WORLDVIEW
 70
     1
  9
$SHADEDGE
 70
     3
  9
$SHADEDIF
 70
    70
  9
$TILEMODE
 70
     1
  9
$MAXACTVP
 70
    16
  9
$PINSBASE
 10
0.0
 20
0.0
 30
0.0
  9
$PLIMCHECK
 70
     0
  9
$PEXTMIN
 10
1.000000E+20
 20
1.000000E+20
 30
1.000000E+20
  9
$PEXTMAX
 10
-1.000000E+20
 20
-1.000000E+20
 30
-1.000000E+20
  9
$PLIMMIN
 10
0.0
 20
0.0
  9
$PLIMMAX
 10
12.0
 20
9.0
  9
$UNITMODE
 70
     0
  9
$VISRETAIN
 70
     0
  9
$PLINEGEN
 70
     0
  9
$PSLTSCALE
 70
     1
  9
$TREEDEPTH
 70
  3020
  9
$DWGCODEPAGE
  3
ascii
  0
ENDSEC
  0
SECTION
  2
TABLES
  0
TABLE
  2
VPORT
 70
     2
  0
VPORT
  2
*ACTIVE
 70
     0
 10
0.0
 20
0.0
 11
1.0
 21
1.0
 12
12.125
 22
4.193225
 13
0.0
 23
0.0
 14
0.03125
 24
0.03125
 15
0.0
 25
0.0
 16
0.0
 26
0.0
 36
1.0
 17
0.0
 27
0.0
 37
0.0
 40
21.510449
 41
1.365662
 42
50.0
 43
0.0
 44
0.0
 50
0.0
 51
0.0
 71
     0
 72
   100
 73
     1
 74
     1
 75
     1
 76
     0
 77
     0
 78
     0
  0
ENDTAB
  0
TABLE
  2
LTYPE
 70
     4
  0
LTYPE
  2
CONTINUOUS
 70
    64
  3
Solid line
 72
    65
 73
     0
 40
0.0
  0
LTYPE
  2
HIDDEN
 70
    64
  3
_ _ _ _ _ _ _ _ _ _ _ _ _ _ _ _ _ _ _ _ _ _ _
 72
    65
 73
     2
 40
0.375
 49
0.25
 49
-0.125
  0
LTYPE
  2
CENTER
 70
    64
  3
____ _ ____ _ ____ _ ____ _ ____ _ ____ _ ____
 72
    65
 73
     4
 40
2.0
 49
1.25
 49
-0.25
 49
0.25
 49
-0.25
  0
LTYPE
  2
PHANTOM
 70
    64
  3
_____ _ _ _____ _ _ _____ _ _ _____ _ _ ____
 72
    65
 73
     6
 40
2.5
 49
1.25
 49
-0.25
 49
0.25
 49
-0.25
 49
0.25
 49
-0.25
  0
ENDTAB
  0
TABLE
  2
LAYER
 70
    10
  0
LAYER
  2
0
 70
    64
 62
     7
  6
CONTINUOUS
  0
LAYER
  2
DAMAN
 70
    64
 62
     5
  6
CONTINUOUS
  0
LAYER
  2
UTILITY
 70
     0
 62
    -7
  6
CONTINUOUS
  0
LAYER
  2
DIM
 70
     0
 62
     5
  6
CONTINUOUS
  0
LAYER
  2
CDIM
 70
     0
 62
     2
  6
CONTINUOUS
  0
LAYER
  2
CHIDDEN
 70
    64
 62
     3
  6
HIDDEN
  0
LAYER
  2
CSOLID
 70
    64
 62
     3
  6
CONTINUOUS
  0
LAYER
  2
CCENTER
 70
    64
 62
     4
  6
CENTER
  0
LAYER
  2
PHANTOM
 70
    64
 62
     1
  6
PHANTOM
  0
LAYER
  2
BORDER
 70
     0
 62
     7
  6
CONTINUOUS
  0
ENDTAB
  0
TABLE
  2
STYLE
 70
     2
  0
STYLE
  2
STANDARD
 70
    64
 40
0.0
 41
1.0
 50
0.0
 71
     0
 42
0.2
  3
txt
  4

  0
STYLE
  2
STR
 70
     0
 40
0.0
 41
1.0
 50
0.0
 71
     0
 42
0.09375
  3
SIMPLEX
  4

  0
ENDTAB
  0
TABLE
  2
VIEW
 70
     0
  0
ENDTAB
  0
TABLE
  2
UCS
 70
     0
  0
ENDTAB
  0
TABLE
  2
APPID
 70
     1
  0
APPID
  2
ACAD
 70
    64
  0
ENDTAB
  0
TABLE
  2
DIMSTYLE
 70
     0
  0
ENDTAB
  0
ENDSEC
  0
SECTION
  2
BLOCKS
  0
BLOCK
  8
0
  5
35
  2
500MKT
 70
    64
 10
0.0
 20
0.0
 30
0.0
  3
500MKT
  0
INSERT
  8
DAMAN
  5
36
  2
100CROSS
 10
-0.937
 20
-0.437
 30
0.0
 41
0.422
 42
0.422
 43
0.0
  0
LINE
  8
DAMAN
  5
37
 10
-0.21825
 20
-0.03125
 30
0.0
 11
-0.21825
 21
-0.84325
 31
0.0
  0
LINE
  8
DAMAN
  5
38
 10
-0.156
 20
-5.0
 30
0.0
 11
-0.156
 21
0.0
 31
0.0
  0
LINE
  8
DAMAN
  5
39
 10
0.0
 20
-5.0
 30
0.0
 11
0.0
 21
0.0
 31
0.0
  0
LINE
  8
DAMAN
  5
3A
 10
-0.21825
 20
-0.84325
 30
0.0
 11
-0.15575
 21
-0.84325
 31
0.0
  0
LINE
  8
DAMAN
  5
3B
 10
-0.43725
 20
-0.26425
 30
0.0
 11
-0.46825
 21
-0.26425
 31
0.0
  0
LINE
  8
DAMAN
  5
3C
 10
-0.46825
 20
-0.12425
 30
0.0
 11
-0.21825
 21
-0.12425
 31
0.0
  0
LINE
  8
DAMAN
  6
CENTER
  5
3D
 10
-0.75
 20
-0.437
 30
0.0
 11
1.0
 21
-0.437
 31
0.0
  0
LINE
  8
DAMAN
  5
3E
 10
-0.43725
 20
-0.60925
 30
0.0
 11
-0.46825
 21
-0.60925
 31
0.0
  0
LINE
  8
DAMAN
  5
3F
 10
-0.21825
 20
-0.74925
 30
0.0
 11
-0.46825
 21
-0.74925
 31
0.0
  0
LINE
  8
DAMAN
  5
40
 10
0.0
 20
0.0
 30
0.0
 11
-1.375
 21
0.0
 31
0.0
  0
POLYLINE
  8
DAMAN
  5
41
 66
     1
 10
0.0
 20
0.0
 30
0.0
 70
     1
  0
VERTEX
  8
DAMAN
  5
42
 10
-1.2072
 20
-0.593
 30
0.0
  0
VERTEX
  8
DAMAN
  5
43
 10
-0.937
 20
-0.749
 30
0.0
  0
VERTEX
  8
DAMAN
  5
44
 10
-0.6668
 20
-0.593
 30
0.0
  0
VERTEX
  8
DAMAN
  5
45
 10
-0.6668
 20
-0.281
 30
0.0
  0
VERTEX
  8
DAMAN
  5
46
 10
-0.937
 20
-0.125
 30
0.0
  0
VERTEX
  8
DAMAN
  5
47
 10
-1.2072
 20
-0.281
 30
0.0
  0
SEQEND
  8
DAMAN
  5
48
  0
CIRCLE
  8
DAMAN
  5
49
 10
-0.937
 20
-0.437
 30
0.0
 40
0.265
  0
LINE
  8
DAMAN
  5
4A
 10
-0.46825
 20
-0.74925
 30
0.0
 11
-0.46825
 21
-0.12425
 31
0.0
  0
POINT
  8
CHIDDEN
  5
4B
 10
-0.734293
 20
-0.495572
 30
0.0
  0
LINE
  8
DAMAN
  5
4C
 10
0.0
 20
-0.28025
 30
0.0
 11
0.844
 21
-0.28025
 31
0.0
  0
LINE
  8
DAMAN
  5
4D
 10
0.812
 20
-0.24925
 30
0.0
 11
0.0
 21
-0.24925
 31
0.0
  0
LINE
  8
DAMAN
  5
4E
 10
0.0
 20
-0.59325
 30
0.0
 11
0.844
 21
-0.59325
 31
0.0
  0
LINE
  8
DAMAN
  5
4F
 10
0.0
 20
-0.62425
 30
0.0
 11
0.812
 21
-0.62425
 31
0.0
  0
LINE
  8
DAMAN
  5
50
 10
-0.21825
 20
-0.60925
 30
0.0
 11
-0.43725
 21
-0.60925
 31
0.0
  0
LINE
  8
DAMAN
  5
51
 10
-0.15625
 20
-0.03125
 30
0.0
 11
-0.21825
 21
-0.03125
 31
0.0
  0
LINE
  8
DAMAN
  5
52
 10
-0.21825
 20
-0.26425
 30
0.0
 11
-0.43725
 21
-0.26425
 31
0.0
  0
LINE
  8
DAMAN
  5
53
 10
0.875
 20
-0.56175
 30
0.0
 11
0.875
 21
-0.31225
 31
0.0
  0
LINE
  8
DAMAN
  5
54
 10
0.812
 20
-0.62425
 30
0.0
 11
0.875
 21
-0.56175
 31
0.0
  0
LINE
  8
DAMAN
  5
55
 10
0.875
 20
-0.31225
 30
0.0
 11
0.812
 21
-0.24925
 31
0.0
  0
LINE
  8
DAMAN
  5
56
 10
-0.46825
 20
-4.24925
 30
0.0
 11
-0.21825
 21
-4.24925
 31
0.0
  0
LINE
  8
DAMAN
  5
57
 10
-0.43725
 20
-4.38925
 30
0.0
 11
-0.46825
 21
-4.38925
 31
0.0
  0
LINE
  8
DAMAN
  6
CENTER
  5
58
 10
-0.75
 20
-4.562
 30
0.0
 11
1.0
 21
-4.562
 31
0.0
  0
LINE
  8
DAMAN
  5
59
 10
-0.46825
 20
-4.87425
 30
0.0
 11
-0.46825
 21
-4.24925
 31
0.0
  0
INSERT
  8
DAMAN
  5
5A
  2
100CROSS
 10
-0.937
 20
-4.562
 30
0.0
 41
0.422
 42
0.422
 43
0.0
  0
POLYLINE
  8
DAMAN
  5
5B
 66
     1
 10
0.0
 20
0.0
 30
0.0
 70
     1
  0
VERTEX
  8
DAMAN
  5
5C
 10
-1.2072
 20
-4.718
 30
0.0
  0
VERTEX
  8
DAMAN
  5
5D
 10
-0.937
 20
-4.874
 30
0.0
  0
VERTEX
  8
DAMAN
  5
5E
 10
-0.6668
 20
-4.718
 30
0.0
  0
VERTEX
  8
DAMAN
  5
5F
 10
-0.6668
 20
-4.406
 30
0.0
  0
VERTEX
  8
DAMAN
  5
60
 10
-0.937
 20
-4.25
 30
0.0
  0
VERTEX
  8
DAMAN
  5
61
 10
-1.2072
 20
-4.406
 30
0.0
  0
SEQEND
  8
DAMAN
  5
62
  0
CIRCLE
  8
DAMAN
  5
63
 10
-0.937
 20
-4.562
 30
0.0
 40
0.265
  0
POINT
  8
CHIDDEN
  5
64
 10
-0.734293
 20
-4.620572
 30
0.0
  0
LINE
  8
DAMAN
  5
65
 10
-0.21825
 20
-4.15625
 30
0.0
 11
-0.21825
 21
-4.96825
 31
0.0
  0
LINE
  8
DAMAN
  5
66
 10
0.812
 20
-4.37425
 30
0.0
 11
0.0
 21
-4.37425
 31
0.0
  0
LINE
  8
DAMAN
  5
67
 10
0.0
 20
-4.40525
 30
0.0
 11
0.844
 21
-4.40525
 31
0.0
  0
LINE
  8
DAMAN
  5
68
 10
-0.21825
 20
-4.38925
 30
0.0
 11
-0.43725
 21
-4.38925
 31
0.0
  0
LINE
  8
DAMAN
  5
69
 10
0.875
 20
-4.68675
 30
0.0
 11
0.875
 21
-4.43725
 31
0.0
  0
LINE
  8
DAMAN
  5
6A
 10
0.875
 20
-4.43725
 30
0.0
 11
0.812
 21
-4.37425
 31
0.0
  0
LINE
  8
DAMAN
  5
6B
 10
-0.15625
 20
-4.15625
 30
0.0
 11
-0.21825
 21
-4.15625
 31
0.0
  0
LINE
  8
DAMAN
  5
6C
 10
-0.43725
 20
-4.73425
 30
0.0
 11
-0.46825
 21
-4.73425
 31
0.0
  0
LINE
  8
DAMAN
  5
6D
 10
0.0
 20
-4.74925
 30
0.0
 11
0.812
 21
-4.74925
 31
0.0
  0
LINE
  8
DAMAN
  5
6E
 10
0.0
 20
-4.71825
 30
0.0
 11
0.844
 21
-4.71825
 31
0.0
  0
LINE
  8
DAMAN
  5
6F
 10
-0.21825
 20
-4.73425
 30
0.0
 11
-0.43725
 21
-4.73425
 31
0.0
  0
LINE
  8
DAMAN
  5
70
 10
0.812
 20
-4.74925
 30
0.0
 11
0.875
 21
-4.68675
 31
0.0
  0
LINE
  8
DAMAN
  5
71
 10
-0.21825
 20
-4.87425
 30
0.0
 11
-0.46825
 21
-4.87425
 31
0.0
  0
LINE
  8
DAMAN
  5
72
 10
-1.375
 20
-5.0
 30
0.0
 11
0.0
 21
-5.0
 31
0.0
  0
LINE
  8
DAMAN
  5
73
 10
-0.21825
 20
-4.96825
 30
0.0
 11
-0.15575
 21
-4.96825
 31
0.0
  0
LINE
  8
DAMAN
  5
74
 10
-1.375
 20
0.0
 30
0.0
 11
-1.375
 21
-5.0
 31
0.0
  0
ENDBLK
  8
0
  5
75
  0
BLOCK
  8
0
  5
76
  2
100CROSS
 70
    64
 10
5.625
 20
4.59375
 30
0.0
  3
100CROSS
  0
INSERT
  8
0
  5
77
  2
050CROSS
 10
5.625
 20
4.59375
 30
0.0
 43
0.0
  0
ENDBLK
  8
0
  5
78
  0
BLOCK
  8
0
  5
79
  2
050CROSS
 70
    64
 10
5.0
 20
5.0
 30
0.0
  3
050CROSS
  0
LINE
  8
0
  5
7A
 10
5.0
 20
5.28125
 30
0.0
 11
5.0
 21
5.78125
 31
0.0
  0
LINE
  8
0
  5
7B
 10
5.0
 20
4.875
 30
0.0
 11
5.0
 21
5.125
 31
0.0
  0
LINE
  8
0
  5
7C
 10
5.0
 20
4.15625
 30
0.0
 11
5.0
 21
4.71875
 31
0.0
  0
LINE
  8
0
  5
7D
 10
5.25
 20
5.0
 30
0.0
 11
5.8125
 21
5.0
 31
0.0
  0
LINE
  8
0
  5
7E
 10
4.90625
 20
5.0
 30
0.0
 11
5.09375
 21
5.0
 31
0.0
  0
LINE
  8
0
  5
7F
 10
4.1875
 20
5.0
 30
0.0
 11
4.75
 21
5.0
 31
0.0
  0
ENDBLK
  8
0
  5
80
  0
BLOCK
  8
0
  5
81
  2
500MKCT
 70
    64
 10
0.0
 20
0.0
 30
0.0
  3
500MKCT
  0
INSERT
  8
DAMAN
  5
82
  2
100CROSS
 10
-0.937
 20
-0.437
 30
0.0
 41
0.422
 42
0.422
 43
0.0
  0
LINE
  8
DAMAN
  5
83
 10
-0.21825
 20
-0.03125
 30
0.0
 11
-0.21825
 21
-0.84325
 31
0.0
  0
LINE
  8
DAMAN
  5
84
 10
-0.156
 20
-5.0
 30
0.0
 11
-0.156
 21
0.0
 31
0.0
  0
LINE
  8
DAMAN
  5
85
 10
-1.375
 20
0.0
 30
0.0
 11
-1.375
 21
-5.0
 31
0.0
  0
LINE
  8
DAMAN
  5
86
 10
0.0
 20
-5.0
 30
0.0
 11
0.0
 21
0.0
 31
0.0
  0
LINE
  8
DAMAN
  5
87
 10
-0.21825
 20
-4.87425
 30
0.0
 11
-0.46825
 21
-4.87425
 31
0.0
  0
LINE
  8
DAMAN
  5
88
 10
-0.43725
 20
-4.73425
 30
0.0
 11
-0.46825
 21
-4.73425
 31
0.0
  0
LINE
  8
DAMAN
  5
89
 10
-0.46825
 20
-4.24925
 30
0.0
 11
-0.21825
 21
-4.24925
 31
0.0
  0
LINE
  8
DAMAN
  5
8A
 10
-0.43725
 20
-4.38925
 30
0.0
 11
-0.46825
 21
-4.38925
 31
0.0
  0
LINE
  8
DAMAN
  5
8B
 10
-1.375
 20
-5.0
 30
0.0
 11
0.0
 21
-5.0
 31
0.0
  0
LINE
  8
DAMAN
  5
8C
 10
-0.46825
 20
-4.87425
 30
0.0
 11
-0.46825
 21
-4.24925
 31
0.0
  0
INSERT
  8
DAMAN
  5
8D
  2
100CROSS
 10
-0.937
 20
-4.562
 30
0.0
 41
0.422
 42
0.422
 43
0.0
  0
POLYLINE
  8
DAMAN
  5
8E
 66
     1
 10
0.0
 20
0.0
 30
0.0
 70
     1
  0
VERTEX
  8
DAMAN
  5
8F
 10
-1.2072
 20
-4.718
 30
0.0
  0
VERTEX
  8
DAMAN
  5
90
 10
-0.937
 20
-4.874
 30
0.0
  0
VERTEX
  8
DAMAN
  5
91
 10
-0.6668
 20
-4.718
 30
0.0
  0
VERTEX
  8
DAMAN
  5
92
 10
-0.6668
 20
-4.406
 30
0.0
  0
VERTEX
  8
DAMAN
  5
93
 10
-0.937
 20
-4.25
 30
0.0
  0
VERTEX
  8
DAMAN
  5
94
 10
-1.2072
 20
-4.406
 30
0.0
  0
SEQEND
  8
DAMAN
  5
95
  0
CIRCLE
  8
DAMAN
  5
96
 10
-0.937
 20
-4.562
 30
0.0
 40
0.265
  0
POINT
  8
CHIDDEN
  5
97
 10
-1.074717
 20
-4.72186
 30
0.0
  0
POINT
  8
CHIDDEN
  5
98
 10
-1.024928
 20
-4.370194
 30
0.0
  0
POINT
  8
CHIDDEN
  5
99
 10
-0.734293
 20
-4.620572
 30
0.0
  0
LINE
  8
DAMAN
  5
9A
 10
-0.21825
 20
-4.15625
 30
0.0
 11
-0.21825
 21
-4.96825
 31
0.0
  0
LINE
  8
DAMAN
  5
9B
 10
-0.21825
 20
-4.96825
 30
0.0
 11
-0.15575
 21
-4.96825
 31
0.0
  0
LINE
  8
DAMAN
  5
9C
 10
-0.21825
 20
-4.73425
 30
0.0
 11
-0.43725
 21
-4.73425
 31
0.0
  0
LINE
  8
DAMAN
  5
9D
 10
-0.21825
 20
-4.38925
 30
0.0
 11
-0.43725
 21
-4.38925
 31
0.0
  0
LINE
  8
DAMAN
  5
9E
 10
-0.15625
 20
-4.15625
 30
0.0
 11
-0.21825
 21
-4.15625
 31
0.0
  0
LINE
  8
DAMAN
  5
9F
 10
-0.21825
 20
-0.84325
 30
0.0
 11
-0.15575
 21
-0.84325
 31
0.0
  0
LINE
  8
DAMAN
  5
A0
 10
-0.43725
 20
-0.26425
 30
0.0
 11
-0.46825
 21
-0.26425
 31
0.0
  0
LINE
  8
DAMAN
  5
A1
 10
-0.46825
 20
-0.12425
 30
0.0
 11
-0.21825
 21
-0.12425
 31
0.0
  0
LINE
  8
DAMAN
  5
A2
 10
-0.43725
 20
-0.60925
 30
0.0
 11
-0.46825
 21
-0.60925
 31
0.0
  0
LINE
  8
DAMAN
  5
A3
 10
-0.21825
 20
-0.74925
 30
0.0
 11
-0.46825
 21
-0.74925
 31
0.0
  0
LINE
  8
DAMAN
  5
A4
 10
0.0
 20
0.0
 30
0.0
 11
-1.375
 21
0.0
 31
0.0
  0
POLYLINE
  8
DAMAN
  5
A5
 66
     1
 10
0.0
 20
0.0
 30
0.0
 70
     1
  0
VERTEX
  8
DAMAN
  5
A6
 10
-1.2072
 20
-0.593
 30
0.0
  0
VERTEX
  8
DAMAN
  5
A7
 10
-0.937
 20
-0.749
 30
0.0
  0
VERTEX
  8
DAMAN
  5
A8
 10
-0.6668
 20
-0.593
 30
0.0
  0
VERTEX
  8
DAMAN
  5
A9
 10
-0.6668
 20
-0.281
 30
0.0
  0
VERTEX
  8
DAMAN
  5
AA
 10
-0.937
 20
-0.125
 30
0.0
  0
VERTEX
  8
DAMAN
  5
AB
 10
-1.2072
 20
-0.281
 30
0.0
  0
SEQEND
  8
DAMAN
  5
AC
  0
CIRCLE
  8
DAMAN
  5
AD
 10
-0.937
 20
-0.437
 30
0.0
 40
0.265
  0
POINT
  8
CHIDDEN
  5
AE
 10
-1.074717
 20
-0.59686
 30
0.0
  0
POINT
  8
CHIDDEN
  5
AF
 10
-1.024928
 20
-0.245194
 30
0.0
  0
LINE
  8
DAMAN
  5
B0
 10
-0.46825
 20
-0.74925
 30
0.0
 11
-0.46825
 21
-0.12425
 31
0.0
  0
POINT
  8
CHIDDEN
  5
B1
 10
-0.734293
 20
-0.495572
 30
0.0
  0
LINE
  8
DAMAN
  5
B2
 10
-0.21825
 20
-0.60925
 30
0.0
 11
-0.43725
 21
-0.60925
 31
0.0
  0
LINE
  8
DAMAN
  5
B3
 10
-0.15625
 20
-0.03125
 30
0.0
 11
-0.21825
 21
-0.03125
 31
0.0
  0
LINE
  8
DAMAN
  5
B4
 10
-0.21825
 20
-0.26425
 30
0.0
 11
-0.43725
 21
-0.26425
 31
0.0
  0
ENDBLK
  8
0
  5
B5
  0
BLOCK
  8
0
  5
B6
  2
500MKS
 70
    64
 10
0.0
 20
0.0
 30
0.0
  3
500MKS
  0
LINE
  8
DAMAN
  5
B7
 10
-0.313
 20
-0.71875
 30
0.0
 11
-1.125
 21
-0.71875
 31
0.0
  0
LINE
  8
DAMAN
  5
B8
 10
-1.031
 20
-0.46875
 30
0.0
 11
-0.406
 21
-0.46875
 31
0.0
  0
LINE
  8
DAMAN
  5
B9
 10
-0.18775
 20
-0.781
 30
0.0
 11
-1.15675
 21
-0.781
 31
0.0
  0
LINE
  8
DAMAN
  5
BA
 10
-1.15675
 20
-0.937
 30
0.0
 11
-0.18775
 21
-0.937
 31
0.0
  0
LINE
  8
DAMAN
  6
CENTER
  5
BB
 10
-0.71875
 20
-0.187
 30
0.0
 11
-0.71875
 21
-1.937
 31
0.0
  0
LINE
  8
DAMAN
  5
BC
 10
-0.875
 20
-0.937
 30
0.0
 11
-0.875
 21
-1.781
 31
0.0
  0
LINE
  8
DAMAN
  5
BD
 10
-0.562
 20
-0.937
 30
0.0
 11
-0.562
 21
-1.781
 31
0.0
  0
LINE
  8
DAMAN
  5
BE
 10
-0.531
 20
-1.749
 30
0.0
 11
-0.531
 21
-0.937
 31
0.0
  0
LINE
  8
DAMAN
  5
BF
 10
-0.906
 20
-0.937
 30
0.0
 11
-0.906
 21
-1.749
 31
0.0
  0
LINE
  8
DAMAN
  5
C0
 10
-0.906
 20
-1.749
 30
0.0
 11
-0.8435
 21
-1.812
 31
0.0
  0
LINE
  8
DAMAN
  5
C1
 10
-0.594
 20
-1.812
 30
0.0
 11
-0.531
 21
-1.749
 31
0.0
  0
LINE
  8
DAMAN
  5
C2
 10
-0.8435
 20
-1.812
 30
0.0
 11
-0.594
 21
-1.812
 31
0.0
  0
LINE
  8
DAMAN
  5
C3
 10
-1.15675
 20
-0.781
 30
0.0
 11
-1.15675
 21
-0.937
 31
0.0
  0
LINE
  8
DAMAN
  5
C4
 10
-1.031
 20
-0.71875
 30
0.0
 11
-1.031
 21
-0.46875
 31
0.0
  0
LINE
  8
DAMAN
  5
C5
 10
-0.891
 20
-0.71875
 30
0.0
 11
-0.891
 21
-0.49975
 31
0.0
  0
LINE
  8
DAMAN
  5
C6
 10
-1.125
 20
-0.71875
 30
0.0
 11
-1.125
 21
-0.78125
 31
0.0
  0
LINE
  8
DAMAN
  5
C7
 10
-0.891
 20
-0.49975
 30
0.0
 11
-0.891
 21
-0.46875
 31
0.0
  0
LINE
  8
DAMAN
  5
C8
 10
-0.546
 20
-0.71875
 30
0.0
 11
-0.546
 21
-0.49975
 31
0.0
  0
LINE
  8
DAMAN
  5
C9
 10
-0.546
 20
-0.49975
 30
0.0
 11
-0.546
 21
-0.46875
 31
0.0
  0
LINE
  8
DAMAN
  5
CA
 10
-0.25
 20
-0.312
 30
0.0
 11
-0.25
 21
0.313
 31
0.0
  0
LINE
  8
DAMAN
  5
CB
 10
0.0
 20
0.406
 30
0.0
 11
0.0
 21
-0.406
 31
0.0
  0
LINE
  8
DAMAN
  5
CC
 10
0.0625
 20
-0.406
 30
0.0
 11
0.062
 21
0.406
 31
0.0
  0
LINE
  8
DAMAN
  5
CD
 10
0.06225
 20
0.438
 30
0.0
 11
0.06225
 21
-0.531
 31
0.0
  0
LINE
  8
DAMAN
  5
CE
 10
0.21825
 20
-0.531
 30
0.0
 11
0.21825
 21
0.438
 31
0.0
  0
ARC
  8
DAMAN
  5
CF
 10
-0.18775
 20
-0.531
 30
0.0
 40
0.406
 50
270.0
 51
0.0
  0
LINE
  8
DAMAN
  5
D0
 10
0.0
 20
-0.406
 30
0.0
 11
0.0625
 21
-0.406
 31
0.0
  0
ARC
  8
DAMAN
  5
D1
 10
-0.18775
 20
-0.531
 30
0.0
 40
0.25
 50
270.0
 51
0.0
  0
LINE
  8
DAMAN
  5
D2
 10
-0.406
 20
-0.46875
 30
0.0
 11
-0.406
 21
-0.71875
 31
0.0
  0
LINE
  8
DAMAN
  5
D3
 10
-0.313
 20
-0.78075
 30
0.0
 11
-0.313
 21
-0.71875
 31
0.0
  0
LINE
  8
DAMAN
  5
D4
 10
0.0
 20
-0.312
 30
0.0
 11
-0.25
 21
-0.312
 31
0.0
  0
LINE
  8
DAMAN
  5
D5
 10
-0.219
 20
-0.172
 30
0.0
 11
-0.25
 21
-0.172
 31
0.0
  0
LINE
  8
DAMAN
  5
D6
 10
0.0
 20
-0.172
 30
0.0
 11
-0.219
 21
-0.172
 31
0.0
  0
LINE
  8
DAMAN
  5
D7
 10
-0.219
 20
0.173
 30
0.0
 11
-0.25
 21
0.173
 31
0.0
  0
LINE
  8
DAMAN
  5
D8
 10
0.0
 20
0.173
 30
0.0
 11
-0.219
 21
0.173
 31
0.0
  0
LINE
  8
DAMAN
  5
D9
 10
0.062
 20
0.406
 30
0.0
 11
0.0
 21
0.406
 31
0.0
  0
LINE
  8
DAMAN
  5
DA
 10
-0.25
 20
0.313
 30
0.0
 11
0.0
 21
0.313
 31
0.0
  0
LINE
  8
DAMAN
  5
DB
 10
0.21825
 20
0.438
 30
0.0
 11
0.06225
 21
0.438
 31
0.0
  0
ENDBLK
  8
0
  5
DC
  0
BLOCK
  8
0
  5
DD
  2
D07
 70
     0
 10
0.0
 20
0.0
 30
0.0
  3
D07
  0
CIRCLE
  8
DAMAN
  5
DE
 10
0.0
 20
1.249
 30
0.0
 40
0.344
  0
CIRCLE
  8
DAMAN
  5
DF
 10
0.0
 20
0.0
 30
0.0
 40
0.344
  0
INSERT
  8
DAMAN
  5
E0
  2
100CROSS
 10
0.0
 20
1.249
 30
0.0
 41
0.5625
 42
0.5625
 43
0.0
  0
INSERT
  8
DAMAN
  5
E1
  2
100CROSS
 10
0.0
 20
0.0
 30
0.0
 41
0.5625
 42
0.5625
 43
0.0
  0
INSERT
  8
DAMAN
  5
E2
  2
100CROSS
 10
-2.2505
 20
-0.001
 30
0.0
 41
0.25
 42
0.25
 43
0.0
  0
CIRCLE
  8
DAMAN
  5
E3
 10
-2.188
 20
-2.032
 30
0.0
 40
0.1875
  0
CIRCLE
  8
DAMAN
  5
E4
 10
-2.188
 20
-2.032
 30
0.0
 40
0.15625
  0
INSERT
  8
DAMAN
  5
E5
  2
100CROSS
 10
-2.188
 20
-2.032
 30
0.0
 41
0.375
 42
0.375
 43
0.0
  0
CIRCLE
  8
DAMAN
  5
E6
 10
-2.251
 20
-0.00075
 30
0.0
 40
0.125
  0
CIRCLE
  8
DAMAN
  5
E7
 10
-2.2505
 20
-0.001
 30
0.0
 40
0.1055
  0
CIRCLE
  8
DAMAN
  5
E8
 10
-1.626
 20
-0.626
 30
0.0
 40
0.344
  0
INSERT
  8
DAMAN
  5
E9
  2
100CROSS
 10
-1.626
 20
-0.626
 30
0.0
 41
0.5625
 42
0.5625
 43
0.0
  0
CIRCLE
  8
DAMAN
  5
EA
 10
-1.688
 20
-1.5
 30
0.0
 40
0.125
  0
INSERT
  8
DAMAN
  5
EB
  2
100CROSS
 10
-1.688
 20
-1.5
 30
0.0
 41
0.375
 42
0.375
 43
0.0
  0
TEXT
  8
DAMAN
  5
EC
 10
-1.563
 20
-1.31325
 30
0.0
 40
0.12
  1
Y
  0
TEXT
  8
DAMAN
  5
ED
 10
-1.313
 20
-0.2195
 30
0.0
 40
0.12
  1
B
  0
CIRCLE
  8
DAMAN
  5
EE
 10
-2.188
 20
1.249
 30
0.0
 40
0.0845
  0
CIRCLE
  8
DAMAN
  5
EF
 10
-2.188
 20
1.968
 30
0.0
 40
0.1875
  0
CIRCLE
  8
DAMAN
  5
F0
 10
-2.188
 20
1.968
 30
0.0
 40
0.15625
  0
INSERT
  8
DAMAN
  5
F1
  2
100CROSS
 10
-2.188
 20
1.968
 30
0.0
 41
0.375
 42
0.375
 43
0.0
  0
INSERT
  8
DAMAN
  5
F2
  2
100CROSS
 10
-2.188
 20
1.249
 30
0.0
 41
0.25
 42
0.25
 43
0.0
  0
CIRCLE
  8
DAMAN
  5
F3
 10
-1.626
 20
0.624
 30
0.0
 40
0.344
  0
INSERT
  8
DAMAN
  5
F4
  2
100CROSS
 10
-1.626
 20
0.624
 30
0.0
 41
0.5625
 42
0.5625
 43
0.0
  0
TEXT
  8
DAMAN
  5
F5
 10
-1.34425
 20
1.0305
 30
0.0
 40
0.12
  1
A
  0
INSERT
  8
DAMAN
  5
F6
  2
100CROSS
 10
0.562
 20
-2.032
 30
0.0
 41
0.375
 42
0.375
 43
0.0
  0
CIRCLE
  8
DAMAN
  5
F7
 10
0.562
 20
-2.032
 30
0.0
 40
0.1875
  0
CIRCLE
  8
DAMAN
  5
F8
 10
0.562
 20
-2.032
 30
0.0
 40
0.15625
  0
INSERT
  8
DAMAN
  5
F9
  2
100CROSS
 10
0.562
 20
-1.047
 30
0.0
 41
0.25
 42
0.25
 43
0.0
  0
CIRCLE
  8
DAMAN
  5
FA
 10
0.562
 20
-1.047
 30
0.0
 40
0.0845
  0
INSERT
  8
DAMAN
  5
FB
  2
100CROSS
 10
0.562
 20
1.968
 30
0.0
 41
0.375
 42
0.375
 43
0.0
  0
INSERT
  8
DAMAN
  5
FC
  2
100CROSS
 10
0.6245
 20
0.624
 30
0.0
 41
0.25
 42
0.25
 43
0.0
  0
TEXT
  8
DAMAN
  5
FD
 10
0.21825
 20
0.468
 30
0.0
 40
0.12
  1
P
  0
CIRCLE
  8
DAMAN
  5
FE
 10
0.624
 20
0.62425
 30
0.0
 40
0.125
  0
CIRCLE
  8
DAMAN
  5
FF
 10
0.6245
 20
0.624
 30
0.0
 40
0.1055
  0
TEXT
  8
DAMAN
  5
100
 10
0.2495
 20
1.718
 30
0.0
 40
0.12
  1
T
  0
CIRCLE
  8
DAMAN
  5
101
 10
0.562
 20
1.968
 30
0.0
 40
0.1875
  0
CIRCLE
  8
DAMAN
  5
102
 10
0.562
 20
1.968
 30
0.0
 40
0.15625
  0
ENDBLK
  8
0
  5
103
  0
BLOCK
  8
0
  5
104
  2
038THDT
 70
     0
 10
0.0
 20
0.0
 30
0.0
  3
038THDT
  0
CIRCLE
  8
DAMAN
  5
105
 10
3.0
 20
6.375
 30
0.0
 40
0.1875
  0
CIRCLE
  8
DAMAN
  5
106
 10
3.0
 20
6.375
 30
0.0
 40
0.15625
  0
INSERT
  8
DAMAN
  5
107
  2
100CROSS
 10
3.0
 20
6.375
 30
0.0
 41
0.375
 42
0.375
 43
0.0
  0
INSERT
  8
DAMAN
  5
108
  2
100CROSS
 10
5.75
 20
6.375
 30
0.0
 41
0.375
 42
0.375
 43
0.0
  0
CIRCLE
  8
DAMAN
  5
109
 10
5.75
 20
6.375
 30
0.0
 40
0.1875
  0
CIRCLE
  8
DAMAN
  5
10A
 10
5.75
 20
6.375
 30
0.0
 40
0.15625
  0
ENDBLK
  8
0
  5
10B
  0
BLOCK
  8
0
  5
10C
  2
038TOP
 70
     0
 10
0.0
 20
0.0
 30
0.0
  3
038TOP
  0
CIRCLE
  8
CHIDDEN
  5
10D
 10
0.0
 20
0.0
 30
0.0
 40
0.1875
  0
CIRCLE
  8
CSOLID
  5
10E
 10
0.0
 20
0.0
 30
0.0
 40
0.15625
  0
INSERT
  8
CCENTER
  5
10F
  2
100CROSS
 10
0.0
 20
0.0
 30
0.0
 41
0.375
 42
0.375
 43
0.0
  0
ENDBLK
  8
0
  5
110
  0
BLOCK
  8
0
  5
111
  2
025TOP
 70
     0
 10
0.0
 20
0.0
 30
0.0
  3
025TOP
  0
CIRCLE
  8
CHIDDEN
  5
112
 10
-0.0005
 20
0.00025
 30
0.0
 40
0.125
  0
CIRCLE
  8
CSOLID
  5
113
 10
0.0
 20
0.0
 30
0.0
 40
0.1055
  0
INSERT
  8
CCENTER
  5
114
  2
100CROSS
 10
0.0
 20
0.0
 30
0.0
 41
0.25
 42
0.25
 43
0.0
  0
ENDBLK
  8
0
  5
115
  0
BLOCK
  8
0
  5
116
  2
075NPTFT
 70
     0
 10
0.0
 20
0.0
 30
0.0
  3
075NPTFT
  0
INSERT
  8
DAMAN
  5
117
  2
750NPTFT
 10
-6.410893
 20
-4.555543
 30
0.0
  0
ENDBLK
  8
0
  5
118
  0
BLOCK
  8
0
  5
119
  2
750NPTFT
 70
    64
 10
0.0
 20
0.0
 30
0.0
  3
750NPTFT
  0
INSERT
  8
DAMAN
 62
     5
  5
11A
  2
100CROSS
 10
6.410893
 20
4.555543
 30
0.0
 41
0.98
 42
0.98
 43
0.0
  0
CIRCLE
  8
DAMAN
 62
     5
  5
11B
 10
6.410893
 20
4.555543
 30
0.0
 40
0.491067
  0
CIRCLE
  8
DAMAN
 62
     5
  5
11C
 10
6.410893
 20
4.555543
 30
0.0
 40
0.453
  0
CIRCLE
  8
DAMAN
 62
     5
  5
11D
 10
6.410893
 20
4.555543
 30
0.0
 40
0.53125
  0
ENDBLK
  8
0
  5
11E
  0
BLOCK
  8
0
  5
11F
  2
100NPTFT
 70
    64
 10
0.0
 20
0.0
 30
0.0
  3
100NPTFT
  0
CIRCLE
  8
DAMAN
  5
120
 10
0.0
 20
0.0
 30
0.0
 40
0.5625
  0
CIRCLE
  8
DAMAN
  5
121
 10
0.0
 20
0.0
 30
0.0
 40
0.672
  0
INSERT
  8
DAMAN
  5
122
  2
100CROSS
 10
0.0
 20
0.0
 30
0.0
 41
1.2
 42
1.2
 43
0.0
  0
CIRCLE
  8
DAMAN
  5
123
 10
0.0
 20
0.0
 30
0.0
 40
0.625
  0
ENDBLK
  8
0
  5
124
  0
BLOCK
  8
0
  5
125
  2
038NPTFT
 70
    64
 10
0.0
 20
0.0
 30
0.0
  3
038NPTFT
  0
INSERT
  8
DAMAN
  5
126
  2
375NPTFT
 10
0.0
 20
0.0
 30
0.0
  0
ENDBLK
  8
0
  5
127
  0
BLOCK
  8
0
  5
128
  2
375NPTFT
 70
    64
 10
0.0
 20
0.0
 30
0.0
  3
375NPTFT
  0
INSERT
  8
DAMAN
  5
129
  2
100CROSS
 10
0.0
 20
0.0
 30
0.0
 41
0.68
 42
0.68
 43
0.0
  0
CIRCLE
  8
DAMAN
  5
12A
 10
0.0
 20
0.0
 30
0.0
 40
0.3125
  0
CIRCLE
  8
DAMAN
  5
12B
 10
0.0
 20
0.0
 30
0.0
 40
0.281
  0
CIRCLE
  8
DAMAN
  5
12C
 10
0.0
 20
0.0
 30
0.0
 40
0.344
  0
ENDBLK
  8
0
  5
12D
  0
BLOCK
  8
0
  5
12E
  2
025NPTFT
 70
    64
 10
0.0
 20
0.0
 30
0.0
  3
025NPTFT
  0
INSERT
  8
DAMAN
  5
12F
  2
250NPTFT
 10
0.0
 20
0.0
 30
0.0
  0
ENDBLK
  8
0
  5
130
  0
BLOCK
  8
0
  5
131
  2
250NPTFT
 70
    64
 10
0.0
 20
0.0
 30
0.0
  3
250NPTFT
  0
CIRCLE
  8
DAMAN
  5
132
 10
0.0
 20
0.0
 30
0.0
 40
0.273
  0
CIRCLE
  8
DAMAN
  5
133
 10
0.0
 20
0.0
 30
0.0
 40
0.211
  0
INSERT
  8
DAMAN
  5
134
  2
100CROSS
 10
0.0
 20
0.0
 30
0.0
 41
0.422
 42
0.422
 43
0.0
  0
CIRCLE
  8
DAMAN
  5
135
 10
0.0
 20
0.0
 30
0.0
 40
0.242251
  0
POINT
  8
CHIDDEN
  5
136
 10
-0.087928
 20
0.191806
 30
0.0
  0
POINT
  8
CHIDDEN
  5
137
 10
-0.137717
 20
-0.15986
 30
0.0
  0
POINT
  8
CHIDDEN
  5
138
 10
0.202707
 20
-0.058572
 30
0.0
  0
ENDBLK
  8
0
  5
139
  0
BLOCK
  8
0
  5
13A
  2
D06
 70
     0
 10
0.0
 20
0.0
 30
0.0
  3
D06
  0
INSERT
  8
DAMAN
  5
13B
  2
100CROSS
 10
2.1875
 20
-1.75
 30
0.0
 41
0.5625
 42
0.5625
 43
0.0
  0
CIRCLE
  8
DAMAN
  5
13C
 10
2.1875
 20
-1.75
 30
0.0
 40
0.28125
  0
CIRCLE
  8
DAMAN
  5
13D
 10
1.375
 20
-2.375
 30
0.0
 40
0.28125
  0
INSERT
  8
DAMAN
  5
13E
  2
100CROSS
 10
1.375
 20
-2.375
 30
0.0
 41
0.5625
 42
0.5625
 43
0.0
  0
INSERT
  8
DAMAN
  5
13F
  2
100CROSS
 10
1.375
 20
-1.125
 30
0.0
 41
0.5625
 42
0.5625
 43
0.0
  0
CIRCLE
  8
DAMAN
  5
140
 10
1.375
 20
-1.125
 30
0.0
 40
0.28125
  0
CIRCLE
  8
DAMAN
  5
141
 10
0.75
 20
-0.375
 30
0.0
 40
0.28125
  0
INSERT
  8
DAMAN
  5
142
  2
100CROSS
 10
0.75
 20
-0.375
 30
0.0
 41
0.5625
 42
0.5625
 43
0.0
  0
INSERT
  8
DAMAN
  5
143
  2
100CROSS
 10
2.75
 20
-3.5
 30
0.0
 41
0.375
 42
0.375
 43
0.0
  0
CIRCLE
  8
DAMAN
  5
144
 10
2.75
 20
-3.5
 30
0.0
 40
0.15625
  0
INSERT
  8
DAMAN
  5
145
  2
100CROSS
 10
2.75
 20
0.0
 30
0.0
 41
0.375
 42
0.375
 43
0.0
  0
CIRCLE
  8
DAMAN
  5
146
 10
2.75
 20
0.0
 30
0.0
 40
0.15625
  0
INSERT
  8
DAMAN
  5
147
  2
100CROSS
 10
0.0
 20
-3.5
 30
0.0
 41
0.375
 42
0.375
 43
0.0
  0
CIRCLE
  8
DAMAN
  5
148
 10
0.0
 20
-3.5
 30
0.0
 40
0.15625
  0
CIRCLE
  8
DAMAN
  5
149
 10
0.0
 20
0.0
 30
0.0
 40
0.15625
  0
INSERT
  8
DAMAN
  5
14A
  2
100CROSS
 10
0.0
 20
0.0
 30
0.0
 41
0.375
 42
0.375
 43
0.0
  0
CIRCLE
  8
DAMAN
  5
14B
 10
0.0
 20
-3.5
 30
0.0
 40
0.1875
  0
CIRCLE
  8
DAMAN
  5
14C
 10
0.0
 20
0.0
 30
0.0
 40
0.1875
  0
CIRCLE
  8
DAMAN
  5
14D
 10
2.75
 20
-3.5
 30
0.0
 40
0.1875
  0
CIRCLE
  8
DAMAN
  5
14E
 10
2.75
 20
0.0
 30
0.0
 40
0.1875
  0
ENDBLK
  8
0
  5
14F
  0
BLOCK
  8
0
  5
150
  2
D03C
 70
     0
 10
0.0
 20
0.0
 30
0.0
  3
D03C
  0
INSERT
  8
CCENTER
  5
151
  2
100CROSS
 10
2.1875
 20
-1.75
 30
0.0
 41
0.5625
 42
0.5625
 43
0.0
  0
CIRCLE
  8
CSOLID
  5
152
 10
2.1875
 20
-1.75
 30
0.0
 40
0.28125
  0
CIRCLE
  8
CSOLID
  5
153
 10
1.375
 20
-2.375
 30
0.0
 40
0.28125
  0
INSERT
  8
CCENTER
  5
154
  2
100CROSS
 10
1.375
 20
-2.375
 30
0.0
 41
0.5625
 42
0.5625
 43
0.0
  0
INSERT
  8
CCENTER
  5
155
  2
100CROSS
 10
1.375
 20
-1.125
 30
0.0
 41
0.5625
 42
0.5625
 43
0.0
  0
CIRCLE
  8
CSOLID
  5
156
 10
1.375
 20
-1.125
 30
0.0
 40
0.28125
  0
CIRCLE
  8
CSOLID
  5
157
 10
0.75
 20
-0.375
 30
0.0
 40
0.28125
  0
INSERT
  8
CCENTER
  5
158
  2
100CROSS
 10
0.75
 20
-0.375
 30
0.0
 41
0.5625
 42
0.5625
 43
0.0
  0
INSERT
  8
CCENTER
  5
159
  2
100CROSS
 10
2.75
 20
-3.5
 30
0.0
 41
0.375
 42
0.375
 43
0.0
  0
CIRCLE
  8
CSOLID
  5
15A
 10
2.75
 20
-3.5
 30
0.0
 40
0.15625
  0
INSERT
  8
CCENTER
  5
15B
  2
100CROSS
 10
2.75
 20
0.0
 30
0.0
 41
0.375
 42
0.375
 43
0.0
  0
CIRCLE
  8
CSOLID
  5
15C
 10
2.75
 20
0.0
 30
0.0
 40
0.15625
  0
INSERT
  8
CCENTER
  5
15D
  2
100CROSS
 10
0.0
 20
-3.5
 30
0.0
 41
0.375
 42
0.375
 43
0.0
  0
CIRCLE
  8
CSOLID
  5
15E
 10
0.0
 20
-3.5
 30
0.0
 40
0.15625
  0
CIRCLE
  8
CSOLID
  5
15F
 10
0.0
 20
0.0
 30
0.0
 40
0.15625
  0
INSERT
  8
CCENTER
  5
160
  2
100CROSS
 10
0.0
 20
0.0
 30
0.0
 41
0.375
 42
0.375
 43
0.0
  0
CIRCLE
  8
CHIDDEN
  5
161
 10
0.0
 20
-3.5
 30
0.0
 40
0.1875
  0
CIRCLE
  8
CHIDDEN
  5
162
 10
0.0
 20
0.0
 30
0.0
 40
0.1875
  0
CIRCLE
  8
CHIDDEN
  5
163
 10
2.75
 20
-3.5
 30
0.0
 40
0.1875
  0
CIRCLE
  8
CHIDDEN
  5
164
 10
2.75
 20
0.0
 30
0.0
 40
0.1875
  0
ENDBLK
  8
0
  5
165
  0
BLOCK
  8
0
  5
166
  2
125NPTFT
 70
    64
 10
0.0
 20
0.0
 30
0.0
  3
125NPTFT
  0
CIRCLE
  8
DAMAN
  5
167
 10
0.0
 20
0.0
 30
0.0
 40
0.844
  0
CIRCLE
  8
DAMAN
  5
168
 10
0.0
 20
0.0
 30
0.0
 40
0.7265
  0
INSERT
  8
DAMAN
  5
169
  2
100CROSS
 10
0.0
 20
0.0
 30
0.0
 41
1.4
 42
1.4
 43
0.0
  0
CIRCLE
  8
DAMAN
  5
16A
 10
0.0
 20
0.0
 30
0.0
 40
0.78125
  0
ENDBLK
  8
0
  5
16B
  0
BLOCK
  8
0
  5
16C
  2
D05
 70
    64
 10
0.0
 20
0.0
 30
0.0
  3
D05
  0
CIRCLE
  8
DAMAN
  6
HIDDEN
  5
16D
 10
1.8125
 20
0.0
 30
0.0
 40
0.125
  0
CIRCLE
  8
DAMAN
  6
HIDDEN
  5
16E
 10
1.8125
 20
-2.125
 30
0.0
 40
0.125
  0
CIRCLE
  8
DAMAN
  6
HIDDEN
  5
16F
 10
0.0
 20
0.0
 30
0.0
 40
0.125
  0
CIRCLE
  8
DAMAN
  6
HIDDEN
  5
170
 10
0.0
 20
-2.125
 30
0.0
 40
0.125
  0
INSERT
  8
DAMAN
  5
171
  2
100CROSS
 10
0.0
 20
0.0
 30
0.0
 41
0.25
 42
0.25
 43
0.0
  0
CIRCLE
  8
DAMAN
  5
172
 10
0.0
 20
0.0
 30
0.0
 40
0.1055
  0
CIRCLE
  8
DAMAN
  5
173
 10
0.0
 20
-2.125
 30
0.0
 40
0.1055
  0
INSERT
  8
DAMAN
  5
174
  2
100CROSS
 10
0.0
 20
-2.125
 30
0.0
 41
0.25
 42
0.25
 43
0.0
  0
CIRCLE
  8
DAMAN
  5
175
 10
1.8125
 20
0.0
 30
0.0
 40
0.1055
  0
INSERT
  8
DAMAN
  5
176
  2
100CROSS
 10
1.8125
 20
0.0
 30
0.0
 41
0.25
 42
0.25
 43
0.0
  0
CIRCLE
  8
DAMAN
  5
177
 10
1.8125
 20
-2.125
 30
0.0
 40
0.1055
  0
INSERT
  8
DAMAN
  5
178
  2
100CROSS
 10
1.8125
 20
-2.125
 30
0.0
 41
0.25
 42
0.25
 43
0.0
  0
INSERT
  8
DAMAN
  5
179
  2
100CROSS
 10
0.531
 20
-0.125
 30
0.0
 41
0.438
 42
0.438
 43
0.0
  0
CIRCLE
  8
DAMAN
  5
17A
 10
0.531
 20
-0.125
 30
0.0
 40
0.21875
  0
CIRCLE
  8
DAMAN
  5
17B
 10
0.9685
 20
-0.656
 30
0.0
 40
0.21875
  0
INSERT
  8
DAMAN
  5
17C
  2
100CROSS
 10
0.9685
 20
-0.656
 30
0.0
 41
0.438
 42
0.438
 43
0.0
  0
INSERT
  8
DAMAN
  5
17D
  2
100CROSS
 10
0.9685
 20
-1.4685
 30
0.0
 41
0.438
 42
0.438
 43
0.0
  0
CIRCLE
  8
DAMAN
  5
17E
 10
0.9685
 20
-1.4685
 30
0.0
 40
0.21875
  0
CIRCLE
  8
DAMAN
  5
17F
 10
1.5625
 20
-1.06225
 30
0.0
 40
0.21875
  0
INSERT
  8
DAMAN
  5
180
  2
100CROSS
 10
1.5625
 20
-1.06225
 30
0.0
 41
0.438
 42
0.438
 43
0.0
  0
CIRCLE
  8
DAMAN
  5
181
 10
0.531
 20
-1.9995
 30
0.0
 40
0.21875
  0
INSERT
  8
DAMAN
  5
182
  2
100CROSS
 10
0.531
 20
-1.9995
 30
0.0
 41
-0.438
 42
0.438
 50
180.0
 43
0.0
  0
ENDBLK
  8
0
  5
183
  0
BLOCK
  8
0
  5
184
  2
T16AT
 70
    64
 10
0.0
 20
0.0
 30
0.0
  3
T16AT
  0
CIRCLE
  8
DAMAN
  5
185
 10
0.0
 20
0.0
 30
0.0
 40
0.5
  0
CIRCLE
  8
DAMAN
  5
186
 10
0.0
 20
0.0
 30
0.0
 40
0.625
  0
CIRCLE
  8
DAMAN
  5
187
 10
0.0
 20
0.0
 30
0.0
 40
0.672
  0
CIRCLE
  8
DAMAN
  5
188
 10
0.0
 20
0.0
 30
0.0
 40
0.72
  0
CIRCLE
  8
DAMAN
  5
189
 10
0.0
 20
0.0
 30
0.0
 40
0.781
  0
CIRCLE
  8
DAMAN
  6
HIDDEN
  5
18A
 10
0.0
 20
0.0
 30
0.0
 40
0.6875
  0
INSERT
  8
DAMAN
  5
18B
  2
100CROSS
 10
0.0
 20
0.0
 30
0.0
 41
1.4
 42
1.4
 43
0.0
  0
ENDBLK
  8
0
  5
18C
  0
BLOCK
  8
0
  5
18D
  2
006NPTFT
 70
     0
 10
0.0
 20
0.0
 30
0.0
  3
006NPTFT
  0
CIRCLE
  8
DAMAN
 62
     5
  5
18E
 10
0.0
 20
0.0
 30
0.0
 40
0.125
  0
CIRCLE
  8
DAMAN
 62
     5
  5
18F
 10
0.0
 20
0.0
 30
0.0
 40
0.164
  0
CIRCLE
  8
DAMAN
  6
HIDDEN
 62
     5
  5
190
 10
0.0
 20
0.0
 30
0.0
 40
0.142704
  0
INSERT
  8
DAMAN
  6
CENTER
 62
     5
  5
191
  2
100CROSS
 10
0.0
 20
0.0
 30
0.0
 41
0.328
 42
0.328
 43
0.0
  0
ENDBLK
  8
0
  5
192
  0
BLOCK
  8
0
  5
193
  2
16SAET
 70
    64
 10
0.0
 20
0.0
 30
0.0
  3
16SAET
  0
CIRCLE
  8
DAMAN
  5
194
 10
0.0
 20
0.0
 30
0.0
 40
0.6125
  0
CIRCLE
  8
DAMAN
  5
195
 10
0.0
 20
0.0
 30
0.0
 40
0.562
  0
CIRCLE
  8
DAMAN
  5
196
 10
0.0
 20
0.0
 30
0.0
 40
1.0
  0
INSERT
  8
DAMAN
  5
197
  2
100CROSS
 10
0.0
 20
0.0
 30
0.0
 41
1.6
 42
1.6
 43
0.0
  0
CIRCLE
  8
DAMAN
  5
198
 10
0.0
 20
0.0
 30
0.0
 40
0.65625
  0
ENDBLK
  8
0
  5
199
  0
BLOCK
  8
0
  5
19A
  2
20SAET
 70
    64
 10
0.0
 20
0.0
 30
0.0
  3
20SAET
  0
INSERT
  8
DAMAN
  5
19B
  2
100CROSS
 10
0.0
 20
0.0
 30
0.0
 41
1.7
 42
1.7
 43
0.0
  0
CIRCLE
  8
DAMAN
  5
19C
 10
0.0
 20
0.0
 30
0.0
 40
0.8125
  0
CIRCLE
  8
DAMAN
  5
19D
 10
0.0
 20
0.0
 30
0.0
 40
1.125
  0
CIRCLE
  8
DAMAN
  5
19E
 10
0.0
 20
0.0
 30
0.0
 40
0.75
  0
ENDBLK
  8
0
  5
19F
  0
BLOCK
  8
0
  5
1A0
  2
162SAET
 70
     0
 10
0.0
 20
0.0
 30
0.0
  3
162SAET
  0
INSERT
  8
CCENTER
  5
1A1
  2
100CROSS
 10
0.0
 20
0.0
 30
0.0
 41
1.7
 42
1.7
 43
0.0
  0
CIRCLE
  8
CHIDDEN
  5
1A2
 10
0.0
 20
0.0
 30
0.0
 40
0.8125
  0
CIRCLE
  8
CSOLID
  5
1A3
 10
0.0
 20
0.0
 30
0.0
 40
1.125
  0
CIRCLE
  8
CSOLID
  5
1A4
 10
0.0
 20
0.0
 30
0.0
 40
0.75
  0
CIRCLE
  8
PHANTOM
  5
1A5
 10
0.0
 20
0.0
 30
0.0
 40
1.085
  0
ENDBLK
  8
0
  5
1A6
  0
BLOCK
  8
0
  5
1A7
  2
06SAET
 70
    64
 10
0.0
 20
0.0
 30
0.0
  3
06SAET
  0
INSERT
  8
DAMAN
  5
1A8
  2
100CROSS
 10
0.0
 20
0.0
 30
0.0
 43
0.0
  0
CIRCLE
  8
DAMAN
  5
1A9
 10
0.0
 20
0.0
 30
0.0
 40
0.28125
  0
CIRCLE
  8
DAMAN
  5
1AA
 10
0.0
 20
0.0
 30
0.0
 40
0.5
  0
CIRCLE
  8
DAMAN
  5
1AB
 10
0.0
 20
0.0
 30
0.0
 40
0.25
  0
ENDBLK
  8
0
  5
1AC
  0
BLOCK
  8
0
  5
1AD
  2
MIBFBE
 70
     0
 10
0.0
 20
0.0
 30
0.0
  3
MIBFBE
  0
LINE
  8
DAMAN
  5
1AE
 10
-1.0
 20
1.0
 30
0.0
 11
4.0
 21
1.0
 31
0.0
  0
LINE
  8
DAMAN
  5
1AF
 10
4.0
 20
1.0
 30
0.0
 11
4.0
 21
6.0
 31
0.0
  0
LINE
  8
DAMAN
  5
1B0
 10
4.0
 20
6.0
 30
0.0
 11
-1.0
 21
6.0
 31
0.0
  0
LINE
  8
DAMAN
  6
HIDDEN
  5
1B1
 10
-1.0
 20
6.0
 30
0.0
 11
-1.0
 21
1.0
 31
0.0
  0
LINE
  8
DAMAN
  5
1B2
 10
6.75
 20
1.0
 30
0.0
 11
14.25
 21
1.0
 31
0.0
  0
LINE
  8
DAMAN
  5
1B3
 10
14.25
 20
1.0
 30
0.0
 11
14.25
 21
6.0
 31
0.0
  0
LINE
  8
DAMAN
  5
1B4
 10
14.25
 20
6.0
 30
0.0
 11
6.75
 21
6.0
 31
0.0
  0
LINE
  8
DAMAN
  5
1B5
 10
6.75
 20
6.0
 30
0.0
 11
6.75
 21
1.0
 31
0.0
  0
LINE
  8
DAMAN
  5
1B6
 10
17.0
 20
6.0
 30
0.0
 11
22.0
 21
6.0
 31
0.0
  0
LINE
  8
DAMAN
  5
1B7
 10
22.0
 20
1.0
 30
0.0
 11
17.0
 21
1.0
 31
0.0
  0
LINE
  8
DAMAN
  6
HIDDEN
  5
1B8
 10
22.0
 20
6.0
 30
0.0
 11
22.0
 21
1.0
 31
0.0
  0
LINE
  8
DAMAN
  5
1B9
 10
17.0
 20
1.0
 30
0.0
 11
17.0
 21
6.0
 31
0.0
  0
LINE
  8
DAMAN
  5
1BA
 10
14.25
 20
0.0
 30
0.0
 11
6.75
 21
0.0
 31
0.0
  0
LINE
  8
DAMAN
  5
1BB
 10
6.75
 20
-5.0
 30
0.0
 11
14.25
 21
-5.0
 31
0.0
  0
LINE
  8
DAMAN
  5
1BC
 10
6.75
 20
0.0
 30
0.0
 11
6.75
 21
-5.0
 31
0.0
  0
LINE
  8
DAMAN
  5
1BD
 10
14.25
 20
-5.0
 30
0.0
 11
14.25
 21
0.0
 31
0.0
  0
INSERT
  8
DAMAN
  5
1BE
  2
500MKCT
 10
6.75
 20
6.0
 30
0.0
  0
INSERT
  8
DAMAN
  5
1BF
  2
500MKCT
 10
14.25
 20
1.0
 30
0.0
 50
180.0
  0
INSERT
  8
DAMAN
  5
1C0
  2
500MKT
 10
22.563
 20
6.0
 30
0.0
  0
INSERT
  8
DAMAN
  5
1C1
  2
500MKT
 10
-1.563
 20
1.0
 30
0.0
 50
180.0
  0
INSERT
  8
DAMAN
  5
1C2
  2
500MKS
 10
6.531
 20
-4.625
 30
0.0
  0
INSERT
  8
DAMAN
  5
1C3
  2
500MKS
 10
14.469
 20
-4.625
 30
0.0
 41
-1.0
  0
INSERT
  8
DAMAN
  5
1C4
  2
100NPTFT
 10
1.5
 20
2.75
 30
0.0
  0
TEXT
  8
DAMAN
  5
1C5
 10
2.46875
 20
5.6875
 30
0.0
 40
0.2
  1
T
 50
270.0
  0
TEXT
  8
DAMAN
  5
1C6
 10
18.59375
 20
5.6875
 30
0.0
 40
0.2
  1
T
 50
90.0
  0
TEXT
  8
DAMAN
  5
1C7
 10
2.375
 20
1.78125
 30
0.0
 40
0.2
  1
P
 50
270.0
  0
TEXT
  8
DAMAN
  5
1C8
 10
18.84375
 20
1.625
 30
0.0
 40
0.2
  1
P
 50
90.0
  0
INSERT
  8
DAMAN
  5
1C9
  2
025NPTFT
 10
10.4375
 20
-3.062
 30
0.0
  0
TEXT
  8
DAMAN
  5
1CA
 10
10.75
 20
-2.687
 30
0.0
 40
0.2
  1
GA
  0
TEXT
  8
DAMAN
  5
1CB
 10
9.3125
 20
-1.84375
 30
0.0
 40
0.2
  1
DAMAN ****
  0
INSERT
  8
DAMAN
  5
1CC
  2
100NPTFT
 10
19.5
 20
2.75
 30
0.0
  0
INSERT
  8
DAMAN
  5
1CD
  2
100NPTFT
 10
8.781
 20
-1.0625
 30
0.0
  0
INSERT
  8
DAMAN
  5
1CE
  2
100NPTFT
 10
8.781
 20
-3.938
 30
0.0
  0
TEXT
  8
DAMAN
  5
1CF
 10
9.75
 20
-0.5
 30
0.0
 40
0.2
  1
B
  0
TEXT
  8
DAMAN
  5
1D0
 10
9.8125
 20
-3.46875
 30
0.0
 40
0.2
  1
A
  0
INSERT
  8
DAMAN
  5
1D1
  2
100NPTFT
 10
12.031
 20
-1.0625
 30
0.0
  0
TEXT
  8
DAMAN
  5
1D2
 10
13.0
 20
-0.5
 30
0.0
 40
0.2
  1
B
  0
INSERT
  8
DAMAN
  5
1D3
  2
100NPTFT
 10
12.031
 20
-3.938
 30
0.0
  0
TEXT
  8
DAMAN
  5
1D4
 10
13.0625
 20
-3.46875
 30
0.0
 40
0.2
  1
A
  0
INSERT
  8
DAMAN
  5
1D5
  2
125NPTFT
 10
1.5
 20
4.875
 30
0.0
  0
INSERT
  8
DAMAN
  5
1D6
  2
125NPTFT
 10
19.5
 20
4.875
 30
0.0
  0
INSERT
  8
DAMAN
  5
1D7
  2
D05
 10
7.9685
 20
4.34325
 30
0.0
  0
INSERT
  8
DAMAN
  5
1D8
  2
D05
 10
11.2185
 20
4.34325
 30
0.0
  0
LINE
  8
DAMAN
  5
1D9
 10
14.25
 20
7.0
 30
0.0
 11
6.75
 21
7.0
 31
0.0
  0
LINE
  8
DAMAN
  5
1DA
 10
14.25
 20
12.0
 30
0.0
 11
14.25
 21
7.0
 31
0.0
  0
INSERT
  8
DAMAN
  5
1DB
  2
500MKS
 10
14.469
 20
11.625
 30
0.0
 50
180.0
  0
LINE
  8
DAMAN
  5
1DC
 10
6.75
 20
12.0
 30
0.0
 11
14.25
 21
12.0
 31
0.0
  0
INSERT
  8
DAMAN
  5
1DD
  2
500MKS
 10
6.531
 20
11.625
 30
0.0
 41
-1.0
 50
180.0
  0
LINE
  8
DAMAN
  5
1DE
 10
6.75
 20
7.0
 30
0.0
 11
6.75
 21
12.0
 31
0.0
  0
INSERT
  8
DAMAN
  6
CENTER
 62
     5
  5
1DF
  2
100CROSS
 10
6.75
 20
1.0
 30
0.0
 41
0.246
 42
0.246
 43
0.0
  0
INSERT
  8
DAMAN
  5
1E0
  2
038NPTFT
 10
13.25
 20
8.0
 30
0.0
  0
INSERT
  8
DAMAN
  5
1E1
  2
038NPTFT
 10
7.75
 20
8.0
 30
0.0
  0
INSERT
  8
DAMAN
  5
1E2
  2
T16AT
 10
10.5
 20
10.75
 30
0.0
  0
CIRCLE
  8
DAMAN
  5
1E3
 10
6.75
 20
1.0
 30
0.0
 40
0.125
  0
CIRCLE
  8
DAMAN
  5
1E4
 10
9.344
 20
4.656
 30
0.0
 40
0.125
  0
INSERT
  8
DAMAN
  6
CENTER
 62
     5
  5
1E5
  2
100CROSS
 10
9.344
 20
4.656
 30
0.0
 41
0.246
 42
0.246
 43
0.0
  0
INSERT
  8
DAMAN
  6
CENTER
 62
     5
  5
1E6
  2
100CROSS
 10
12.594
 20
4.656
 30
0.0
 41
0.246
 42
0.246
 43
0.0
  0
CIRCLE
  8
DAMAN
  5
1E7
 10
12.594
 20
4.656
 30
0.0
 40
0.125
  0
TEXT
  8
DAMAN
  5
1E8
 10
7.1875
 20
7.40625
 30
0.0
 40
0.2
  1
X
 50
180.0
  0
TEXT
  8
DAMAN
  5
1E9
 10
13.875
 20
7.40625
 30
0.0
 40
0.2
  1
X
 50
180.0
  0
ENDBLK
  8
0
  5
1EA
  0
BLOCK
  8
0
  5
1EB
  2
C162T
 70
    64
 10
0.0
 20
0.0
 30
0.0
  3
C162T
  0
CIRCLE
  8
DAMAN
  5
1EC
 10
0.0
 20
0.0
 30
0.0
 40
0.375
  0
CIRCLE
  8
DAMAN
  5
1ED
 10
0.0
 20
0.0
 30
0.0
 40
0.5635
  0
CIRCLE
  8
DAMAN
  5
1EE
 10
0.0
 20
0.0
 30
0.0
 40
0.617
  0
CIRCLE
  8
DAMAN
  5
1EF
 10
0.0
 20
0.0
 30
0.0
 40
0.7005
  0
CIRCLE
  8
DAMAN
  5
1F0
 10
0.0
 20
0.0
 30
0.0
 40
0.875
  0
CIRCLE
  8
DAMAN
  6
HIDDEN
  5
1F1
 10
0.0
 20
0.0
 30
0.0
 40
0.656
  0
INSERT
  8
DAMAN
  5
1F2
  2
100CROSS
 10
0.0
 20
0.0
 30
0.0
 41
1.32
 42
1.32
 43
1.5
  0
ENDBLK
  8
0
  5
1F3
  0
BLOCK
  8
0
  5
1F4
  2
T3AT
 70
     0
 10
0.0
 20
0.0
 30
0.0
  3
T3AT
  0
CIRCLE
  8
DAMAN
  5
1F5
 10
0.0
 20
0.0
 30
0.0
 40
0.4665
  0
CIRCLE
  8
DAMAN
  5
1F6
 10
0.0
 20
0.0
 30
0.0
 40
0.4375
  0
CIRCLE
  8
DAMAN
  6
HIDDEN
  5
1F7
 10
0.0
 20
0.0
 30
0.0
 40
0.5
  0
INSERT
  8
DAMAN
  5
1F8
  2
100CROSS
 10
0.0
 20
0.0
 30
0.0
 41
0.88
 42
0.88
  0
CIRCLE
  8
DAMAN
  5
1F9
 10
0.0
 20
0.0
 30
0.0
 40
0.516
  0
CIRCLE
  8
DAMAN
  5
1FA
 10
0.0
 20
0.0
 30
0.0
 40
0.539
  0
CIRCLE
  8
DAMAN
  5
1FB
 10
0.0
 20
0.0
 30
0.0
 40
0.344
  0
ENDBLK
  8
0
  5
1FC
  0
BLOCK
  8
0
  5
1FD
  2
MIBGBG
 70
     0
 10
0.0
 20
0.0
 30
0.0
  3
MIBGBG
  0
LINE
  8
DAMAN
  5
1FE
 10
-1.0
 20
1.0
 30
0.0
 11
4.0
 21
1.0
 31
0.0
  0
LINE
  8
DAMAN
  5
1FF
 10
4.0
 20
1.0
 30
0.0
 11
4.0
 21
6.0
 31
0.0
  0
LINE
  8
DAMAN
  5
200
 10
4.0
 20
6.0
 30
0.0
 11
-1.0
 21
6.0
 31
0.0
  0
LINE
  8
DAMAN
  6
HIDDEN
  5
201
 10
-1.0
 20
6.0
 30
0.0
 11
-1.0
 21
1.0
 31
0.0
  0
LINE
  8
DAMAN
  5
202
 10
6.75
 20
1.0
 30
0.0
 11
14.25
 21
1.0
 31
0.0
  0
LINE
  8
DAMAN
  5
203
 10
14.25
 20
1.0
 30
0.0
 11
14.25
 21
6.0
 31
0.0
  0
LINE
  8
DAMAN
  5
204
 10
14.25
 20
6.0
 30
0.0
 11
6.75
 21
6.0
 31
0.0
  0
LINE
  8
DAMAN
  5
205
 10
6.75
 20
6.0
 30
0.0
 11
6.75
 21
1.0
 31
0.0
  0
LINE
  8
DAMAN
  5
206
 10
17.0
 20
6.0
 30
0.0
 11
22.0
 21
6.0
 31
0.0
  0
LINE
  8
DAMAN
  5
207
 10
22.0
 20
1.0
 30
0.0
 11
17.0
 21
1.0
 31
0.0
  0
LINE
  8
DAMAN
  6
HIDDEN
  5
208
 10
22.0
 20
6.0
 30
0.0
 11
22.0
 21
1.0
 31
0.0
  0
LINE
  8
DAMAN
  5
209
 10
17.0
 20
1.0
 30
0.0
 11
17.0
 21
6.0
 31
0.0
  0
LINE
  8
DAMAN
  5
20A
 10
14.25
 20
0.0
 30
0.0
 11
6.75
 21
0.0
 31
0.0
  0
LINE
  8
DAMAN
  5
20B
 10
6.75
 20
-5.0
 30
0.0
 11
14.25
 21
-5.0
 31
0.0
  0
LINE
  8
DAMAN
  5
20C
 10
6.75
 20
0.0
 30
0.0
 11
6.75
 21
-5.0
 31
0.0
  0
LINE
  8
DAMAN
  5
20D
 10
14.25
 20
-5.0
 30
0.0
 11
14.25
 21
0.0
 31
0.0
  0
INSERT
  8
DAMAN
  5
20E
  2
500MKCT
 10
6.75
 20
6.0
 30
0.0
  0
INSERT
  8
DAMAN
  5
20F
  2
500MKCT
 10
14.25
 20
1.0
 30
0.0
 50
180.0
  0
INSERT
  8
DAMAN
  5
210
  2
500MKT
 10
22.563
 20
6.0
 30
0.0
  0
INSERT
  8
DAMAN
  5
211
  2
500MKT
 10
-1.563
 20
1.0
 30
0.0
 50
180.0
  0
INSERT
  8
DAMAN
  5
212
  2
500MKS
 10
6.531
 20
-4.625
 30
0.0
  0
INSERT
  8
DAMAN
  5
213
  2
500MKS
 10
14.469
 20
-4.625
 30
0.0
 41
-1.0
  0
TEXT
  8
DAMAN
  5
214
 10
2.46875
 20
5.6875
 30
0.0
 40
0.2
  1
T
 50
270.0
  0
TEXT
  8
DAMAN
  5
215
 10
18.59375
 20
5.6875
 30
0.0
 40
0.2
  1
T
 50
90.0
  0
TEXT
  8
DAMAN
  5
216
 10
2.375
 20
1.78125
 30
0.0
 40
0.2
  1
P
 50
270.0
  0
TEXT
  8
DAMAN
  5
217
 10
18.84375
 20
1.625
 30
0.0
 40
0.2
  1
P
 50
90.0
  0
TEXT
  8
DAMAN
  5
218
 10
9.375
 20
-2.03125
 30
0.0
 40
0.2
  1
DAMAN ****
  0
TEXT
  8
DAMAN
  5
219
 10
9.75
 20
-0.5
 30
0.0
 40
0.2
  1
B
  0
TEXT
  8
DAMAN
  5
21A
 10
9.8125
 20
-3.46875
 30
0.0
 40
0.2
  1
A
  0
TEXT
  8
DAMAN
  5
21B
 10
13.0
 20
-0.5
 30
0.0
 40
0.2
  1
B
  0
TEXT
  8
DAMAN
  5
21C
 10
13.0625
 20
-3.46875
 30
0.0
 40
0.2
  1
A
  0
INSERT
  8
DAMAN
  5
21D
  2
D05
 10
7.9685
 20
4.34325
 30
0.0
  0
INSERT
  8
DAMAN
  5
21E
  2
D05
 10
11.2185
 20
4.34325
 30
0.0
  0
LINE
  8
DAMAN
  5
21F
 10
14.25
 20
7.0
 30
0.0
 11
6.75
 21
7.0
 31
0.0
  0
LINE
  8
DAMAN
  5
220
 10
14.25
 20
12.0
 30
0.0
 11
14.25
 21
7.0
 31
0.0
  0
INSERT
  8
DAMAN
  5
221
  2
500MKS
 10
14.469
 20
11.625
 30
0.0
 50
180.0
  0
LINE
  8
DAMAN
  5
222
 10
6.75
 20
12.0
 30
0.0
 11
14.25
 21
12.0
 31
0.0
  0
INSERT
  8
DAMAN
  5
223
  2
500MKS
 10
6.531
 20
11.625
 30
0.0
 41
-1.0
 50
180.0
  0
LINE
  8
DAMAN
  5
224
 10
6.75
 20
7.0
 30
0.0
 11
6.75
 21
12.0
 31
0.0
  0
INSERT
  8
DAMAN
  5
225
  2
T16AT
 10
10.5
 20
10.75
 30
0.0
  0
INSERT
  8
DAMAN
  5
226
  2
20SAET
 10
1.5
 20
4.875
 30
0.0
  0
INSERT
  8
DAMAN
  5
227
  2
20SAET
 10
19.5
 20
4.875
 30
0.0
  0
INSERT
  8
DAMAN
  5
228
  2
16SAET
 10
1.5
 20
2.75
 30
0.0
  0
INSERT
  8
DAMAN
  5
229
  2
16SAET
 10
8.781
 20
-1.0625
 30
0.0
  0
INSERT
  8
DAMAN
  5
22A
  2
16SAET
 10
8.781
 20
-3.938
 30
0.0
  0
INSERT
  8
DAMAN
  5
22B
  2
16SAET
 10
12.031
 20
-1.0625
 30
0.0
  0
INSERT
  8
DAMAN
  5
22C
  2
16SAET
 10
12.031
 20
-3.938
 30
0.0
  0
INSERT
  8
DAMAN
  5
22D
  2
16SAET
 10
19.5
 20
2.75
 30
0.0
  0
INSERT
  8
DAMAN
  5
22E
  2
06SAET
 10
10.438
 20
-3.0625
 30
0.0
  0
TEXT
  8
DAMAN
  5
22F
 10
11.0625
 20
-2.65625
 30
0.0
 40
0.2
  1
GA
  0
INSERT
  8
DAMAN
  6
CENTER
 62
     5
  5
230
  2
100CROSS
 10
9.344
 20
1.906
 30
0.0
 41
0.246
 42
0.246
 43
0.0
  0
INSERT
  8
DAMAN
  6
CENTER
 62
     5
  5
231
  2
100CROSS
 10
12.594
 20
1.906
 30
0.0
 41
0.246
 42
0.246
 43
0.0
  0
CIRCLE
  8
DAMAN
  5
232
 10
9.344
 20
1.906
 30
0.0
 40
0.125
  0
CIRCLE
  8
DAMAN
  5
233
 10
12.594
 20
1.906
 30
0.0
 40
0.125
  0
TEXT
  8
DAMAN
  5
234
 10
13.75
 20
-1.65625
 30
0.0
 40
0.2
  1
Y
  0
TEXT
  8
DAMAN
  5
235
 10
7.1875
 20
-1.65625
 30
0.0
 40
0.2
  1
Y
  0
INSERT
  8
DAMAN
  5
236
  2
06SAET
 10
7.75
 20
-2.156
 30
0.0
  0
INSERT
  8
DAMAN
  5
237
  2
06SAET
 10
13.25
 20
-2.156
 30
0.0
  0
ENDBLK
  8
0
  5
238
  0
BLOCK
  8
0
  5
239
  2
MIBFBF
 70
     0
 10
0.0
 20
0.0
 30
0.0
  3
MIBFBF
  0
LINE
  8
DAMAN
  5
23A
 10
-1.0
 20
1.0
 30
0.0
 11
4.0
 21
1.0
 31
0.0
  0
LINE
  8
DAMAN
  5
23B
 10
4.0
 20
1.0
 30
0.0
 11
4.0
 21
6.0
 31
0.0
  0
LINE
  8
DAMAN
  5
23C
 10
4.0
 20
6.0
 30
0.0
 11
-1.0
 21
6.0
 31
0.0
  0
LINE
  8
DAMAN
  6
HIDDEN
  5
23D
 10
-1.0
 20
6.0
 30
0.0
 11
-1.0
 21
1.0
 31
0.0
  0
LINE
  8
DAMAN
  5
23E
 10
6.75
 20
1.0
 30
0.0
 11
14.25
 21
1.0
 31
0.0
  0
LINE
  8
DAMAN
  5
23F
 10
14.25
 20
1.0
 30
0.0
 11
14.25
 21
6.0
 31
0.0
  0
LINE
  8
DAMAN
  5
240
 10
14.25
 20
6.0
 30
0.0
 11
6.75
 21
6.0
 31
0.0
  0
LINE
  8
DAMAN
  5
241
 10
6.75
 20
6.0
 30
0.0
 11
6.75
 21
1.0
 31
0.0
  0
LINE
  8
DAMAN
  5
242
 10
17.0
 20
6.0
 30
0.0
 11
22.0
 21
6.0
 31
0.0
  0
LINE
  8
DAMAN
  5
243
 10
22.0
 20
1.0
 30
0.0
 11
17.0
 21
1.0
 31
0.0
  0
LINE
  8
DAMAN
  6
HIDDEN
  5
244
 10
22.0
 20
6.0
 30
0.0
 11
22.0
 21
1.0
 31
0.0
  0
LINE
  8
DAMAN
  5
245
 10
17.0
 20
1.0
 30
0.0
 11
17.0
 21
6.0
 31
0.0
  0
LINE
  8
DAMAN
  5
246
 10
14.25
 20
0.0
 30
0.0
 11
6.75
 21
0.0
 31
0.0
  0
LINE
  8
DAMAN
  5
247
 10
6.75
 20
-5.0
 30
0.0
 11
14.25
 21
-5.0
 31
0.0
  0
LINE
  8
DAMAN
  5
248
 10
6.75
 20
0.0
 30
0.0
 11
6.75
 21
-5.0
 31
0.0
  0
LINE
  8
DAMAN
  5
249
 10
14.25
 20
-5.0
 30
0.0
 11
14.25
 21
0.0
 31
0.0
  0
INSERT
  8
DAMAN
  5
24A
  2
500MKCT
 10
6.75
 20
6.0
 30
0.0
  0
INSERT
  8
DAMAN
  5
24B
  2
500MKCT
 10
14.25
 20
1.0
 30
0.0
 50
180.0
  0
INSERT
  8
DAMAN
  5
24C
  2
500MKT
 10
22.563
 20
6.0
 30
0.0
  0
INSERT
  8
DAMAN
  5
24D
  2
500MKT
 10
-1.563
 20
1.0
 30
0.0
 50
180.0
  0
INSERT
  8
DAMAN
  5
24E
  2
500MKS
 10
6.531
 20
-4.625
 30
0.0
  0
INSERT
  8
DAMAN
  5
24F
  2
500MKS
 10
14.469
 20
-4.625
 30
0.0
 41
-1.0
  0
INSERT
  8
DAMAN
  5
250
  2
100NPTFT
 10
1.5
 20
2.75
 30
0.0
  0
TEXT
  8
DAMAN
  5
251
 10
2.46875
 20
5.6875
 30
0.0
 40
0.2
  1
T
 50
270.0
  0
TEXT
  8
DAMAN
  5
252
 10
18.59375
 20
5.6875
 30
0.0
 40
0.2
  1
T
 50
90.0
  0
TEXT
  8
DAMAN
  5
253
 10
2.375
 20
1.78125
 30
0.0
 40
0.2
  1
P
 50
270.0
  0
TEXT
  8
DAMAN
  5
254
 10
18.84375
 20
1.625
 30
0.0
 40
0.2
  1
P
 50
90.0
  0
INSERT
  8
DAMAN
  5
255
  2
025NPTFT
 10
10.4375
 20
-3.062
 30
0.0
  0
TEXT
  8
DAMAN
  5
256
 10
10.75
 20
-2.687
 30
0.0
 40
0.2
  1
GA
  0
TEXT
  8
DAMAN
  5
257
 10
9.3125
 20
-1.84375
 30
0.0
 40
0.2
  1
DAMAN ****
  0
INSERT
  8
DAMAN
  5
258
  2
100NPTFT
 10
19.5
 20
2.75
 30
0.0
  0
INSERT
  8
DAMAN
  5
259
  2
100NPTFT
 10
8.781
 20
-1.0625
 30
0.0
  0
INSERT
  8
DAMAN
  5
25A
  2
100NPTFT
 10
8.781
 20
-3.938
 30
0.0
  0
TEXT
  8
DAMAN
  5
25B
 10
9.75
 20
-0.5
 30
0.0
 40
0.2
  1
B
  0
TEXT
  8
DAMAN
  5
25C
 10
9.8125
 20
-3.46875
 30
0.0
 40
0.2
  1
A
  0
INSERT
  8
DAMAN
  5
25D
  2
100NPTFT
 10
12.031
 20
-1.0625
 30
0.0
  0
TEXT
  8
DAMAN
  5
25E
 10
13.0
 20
-0.5
 30
0.0
 40
0.2
  1
B
  0
INSERT
  8
DAMAN
  5
25F
  2
100NPTFT
 10
12.031
 20
-3.938
 30
0.0
  0
TEXT
  8
DAMAN
  5
260
 10
13.0625
 20
-3.46875
 30
0.0
 40
0.2
  1
A
  0
INSERT
  8
DAMAN
  5
261
  2
125NPTFT
 10
1.5
 20
4.875
 30
0.0
  0
INSERT
  8
DAMAN
  5
262
  2
125NPTFT
 10
19.5
 20
4.875
 30
0.0
  0
INSERT
  8
DAMAN
  5
263
  2
D05
 10
7.9685
 20
4.34325
 30
0.0
  0
INSERT
  8
DAMAN
  5
264
  2
D05
 10
11.2185
 20
4.34325
 30
0.0
  0
LINE
  8
DAMAN
  5
265
 10
14.25
 20
7.0
 30
0.0
 11
6.75
 21
7.0
 31
0.0
  0
LINE
  8
DAMAN
  5
266
 10
14.25
 20
12.0
 30
0.0
 11
14.25
 21
7.0
 31
0.0
  0
INSERT
  8
DAMAN
  5
267
  2
500MKS
 10
14.469
 20
11.625
 30
0.0
 50
180.0
  0
LINE
  8
DAMAN
  5
268
 10
6.75
 20
12.0
 30
0.0
 11
14.25
 21
12.0
 31
0.0
  0
INSERT
  8
DAMAN
  5
269
  2
500MKS
 10
6.531
 20
11.625
 30
0.0
 41
-1.0
 50
180.0
  0
LINE
  8
DAMAN
  5
26A
 10
6.75
 20
7.0
 30
0.0
 11
6.75
 21
12.0
 31
0.0
  0
INSERT
  8
DAMAN
  5
26B
  2
038NPTFT
 10
13.25
 20
8.0
 30
0.0
  0
INSERT
  8
DAMAN
  5
26C
  2
038NPTFT
 10
7.75
 20
8.0
 30
0.0
  0
TEXT
  8
DAMAN
  5
26D
 10
7.375
 20
7.375
 30
0.0
 40
0.2
  1
Y
 50
180.0
  0
TEXT
  8
DAMAN
  5
26E
 10
13.8125
 20
7.375
 30
0.0
 40
0.2
  1
Y
 50
180.0
  0
INSERT
  8
DAMAN
  6
CENTER
 62
     5
  5
26F
  2
100CROSS
 10
8.063
 20
4.781
 30
0.0
 41
0.246
 42
0.246
 43
0.0
  0
CIRCLE
  8
DAMAN
  5
270
 10
8.063
 20
4.781
 30
0.0
 40
0.094
  0
INSERT
  8
DAMAN
  6
CENTER
 62
     5
  5
271
  2
100CROSS
 10
11.313
 20
4.781
 30
0.0
 41
0.246
 42
0.246
 43
0.0
  0
CIRCLE
  8
DAMAN
  5
272
 10
11.313
 20
4.781
 30
0.0
 40
0.094
  0
INSERT
  8
DAMAN
  5
273
  2
T16AT
 10
10.5
 20
10.75
 30
0.0
  0
ENDBLK
  8
0
  5
274
  0
BLOCK
  8
0
  5
275
  2
MIBFBG
 70
     0
 10
0.0
 20
0.0
 30
0.0
  3
MIBFBG
  0
LINE
  8
DAMAN
  5
276
 10
-1.0
 20
1.0
 30
0.0
 11
4.0
 21
1.0
 31
0.0
  0
LINE
  8
DAMAN
  5
277
 10
4.0
 20
1.0
 30
0.0
 11
4.0
 21
6.0
 31
0.0
  0
LINE
  8
DAMAN
  5
278
 10
4.0
 20
6.0
 30
0.0
 11
-1.0
 21
6.0
 31
0.0
  0
LINE
  8
DAMAN
  6
HIDDEN
  5
279
 10
-1.0
 20
6.0
 30
0.0
 11
-1.0
 21
1.0
 31
0.0
  0
LINE
  8
DAMAN
  5
27A
 10
6.75
 20
1.0
 30
0.0
 11
14.25
 21
1.0
 31
0.0
  0
LINE
  8
DAMAN
  5
27B
 10
14.25
 20
1.0
 30
0.0
 11
14.25
 21
6.0
 31
0.0
  0
LINE
  8
DAMAN
  5
27C
 10
14.25
 20
6.0
 30
0.0
 11
6.75
 21
6.0
 31
0.0
  0
LINE
  8
DAMAN
  5
27D
 10
6.75
 20
6.0
 30
0.0
 11
6.75
 21
1.0
 31
0.0
  0
LINE
  8
DAMAN
  5
27E
 10
17.0
 20
6.0
 30
0.0
 11
22.0
 21
6.0
 31
0.0
  0
LINE
  8
DAMAN
  5
27F
 10
22.0
 20
1.0
 30
0.0
 11
17.0
 21
1.0
 31
0.0
  0
LINE
  8
DAMAN
  6
HIDDEN
  5
280
 10
22.0
 20
6.0
 30
0.0
 11
22.0
 21
1.0
 31
0.0
  0
LINE
  8
DAMAN
  5
281
 10
17.0
 20
1.0
 30
0.0
 11
17.0
 21
6.0
 31
0.0
  0
LINE
  8
DAMAN
  5
282
 10
14.25
 20
0.0
 30
0.0
 11
6.75
 21
0.0
 31
0.0
  0
LINE
  8
DAMAN
  5
283
 10
6.75
 20
-5.0
 30
0.0
 11
14.25
 21
-5.0
 31
0.0
  0
LINE
  8
DAMAN
  5
284
 10
6.75
 20
0.0
 30
0.0
 11
6.75
 21
-5.0
 31
0.0
  0
LINE
  8
DAMAN
  5
285
 10
14.25
 20
-5.0
 30
0.0
 11
14.25
 21
0.0
 31
0.0
  0
INSERT
  8
DAMAN
  5
286
  2
500MKCT
 10
6.75
 20
6.0
 30
0.0
  0
INSERT
  8
DAMAN
  5
287
  2
500MKCT
 10
14.25
 20
1.0
 30
0.0
 50
180.0
  0
INSERT
  8
DAMAN
  5
288
  2
500MKT
 10
22.563
 20
6.0
 30
0.0
  0
INSERT
  8
DAMAN
  5
289
  2
500MKT
 10
-1.563
 20
1.0
 30
0.0
 50
180.0
  0
INSERT
  8
DAMAN
  5
28A
  2
500MKS
 10
6.531
 20
-4.625
 30
0.0
  0
INSERT
  8
DAMAN
  5
28B
  2
500MKS
 10
14.469
 20
-4.625
 30
0.0
 41
-1.0
  0
INSERT
  8
DAMAN
  5
28C
  2
100NPTFT
 10
1.5
 20
2.75
 30
0.0
  0
TEXT
  8
DAMAN
  5
28D
 10
2.46875
 20
5.6875
 30
0.0
 40
0.2
  1
T
 50
270.0
  0
TEXT
  8
DAMAN
  5
28E
 10
18.59375
 20
5.6875
 30
0.0
 40
0.2
  1
T
 50
90.0
  0
TEXT
  8
DAMAN
  5
28F
 10
2.375
 20
1.78125
 30
0.0
 40
0.2
  1
P
 50
270.0
  0
TEXT
  8
DAMAN
  5
290
 10
18.84375
 20
1.625
 30
0.0
 40
0.2
  1
P
 50
90.0
  0
INSERT
  8
DAMAN
  5
291
  2
025NPTFT
 10
10.4375
 20
-3.062
 30
0.0
  0
TEXT
  8
DAMAN
  5
292
 10
10.75
 20
-2.687
 30
0.0
 40
0.2
  1
GA
  0
TEXT
  8
DAMAN
  5
293
 10
9.3125
 20
-1.84375
 30
0.0
 40
0.2
  1
DAMAN ****
  0
INSERT
  8
DAMAN
  5
294
  2
100NPTFT
 10
19.5
 20
2.75
 30
0.0
  0
INSERT
  8
DAMAN
  5
295
  2
100NPTFT
 10
8.781
 20
-1.0625
 30
0.0
  0
INSERT
  8
DAMAN
  5
296
  2
100NPTFT
 10
8.781
 20
-3.938
 30
0.0
  0
TEXT
  8
DAMAN
  5
297
 10
9.75
 20
-0.5
 30
0.0
 40
0.2
  1
B
  0
TEXT
  8
DAMAN
  5
298
 10
9.8125
 20
-3.46875
 30
0.0
 40
0.2
  1
A
  0
INSERT
  8
DAMAN
  5
299
  2
100NPTFT
 10
12.031
 20
-1.0625
 30
0.0
  0
TEXT
  8
DAMAN
  5
29A
 10
13.0
 20
-0.5
 30
0.0
 40
0.2
  1
B
  0
INSERT
  8
DAMAN
  5
29B
  2
100NPTFT
 10
12.031
 20
-3.938
 30
0.0
  0
TEXT
  8
DAMAN
  5
29C
 10
13.0625
 20
-3.46875
 30
0.0
 40
0.2
  1
A
  0
INSERT
  8
DAMAN
  5
29D
  2
125NPTFT
 10
1.5
 20
4.875
 30
0.0
  0
INSERT
  8
DAMAN
  5
29E
  2
125NPTFT
 10
19.5
 20
4.875
 30
0.0
  0
INSERT
  8
DAMAN
  5
29F
  2
D05
 10
7.9685
 20
4.34325
 30
0.0
  0
INSERT
  8
DAMAN
  5
2A0
  2
D05
 10
11.2185
 20
4.34325
 30
0.0
  0
LINE
  8
DAMAN
  5
2A1
 10
14.25
 20
7.0
 30
0.0
 11
6.75
 21
7.0
 31
0.0
  0
LINE
  8
DAMAN
  5
2A2
 10
14.25
 20
12.0
 30
0.0
 11
14.25
 21
7.0
 31
0.0
  0
INSERT
  8
DAMAN
  5
2A3
  2
500MKS
 10
14.469
 20
11.625
 30
0.0
 50
180.0
  0
LINE
  8
DAMAN
  5
2A4
 10
6.75
 20
12.0
 30
0.0
 11
14.25
 21
12.0
 31
0.0
  0
INSERT
  8
DAMAN
  5
2A5
  2
500MKS
 10
6.531
 20
11.625
 30
0.0
 41
-1.0
 50
180.0
  0
LINE
  8
DAMAN
  5
2A6
 10
6.75
 20
7.0
 30
0.0
 11
6.75
 21
12.0
 31
0.0
  0
INSERT
  8
DAMAN
  6
CENTER
 62
     5
  5
2A7
  2
100CROSS
 10
6.75
 20
1.0
 30
0.0
 41
0.246
 42
0.246
 43
0.0
  0
INSERT
  8
DAMAN
  5
2A8
  2
038NPTFT
 10
13.25
 20
-2.156
 30
0.0
  0
INSERT
  8
DAMAN
  5
2A9
  2
T16AT
 10
10.5
 20
10.75
 30
0.0
  0
CIRCLE
  8
DAMAN
  5
2AA
 10
6.75
 20
1.0
 30
0.0
 40
0.125
  0
CIRCLE
  8
DAMAN
  5
2AB
 10
9.344
 20
1.906
 30
0.0
 40
0.125
  0
INSERT
  8
DAMAN
  6
CENTER
 62
     5
  5
2AC
  2
100CROSS
 10
9.344
 20
1.906
 30
0.0
 41
0.246
 42
0.246
 43
0.0
  0
INSERT
  8
DAMAN
  6
CENTER
 62
     5
  5
2AD
  2
100CROSS
 10
12.594
 20
1.906
 30
0.0
 41
0.246
 42
0.246
 43
0.0
  0
CIRCLE
  8
DAMAN
  5
2AE
 10
12.594
 20
1.906
 30
0.0
 40
0.125
  0
INSERT
  8
DAMAN
  5
2AF
  2
038NPTFT
 10
7.75
 20
-2.156
 30
0.0
  0
TEXT
  8
DAMAN
  5
2B0
 10
7.1875
 20
-1.65625
 30
0.0
 40
0.2
  1
Y
  0
TEXT
  8
DAMAN
  5
2B1
 10
13.75
 20
-1.65625
 30
0.0
 40
0.2
  1
Y
  0
ENDBLK
  8
0
  5
2B2
  0
BLOCK
  8
0
  5
2B3
  2
MIBFC
 70
     0
 10
0.0
 20
0.0
 30
0.0
  3
MIBFC
  0
LINE
  8
DAMAN
  5
2B4
 10
-1.0
 20
1.0
 30
0.0
 11
4.0
 21
1.0
 31
0.0
  0
LINE
  8
DAMAN
  5
2B5
 10
4.0
 20
1.0
 30
0.0
 11
4.0
 21
6.0
 31
0.0
  0
LINE
  8
DAMAN
  5
2B6
 10
4.0
 20
6.0
 30
0.0
 11
-1.0
 21
6.0
 31
0.0
  0
LINE
  8
DAMAN
  6
HIDDEN
  5
2B7
 10
-1.0
 20
6.0
 30
0.0
 11
-1.0
 21
1.0
 31
0.0
  0
LINE
  8
DAMAN
  5
2B8
 10
6.75
 20
1.0
 30
0.0
 11
14.25
 21
1.0
 31
0.0
  0
LINE
  8
DAMAN
  5
2B9
 10
14.25
 20
1.0
 30
0.0
 11
14.25
 21
6.0
 31
0.0
  0
LINE
  8
DAMAN
  5
2BA
 10
14.25
 20
6.0
 30
0.0
 11
6.75
 21
6.0
 31
0.0
  0
LINE
  8
DAMAN
  5
2BB
 10
6.75
 20
6.0
 30
0.0
 11
6.75
 21
1.0
 31
0.0
  0
LINE
  8
DAMAN
  5
2BC
 10
17.0
 20
6.0
 30
0.0
 11
22.0
 21
6.0
 31
0.0
  0
LINE
  8
DAMAN
  5
2BD
 10
22.0
 20
1.0
 30
0.0
 11
17.0
 21
1.0
 31
0.0
  0
LINE
  8
DAMAN
  6
HIDDEN
  5
2BE
 10
22.0
 20
6.0
 30
0.0
 11
22.0
 21
1.0
 31
0.0
  0
LINE
  8
DAMAN
  5
2BF
 10
17.0
 20
1.0
 30
0.0
 11
17.0
 21
6.0
 31
0.0
  0
LINE
  8
DAMAN
  5
2C0
 10
14.25
 20
0.0
 30
0.0
 11
6.75
 21
0.0
 31
0.0
  0
LINE
  8
DAMAN
  5
2C1
 10
6.75
 20
-5.0
 30
0.0
 11
14.25
 21
-5.0
 31
0.0
  0
LINE
  8
DAMAN
  5
2C2
 10
6.75
 20
0.0
 30
0.0
 11
6.75
 21
-5.0
 31
0.0
  0
LINE
  8
DAMAN
  5
2C3
 10
14.25
 20
-5.0
 30
0.0
 11
14.25
 21
0.0
 31
0.0
  0
INSERT
  8
DAMAN
  5
2C4
  2
500MKCT
 10
6.75
 20
6.0
 30
0.0
  0
INSERT
  8
DAMAN
  5
2C5
  2
500MKCT
 10
14.25
 20
1.0
 30
0.0
 50
180.0
  0
INSERT
  8
DAMAN
  5
2C6
  2
500MKT
 10
22.563
 20
6.0
 30
0.0
  0
INSERT
  8
DAMAN
  5
2C7
  2
500MKT
 10
-1.563
 20
1.0
 30
0.0
 50
180.0
  0
INSERT
  8
DAMAN
  5
2C8
  2
500MKS
 10
6.531
 20
-4.625
 30
0.0
  0
INSERT
  8
DAMAN
  5
2C9
  2
500MKS
 10
14.469
 20
-4.625
 30
0.0
 41
-1.0
  0
INSERT
  8
DAMAN
  5
2CA
  2
100NPTFT
 10
1.5
 20
2.75
 30
0.0
  0
TEXT
  8
DAMAN
  5
2CB
 10
2.46875
 20
5.6875
 30
0.0
 40
0.2
  1
T
 50
270.0
  0
TEXT
  8
DAMAN
  5
2CC
 10
18.59375
 20
5.6875
 30
0.0
 40
0.2
  1
T
 50
90.0
  0
TEXT
  8
DAMAN
  5
2CD
 10
2.375
 20
1.78125
 30
0.0
 40
0.2
  1
P
 50
270.0
  0
TEXT
  8
DAMAN
  5
2CE
 10
18.84375
 20
1.625
 30
0.0
 40
0.2
  1
P
 50
90.0
  0
TEXT
  8
DAMAN
  5
2CF
 10
9.3125
 20
-1.84375
 30
0.0
 40
0.2
  1
DAMAN ****
  0
INSERT
  8
DAMAN
  5
2D0
  2
100NPTFT
 10
19.5
 20
2.75
 30
0.0
  0
INSERT
  8
DAMAN
  5
2D1
  2
100NPTFT
 10
8.781
 20
-1.0625
 30
0.0
  0
INSERT
  8
DAMAN
  5
2D2
  2
100NPTFT
 10
8.781
 20
-3.938
 30
0.0
  0
TEXT
  8
DAMAN
  5
2D3
 10
9.75
 20
-0.5
 30
0.0
 40
0.2
  1
B
  0
TEXT
  8
DAMAN
  5
2D4
 10
9.8125
 20
-3.46875
 30
0.0
 40
0.2
  1
A
  0
INSERT
  8
DAMAN
  5
2D5
  2
100NPTFT
 10
12.031
 20
-1.0625
 30
0.0
  0
TEXT
  8
DAMAN
  5
2D6
 10
13.0
 20
-0.5
 30
0.0
 40
0.2
  1
B
  0
INSERT
  8
DAMAN
  5
2D7
  2
100NPTFT
 10
12.031
 20
-3.938
 30
0.0
  0
TEXT
  8
DAMAN
  5
2D8
 10
13.0625
 20
-3.46875
 30
0.0
 40
0.2
  1
A
  0
INSERT
  8
DAMAN
  5
2D9
  2
125NPTFT
 10
1.5
 20
4.875
 30
0.0
  0
INSERT
  8
DAMAN
  5
2DA
  2
125NPTFT
 10
19.5
 20
4.875
 30
0.0
  0
INSERT
  8
DAMAN
  5
2DB
  2
D05
 10
7.9685
 20
4.34325
 30
0.0
  0
INSERT
  8
DAMAN
  5
2DC
  2
D05
 10
11.2185
 20
4.34325
 30
0.0
  0
LINE
  8
DAMAN
  5
2DD
 10
14.25
 20
7.0
 30
0.0
 11
6.75
 21
7.0
 31
0.0
  0
LINE
  8
DAMAN
  5
2DE
 10
14.25
 20
12.0
 30
0.0
 11
14.25
 21
7.0
 31
0.0
  0
INSERT
  8
DAMAN
  5
2DF
  2
500MKS
 10
14.469
 20
11.625
 30
0.0
 50
180.0
  0
LINE
  8
DAMAN
  5
2E0
 10
6.75
 20
12.0
 30
0.0
 11
14.25
 21
12.0
 31
0.0
  0
INSERT
  8
DAMAN
  5
2E1
  2
500MKS
 10
6.531
 20
11.625
 30
0.0
 41
-1.0
 50
180.0
  0
LINE
  8
DAMAN
  5
2E2
 10
6.75
 20
7.0
 30
0.0
 11
6.75
 21
12.0
 31
0.0
  0
INSERT
  8
DAMAN
  5
2E3
  2
C162T
 10
10.5
 20
10.875
 30
0.0
  0
ENDBLK
  8
0
  5
2E4
  0
ENDSEC
  0
SECTION
  2
ENTITIES
  0
LINE
  8
DAMAN
  5
1
 10
-1.0
 20
1.0
 30
0.0
 11
4.0
 21
1.0
 31
0.0
  0
LINE
  8
DAMAN
  5
2
 10
4.0
 20
1.0
 30
0.0
 11
4.0
 21
6.0
 31
0.0
  0
LINE
  8
DAMAN
  5
3
 10
4.0
 20
6.0
 30
0.0
 11
-1.0
 21
6.0
 31
0.0
  0
LINE
  8
DAMAN
  6
HIDDEN
  5
4
 10
-1.0
 20
6.0
 30
0.0
 11
-1.0
 21
1.0
 31
0.0
  0
LINE
  8
DAMAN
  5
5
 10
6.75
 20
1.0
 30
0.0
 11
17.5
 21
1.0
 31
0.0
  0
LINE
  8
DAMAN
  5
6
 10
17.5
 20
1.0
 30
0.0
 11
17.5
 21
6.0
 31
0.0
  0
LINE
  8
DAMAN
  5
7
 10
17.5
 20
6.0
 30
0.0
 11
6.75
 21
6.0
 31
0.0
  0
LINE
  8
DAMAN
  5
8
 10
6.75
 20
6.0
 30
0.0
 11
6.75
 21
1.0
 31
0.0
  0
LINE
  8
DAMAN
  5
9
 10
20.25
 20
6.0
 30
0.0
 11
25.25
 21
6.0
 31
0.0
  0
LINE
  8
DAMAN
  5
A
 10
25.25
 20
1.0
 30
0.0
 11
20.25
 21
1.0
 31
0.0
  0
LINE
  8
DAMAN
  6
HIDDEN
  5
B
 10
25.25
 20
6.0
 30
0.0
 11
25.25
 21
1.0
 31
0.0
  0
LINE
  8
DAMAN
  5
C
 10
20.25
 20
1.0
 30
0.0
 11
20.25
 21
6.0
 31
0.0
  0
LINE
  8
DAMAN
  5
D
 10
17.5
 20
0.0
 30
0.0
 11
6.75
 21
0.0
 31
0.0
  0
LINE
  8
DAMAN
  5
E
 10
6.75
 20
-5.0
 30
0.0
 11
17.5
 21
-5.0
 31
0.0
  0
LINE
  8
DAMAN
  5
F
 10
6.75
 20
0.0
 30
0.0
 11
6.75
 21
-5.0
 31
0.0
  0
LINE
  8
DAMAN
  5
10
 10
17.5
 20
-5.0
 30
0.0
 11
17.5
 21
0.0
 31
0.0
  0
INSERT
  8
DAMAN
  5
11
  2
500MKCT
 10
6.75
 20
6.0
 30
0.0
  0
INSERT
  8
DAMAN
  5
12
  2
500MKCT
 10
17.5
 20
1.0
 30
0.0
 50
180.0
  0
INSERT
  8
DAMAN
  5
13
  2
500MKT
 10
25.813
 20
6.0
 30
0.0
  0
INSERT
  8
DAMAN
  5
14
  2
500MKT
 10
-1.563
 20
1.0
 30
0.0
 50
180.0
  0
INSERT
  8
DAMAN
  5
15
  2
500MKS
 10
6.531
 20
-4.625
 30
0.0
  0
INSERT
  8
DAMAN
  5
16
  2
500MKS
 10
17.719
 20
-4.625
 30
0.0
 41
-1.0
  0
TEXT
  8
DAMAN
  5
17
 10
2.46875
 20
5.6875
 30
0.0
 40
0.2
  1
T
 50
270.0
  0
TEXT
  8
DAMAN
  5
18
 10
21.84375
 20
5.6875
 30
0.0
 40
0.2
  1
T
 50
90.0
  0
TEXT
  8
DAMAN
  5
19
 10
2.375
 20
1.78125
 30
0.0
 40
0.2
  1
P
 50
270.0
  0
TEXT
  8
DAMAN
  5
1A
 10
22.09375
 20
1.625
 30
0.0
 40
0.2
  1
P
 50
90.0
  0
TEXT
  8
DAMAN
  5
1B
 10
9.375
 20
-2.03125
 30
0.0
 40
0.2
  1
DAMAN ****
  0
TEXT
  8
DAMAN
  5
1C
 10
9.75
 20
-0.5
 30
0.0
 40
0.2
  1
B
  0
TEXT
  8
DAMAN
  5
1D
 10
9.8125
 20
-3.46875
 30
0.0
 40
0.2
  1
A
  0
TEXT
  8
DAMAN
  5
1E
 10
13.0
 20
-0.5
 30
0.0
 40
0.2
  1
B
  0
TEXT
  8
DAMAN
  5
1F
 10
13.0625
 20
-3.46875
 30
0.0
 40
0.2
  1
A
  0
INSERT
  8
DAMAN
  5
20
  2
D05
 10
7.9685
 20
4.90575
 30
0.0
  0
INSERT
  8
DAMAN
  5
21
  2
D05
 10
11.2185
 20
4.90575
 30
0.0
  0
LINE
  8
DAMAN
  5
22
 10
17.5
 20
7.0
 30
0.0
 11
6.75
 21
7.0
 31
0.0
  0
LINE
  8
DAMAN
  5
23
 10
17.5
 20
12.0
 30
0.0
 11
17.5
 21
7.0
 31
0.0
  0
INSERT
  8
DAMAN
  5
24
  2
500MKS
 10
17.719
 20
11.625
 30
0.0
 50
180.0
  0
LINE
  8
DAMAN
  5
25
 10
6.75
 20
12.0
 30
0.0
 11
17.5
 21
12.0
 31
0.0
  0
INSERT
  8
DAMAN
  5
26
  2
500MKS
 10
6.531
 20
11.625
 30
0.0
 41
-1.0
 50
180.0
  0
LINE
  8
DAMAN
  5
27
 10
6.75
 20
7.0
 30
0.0
 11
6.75
 21
12.0
 31
0.0
  0
INSERT
  8
DAMAN
  5
28
  2
20SAET
 10
1.5
 20
4.875
 30
0.0
  0
INSERT
  8
DAMAN
  5
29
  2
20SAET
 10
22.75
 20
4.875
 30
0.0
  0
INSERT
  8
DAMAN
  5
2A
  2
16SAET
 10
1.5
 20
2.75
 30
0.0
  0
INSERT
  8
DAMAN
  5
2B
  2
16SAET
 10
8.781
 20
-1.0625
 30
0.0
  0
INSERT
  8
DAMAN
  5
2C
  2
16SAET
 10
8.781
 20
-3.938
 30
0.0
  0
INSERT
  8
DAMAN
  5
2D
  2
16SAET
 10
12.031
 20
-1.0625
 30
0.0
  0
INSERT
  8
DAMAN
  5
2E
  2
16SAET
 10
12.031
 20
-3.938
 30
0.0
  0
INSERT
  8
DAMAN
  5
2F
  2
16SAET
 10
22.75
 20
2.75
 30
0.0
  0
INSERT
  8
DAMAN
  5
30
  2
06SAET
 10
10.438
 20
-3.0625
 30
0.0
  0
TEXT
  8
DAMAN
  5
31
 10
11.0625
 20
-2.65625
 30
0.0
 40
0.2
  1
GA
  0
INSERT
  8
DAMAN
  5
32
  2
C162T
 10
10.5
 20
10.875
 30
0.0
  0
CIRCLE
  8
DAMAN
  5
33
 10
8.781
 20
-1.0625
 30
0.0
 40
0.21875
  0
CIRCLE
  8
DAMAN
  5
34
 10
12.031
 20
-1.0625
 30
0.0
 40
0.21875
  0
INSERT
  8
DAMAN
  5
2E5
  2
D05
 10
14.4685
 20
4.90575
 30
0.0
  0
CIRCLE
  8
DAMAN
  5
2E6
 10
15.281
 20
-1.0625
 30
0.0
 40
0.21875
  0
INSERT
  8
DAMAN
  5
2E7
  2
16SAET
 10
15.281
 20
-1.0625
 30
0.0
  0
INSERT
  8
DAMAN
  5
2E8
  2
16SAET
 10
15.281
 20
-3.938
 30
0.0
  0
TEXT
  8
DAMAN
  5
2E9
 10
16.3125
 20
-3.46875
 30
0.0
 40
0.2
  1
A
  0
TEXT
  8
DAMAN
  5
2EA
 10
16.25
 20
-0.5
 30
0.0
 40
0.2
  1
B
  0
ENDSEC
  0
EOF
