  0
SECTION
  2
HEADER
  9
$ACADVER
  1
AC1014
  9
$ACADMAINTVER
 70
     9
  9
$DWGCODEPAGE
  3
ANSI_1252
  9
$INSBASE
 10
0.0
 20
0.0
 30
0.0
  9
$EXTMIN
 10
6.419307407701339
 20
5.781114628414634
 30
-0.0015258207003583
  9
$EXTMAX
 10
23.14383132601034
 20
18.65681938700502
 30
0.0000000349246037
  9
$LIMMIN
 10
0.0
 20
0.0
  9
$LIMMAX
 10
12.0
 20
9.0
  9
$ORTHOMODE
 70
     0
  9
$REGENMODE
 70
     1
  9
$FILLMODE
 70
     1
  9
$QTEXTMODE
 70
     0
  9
$MIRRTEXT
 70
     1
  9
$DRAGMODE
 70
     2
  9
$LTSCALE
 40
1.0
  9
$OSMODE
 70
    37
  9
$ATTMODE
 70
     1
  9
$TEXTSIZE
 40
0.188
  9
$TRACEWID
 40
0.05
  9
$TEXTSTYLE
  7
STANDARD
  9
$CLAYER
  8
DAMAN
  9
$CELTYPE
  6
BYLAYER
  9
$CECOLOR
 62
   256
  9
$CELTSCALE
 40
1.0
  9
$DELOBJ
 70
     1
  9
$DISPSILH
 70
     0
  9
$DIMSCALE
 40
1.0
  9
$DIMASZ
 40
0.18
  9
$DIMEXO
 40
0.0625
  9
$DIMDLI
 40
0.38
  9
$DIMRND
 40
0.0
  9
$DIMDLE
 40
0.0
  9
$DIMEXE
 40
0.18
  9
$DIMTP
 40
0.0
  9
$DIMTM
 40
0.0
  9
$DIMTXT
 40
0.18
  9
$DIMCEN
 40
0.09
  9
$DIMTSZ
 40
0.0
  9
$DIMTOL
 70
     0
  9
$DIMLIM
 70
     0
  9
$DIMTIH
 70
     1
  9
$DIMTOH
 70
     1
  9
$DIMSE1
 70
     0
  9
$DIMSE2
 70
     0
  9
$DIMTAD
 70
     0
  9
$DIMZIN
 70
     0
  9
$DIMBLK
  1

  9
$DIMASO
 70
     1
  9
$DIMSHO
 70
     1
  9
$DIMPOST
  1

  9
$DIMAPOST
  1

  9
$DIMALT
 70
     0
  9
$DIMALTD
 70
     2
  9
$DIMALTF
 40
25.4
  9
$DIMLFAC
 40
1.0
  9
$DIMTOFL
 70
     0
  9
$DIMTVP
 40
0.0
  9
$DIMTIX
 70
     0
  9
$DIMSOXD
 70
     0
  9
$DIMSAH
 70
     0
  9
$DIMBLK1
  1

  9
$DIMBLK2
  1

  9
$DIMSTYLE
  2
STANDARD
  9
$DIMCLRD
 70
     0
  9
$DIMCLRE
 70
     0
  9
$DIMCLRT
 70
     0
  9
$DIMTFAC
 40
1.0
  9
$DIMGAP
 40
0.09
  9
$DIMJUST
 70
     0
  9
$DIMSD1
 70
     0
  9
$DIMSD2
 70
     0
  9
$DIMTOLJ
 70
     1
  9
$DIMTZIN
 70
     0
  9
$DIMALTZ
 70
     0
  9
$DIMALTTZ
 70
     0
  9
$DIMFIT
 70
     3
  9
$DIMUPT
 70
     0
  9
$DIMUNIT
 70
     2
  9
$DIMDEC
 70
     4
  9
$DIMTDEC
 70
     4
  9
$DIMALTU
 70
     2
  9
$DIMALTTD
 70
     2
  9
$DIMTXSTY
  7
STANDARD
  9
$DIMAUNIT
 70
     0
  9
$LUNITS
 70
     2
  9
$LUPREC
 70
     4
  9
$SKETCHINC
 40
0.1
  9
$FILLETRAD
 40
0.0
  9
$AUNITS
 70
     0
  9
$AUPREC
 70
     0
  9
$MENU
  1
tom
  9
$ELEVATION
 40
0.0
  9
$PELEVATION
 40
0.0
  9
$THICKNESS
 40
0.0
  9
$LIMCHECK
 70
     0
  9
$BLIPMODE
 70
     0
  9
$CHAMFERA
 40
0.0
  9
$CHAMFERB
 40
0.0
  9
$CHAMFERC
 40
0.0
  9
$CHAMFERD
 40
0.0
  9
$SKPOLY
 70
     0
  9
$TDCREATE
 40
2449742.601276470
  9
$TDUPDATE
 40
2453425.471244282
  9
$TDINDWG
 40
0.0086198843
  9
$TDUSRTIMER
 40
0.0086197106
  9
$USRTIMER
 70
     1
  9
$ANGBASE
 50
0.0
  9
$ANGDIR
 70
     0
  9
$PDMODE
 70
     0
  9
$PDSIZE
 40
0.0
  9
$PLINEWID
 40
0.0
  9
$COORDS
 70
     1
  9
$SPLFRAME
 70
     0
  9
$SPLINETYPE
 70
     6
  9
$SPLINESEGS
 70
     8
  9
$ATTDIA
 70
     0
  9
$ATTREQ
 70
     1
  9
$HANDLING
 70
-16383
  9
$HANDSEED
  5
21D
  9
$SURFTAB1
 70
     6
  9
$SURFTAB2
 70
     6
  9
$SURFTYPE
 70
     6
  9
$SURFU
 70
     6
  9
$SURFV
 70
     6
  9
$UCSNAME
  2

  9
$UCSORG
 10
0.0
 20
0.0
 30
0.0
  9
$UCSXDIR
 10
1.0
 20
0.0
 30
0.0
  9
$UCSYDIR
 10
0.0
 20
1.0
 30
0.0
  9
$PUCSNAME
  2

  9
$PUCSORG
 10
0.0
 20
0.0
 30
0.0
  9
$PUCSXDIR
 10
1.0
 20
0.0
 30
0.0
  9
$PUCSYDIR
 10
0.0
 20
1.0
 30
0.0
  9
$USERI1
 70
     0
  9
$USERI2
 70
     0
  9
$USERI3
 70
     0
  9
$USERI4
 70
     0
  9
$USERI5
 70
     0
  9
$USERR1
 40
0.0
  9
$USERR2
 40
0.0
  9
$USERR3
 40
0.0
  9
$USERR4
 40
0.0
  9
$USERR5
 40
0.0
  9
$WORLDVIEW
 70
     1
  9
$SHADEDGE
 70
     3
  9
$SHADEDIF
 70
    70
  9
$TILEMODE
 70
     1
  9
$MAXACTVP
 70
    16
  9
$PINSBASE
 10
0.0
 20
0.0
 30
0.0
  9
$PLIMCHECK
 70
     0
  9
$PEXTMIN
 10
1.000000000000000E+20
 20
1.000000000000000E+20
 30
1.000000000000000E+20
  9
$PEXTMAX
 10
-1.000000000000000E+20
 20
-1.000000000000000E+20
 30
-1.000000000000000E+20
  9
$PLIMMIN
 10
0.0
 20
0.0
  9
$PLIMMAX
 10
12.0
 20
9.0
  9
$UNITMODE
 70
     0
  9
$VISRETAIN
 70
     0
  9
$PLINEGEN
 70
     0
  9
$PSLTSCALE
 70
     1
  9
$TREEDEPTH
 70
  3020
  9
$PICKSTYLE
 70
     1
  9
$CMLSTYLE
  2
STANDARD
  9
$CMLJUST
 70
     0
  9
$CMLSCALE
 40
1.0
  9
$PROXYGRAPHICS
 70
     1
  9
$MEASUREMENT
 70
     0
  0
ENDSEC
  0
SECTION
  2
CLASSES
  0
CLASS
  1
ACDBDICTIONARYWDFLT
  2
AcDbDictionaryWithDefault
  3
AutoCAD 2000
 90
        0
280
     0
281
     0
  0
CLASS
  1
ACDBPLACEHOLDER
  2
AcDbPlaceHolder
  3
AutoCAD 2000
 90
        0
280
     0
281
     0
  0
CLASS
  1
LAYOUT
  2
AcDbLayout
  3
AutoCAD 2000
 90
        0
280
     0
281
     0
  0
CLASS
  1
LONG_TRANSACTION
  2
AcDbLongTransaction
  3
AutoCAD 2000
 90
        0
280
     0
281
     0
  0
CLASS
  1
LWPOLYLINE
  2
AcDbPolyline
  3
AutoCAD 2000
 90
        0
280
     0
281
     1
  0
CLASS
  1
HATCH
  2
AcDbHatch
  3
AutoCAD 2000
 90
        0
280
     0
281
     1
  0
CLASS
  1
XRECORD
  2
AcDbXrecord
  3
AutoCAD 2000
 90
        0
280
     0
281
     0
  0
ENDSEC
  0
SECTION
  2
TABLES
  0
TABLE
  2
VPORT
  5
8
330
0
100
AcDbSymbolTable
 70
     3
  0
VPORT
  5
1F8
330
8
100
AcDbSymbolTableRecord
100
AcDbViewportTableRecord
  2
*ACTIVE
 70
     0
 10
0.0
 20
0.0
 11
1.0
 21
1.0
 12
14.89449988418917
 22
12.23086696174543
 13
0.0
 23
0.0
 14
0.03125
 24
0.03125
 15
0.0
 25
0.0
 16
0.0
 26
0.0
 36
1.0
 17
0.0
 27
0.0
 37
0.0
 40
14.29821575307999
 41
1.647569444444444
 42
50.0
 43
0.0
 44
0.0
 50
0.0
 51
0.0
 71
     0
 72
   100
 73
     1
 74
     1
 75
     0
 76
     0
 77
     0
 78
     0
  0
ENDTAB
  0
TABLE
  2
LTYPE
  5
5
330
0
100
AcDbSymbolTable
 70
     4
  0
LTYPE
  5
13
330
5
100
AcDbSymbolTableRecord
100
AcDbLinetypeTableRecord
  2
BYBLOCK
 70
     0
  3

 72
    65
 73
     0
 40
0.0
  0
LTYPE
  5
14
330
5
100
AcDbSymbolTableRecord
100
AcDbLinetypeTableRecord
  2
BYLAYER
 70
     0
  3

 72
    65
 73
     0
 40
0.0
  0
LTYPE
  5
15
330
5
100
AcDbSymbolTableRecord
100
AcDbLinetypeTableRecord
  2
CONTINUOUS
 70
     0
  3
Solid line
 72
    65
 73
     0
 40
0.0
  0
LTYPE
  5
24
330
5
100
AcDbSymbolTableRecord
100
AcDbLinetypeTableRecord
  2
HIDDEN
 70
     0
  3
_ _ _ _ _ _ _ _ _ _ _ _ _ _ _ _ _ _ _ _ _ _ _
 72
    65
 73
     2
 40
0.375
 49
0.25
 74
     0
 49
-0.125
 74
     0
  0
LTYPE
  5
25
330
5
100
AcDbSymbolTableRecord
100
AcDbLinetypeTableRecord
  2
CENTER
 70
     0
  3
____ _ ____ _ ____ _ ____ _ ____ _ ____ _ ____
 72
    65
 73
     4
 40
2.0
 49
1.25
 74
     0
 49
-0.25
 74
     0
 49
0.25
 74
     0
 49
-0.25
 74
     0
  0
LTYPE
  5
26
330
5
100
AcDbSymbolTableRecord
100
AcDbLinetypeTableRecord
  2
PHANTOM
 70
     0
  3
_____ _ _ _____ _ _ _____ _ _ _____ _ _ ____
 72
    65
 73
     6
 40
2.5
 49
1.25
 74
     0
 49
-0.25
 74
     0
 49
0.25
 74
     0
 49
-0.25
 74
     0
 49
0.25
 74
     0
 49
-0.25
 74
     0
  0
ENDTAB
  0
TABLE
  2
LAYER
  5
2
330
0
100
AcDbSymbolTable
 70
     9
  0
LAYER
  5
10
330
2
100
AcDbSymbolTableRecord
100
AcDbLayerTableRecord
  2
0
 70
     0
 62
     7
  6
CONTINUOUS
  0
LAYER
  5
22
330
2
100
AcDbSymbolTableRecord
100
AcDbLayerTableRecord
  2
DAMAN
 70
     0
 62
     5
  6
CONTINUOUS
  0
LAYER
  5
27
330
2
100
AcDbSymbolTableRecord
100
AcDbLayerTableRecord
  2
SOLID
 70
     0
 62
     4
  6
CONTINUOUS
  0
LAYER
  5
28
330
2
100
AcDbSymbolTableRecord
100
AcDbLayerTableRecord
  2
CSOLID
 70
     0
 62
     3
  6
CONTINUOUS
  0
LAYER
  5
29
330
2
100
AcDbSymbolTableRecord
100
AcDbLayerTableRecord
  2
CDIM
 70
     0
 62
     2
  6
CONTINUOUS
  0
LAYER
  5
2A
330
2
100
AcDbSymbolTableRecord
100
AcDbLayerTableRecord
  2
BORDER
 70
     0
 62
     7
  6
CONTINUOUS
  0
LAYER
  5
2B
330
2
100
AcDbSymbolTableRecord
100
AcDbLayerTableRecord
  2
CHIDDEN
 70
     0
 62
     3
  6
HIDDEN
  0
LAYER
  5
2C
330
2
100
AcDbSymbolTableRecord
100
AcDbLayerTableRecord
  2
CCENTER
 70
     0
 62
     4
  6
CENTER
  0
LAYER
  5
2D
330
2
100
AcDbSymbolTableRecord
100
AcDbLayerTableRecord
  2
PHANTOM
 70
     0
 62
     1
  6
PHANTOM
  0
ENDTAB
  0
TABLE
  2
STYLE
  5
3
330
0
100
AcDbSymbolTable
 70
     2
  0
STYLE
  5
11
330
3
100
AcDbSymbolTableRecord
100
AcDbTextStyleTableRecord
  2
STANDARD
 70
     0
 40
0.0
 41
1.0
 50
0.0
 71
     0
 42
0.188
  3
txt
  4

  0
STYLE
  5
2E
330
3
100
AcDbSymbolTableRecord
100
AcDbTextStyleTableRecord
  2
STR
 70
     0
 40
0.0
 41
1.0
 50
0.0
 71
     0
 42
0.25
  3
SIMPLEX
  4

  0
ENDTAB
  0
TABLE
  2
VIEW
  5
6
330
0
100
AcDbSymbolTable
 70
     0
  0
ENDTAB
  0
TABLE
  2
UCS
  5
7
330
0
100
AcDbSymbolTable
 70
     0
  0
ENDTAB
  0
TABLE
  2
APPID
  5
9
330
0
100
AcDbSymbolTable
 70
     1
  0
APPID
  5
12
330
9
100
AcDbSymbolTableRecord
100
AcDbRegAppTableRecord
  2
ACAD
 70
     0
  0
ENDTAB
  0
TABLE
  2
DIMSTYLE
  5
A
330
0
100
AcDbSymbolTable
 70
     1
  0
DIMSTYLE
105
1F6
330
A
100
AcDbSymbolTableRecord
100
AcDbDimStyleTableRecord
  2
STANDARD
 70
     0
  3

  4

  5

  6

  7

 40
1.0
 41
0.18
 42
0.0625
 43
0.38
 44
0.18
 45
0.0
 46
0.0
 47
0.0
 48
0.0
140
0.18
141
0.09
142
0.0
143
25.4
144
1.0
145
0.0
146
1.0
147
0.09
 71
     0
 72
     0
 73
     1
 74
     1
 75
     0
 76
     0
 77
     0
 78
     0
170
     0
171
     2
172
     0
173
     0
174
     0
175
     0
176
     0
177
     0
178
     0
270
     2
271
     4
272
     4
273
     2
274
     2
340
11
275
     0
280
     0
281
     0
282
     0
283
     1
284
     0
285
     0
286
     0
287
     3
288
     0
  0
ENDTAB
  0
TABLE
  2
BLOCK_RECORD
  5
1
330
0
100
AcDbSymbolTable
 70
     8
  0
BLOCK_RECORD
  5
1E
102
{ACAD_XDICTIONARY
360
21B
102
}
330
1
100
AcDbSymbolTableRecord
100
AcDbBlockTableRecord
  2
*MODEL_SPACE
  0
BLOCK_RECORD
  5
1A
102
{ACAD_XDICTIONARY
360
219
102
}
330
1
100
AcDbSymbolTableRecord
100
AcDbBlockTableRecord
  2
*PAPER_SPACE
  0
BLOCK_RECORD
  5
31
330
1
100
AcDbSymbolTableRecord
100
AcDbBlockTableRecord
  2
D02HSPRV
  0
BLOCK_RECORD
  5
33
330
1
100
AcDbSymbolTableRecord
100
AcDbBlockTableRecord
  2
100CROSS
  0
BLOCK_RECORD
  5
38
330
1
100
AcDbSymbolTableRecord
100
AcDbBlockTableRecord
  2
BOX
  0
BLOCK_RECORD
  5
44
330
1
100
AcDbSymbolTableRecord
100
AcDbBlockTableRecord
  2
SUNT3AT
  0
BLOCK_RECORD
  5
49
330
1
100
AcDbSymbolTableRecord
100
AcDbBlockTableRecord
  2
106SAET
  0
BLOCK_RECORD
  5
168
330
1
100
AcDbSymbolTableRecord
100
AcDbBlockTableRecord
  2
050CROSS
  0
BLOCK_RECORD
  5
189
330
1
100
AcDbSymbolTableRecord
100
AcDbBlockTableRecord
  2
12SAET
  0
BLOCK_RECORD
  5
191
330
1
100
AcDbSymbolTableRecord
100
AcDbBlockTableRecord
  2
T3AT
  0
ENDTAB
  0
ENDSEC
  0
SECTION
  2
BLOCKS
  0
BLOCK
  5
1F
330
1E
100
AcDbEntity
  8
0
100
AcDbBlockBegin
  2
*MODEL_SPACE
 70
     0
 10
0.0
 20
0.0
 30
0.0
  3
*MODEL_SPACE
  1

  0
ENDBLK
  5
20
330
1E
100
AcDbEntity
  8
0
100
AcDbBlockEnd
  0
BLOCK
  5
1B
330
1A
100
AcDbEntity
 67
     1
  8
0
100
AcDbBlockBegin
  2
*PAPER_SPACE
 70
     0
 10
0.0
 20
0.0
 30
0.0
  3
*PAPER_SPACE
  1

  0
ENDBLK
  5
1C
330
1A
100
AcDbEntity
 67
     1
  8
0
100
AcDbBlockEnd
  0
BLOCK
  5
32
330
31
100
AcDbEntity
  8
0
100
AcDbBlockBegin
  2
D02HSPRV
 70
     0
 10
0.0
 20
0.0
 30
0.0
  3
D02HSPRV
  1

  0
INSERT
  5
34
330
31
100
AcDbEntity
  8
CCENTER
100
AcDbBlockReference
  2
100CROSS
 10
7.5
 20
12.625
 30
0.0
 41
0.188
 42
0.188
  0
CIRCLE
  5
35
330
31
100
AcDbEntity
  8
CSOLID
100
AcDbCircle
 10
7.5
 20
12.625
 30
0.0
 40
0.094
  0
CIRCLE
  5
36
330
31
100
AcDbEntity
  8
CSOLID
100
AcDbCircle
 10
7.5
 20
9.875
 30
0.0
 40
0.094
  0
INSERT
  5
37
330
31
100
AcDbEntity
  8
CCENTER
100
AcDbBlockReference
  2
100CROSS
 10
7.5
 20
9.875
 30
0.0
 41
0.188
 42
0.188
  0
INSERT
  5
39
330
31
100
AcDbEntity
  8
BORDER
100
AcDbBlockReference
  2
BOX
 10
5.25
 20
9.0
 30
0.0
 41
4.0
 42
4.625
  0
INSERT
  5
3A
330
31
100
AcDbEntity
  8
BORDER
100
AcDbBlockReference
  2
BOX
 10
5.25
 20
2.75
 30
0.0
 41
4.0
 42
3.0
  0
INSERT
  5
3B
330
31
100
AcDbEntity
  8
BORDER
100
AcDbBlockReference
  2
BOX
 10
5.25
 20
16.625
 30
0.0
 41
4.0
 42
3.0
  0
INSERT
  5
3C
330
31
100
AcDbEntity
  8
BORDER
100
AcDbBlockReference
  2
BOX
 10
14.5
 20
9.0
 30
0.0
 41
3.0
 42
4.625
  0
INSERT
  5
3D
330
31
100
AcDbEntity
  8
BORDER
100
AcDbBlockReference
  2
BOX
 10
22.74999999999999
 20
9.0
 30
0.0
 41
4.0
 42
4.625
  0
INSERT
  5
3E
330
31
100
AcDbEntity
  8
CCENTER
100
AcDbBlockReference
  2
100CROSS
 10
5.625
 20
13.25
 30
0.0
 41
0.6
 42
0.6
  0
CIRCLE
  5
3F
330
31
100
AcDbEntity
  8
CSOLID
100
AcDbCircle
 10
5.625
 20
13.25
 30
0.0
 40
0.203
  0
CIRCLE
  5
40
330
31
100
AcDbEntity
  8
CSOLID
100
AcDbCircle
 10
5.625
 20
13.25
 30
0.0
 40
0.3125
  0
CIRCLE
  5
41
330
31
100
AcDbEntity
  8
CSOLID
100
AcDbCircle
 10
8.875
 20
9.375
 30
0.0
 40
0.3125
  0
CIRCLE
  5
42
330
31
100
AcDbEntity
  8
CSOLID
100
AcDbCircle
 10
8.875
 20
9.375
 30
0.0
 40
0.203
  0
INSERT
  5
43
330
31
100
AcDbEntity
  8
CCENTER
100
AcDbBlockReference
  2
100CROSS
 10
8.875
 20
9.375
 30
0.0
 41
0.6
 42
0.6
  0
INSERT
  5
45
330
31
100
AcDbEntity
  8
CDIM
100
AcDbBlockReference
  2
SUNT3AT
 10
7.6875
 20
18.6875
 30
0.0
  0
CIRCLE
  5
46
330
31
100
AcDbEntity
  8
CSOLID
100
AcDbCircle
 10
23.125
 20
9.375
 30
0.0
 40
0.203
  0
INSERT
  5
47
330
31
100
AcDbEntity
  8
CCENTER
100
AcDbBlockReference
  2
100CROSS
 10
26.375
 20
13.25
 30
0.0
 41
0.45
 42
0.45
  0
CIRCLE
  5
48
330
31
100
AcDbEntity
  8
CSOLID
100
AcDbCircle
 10
26.375
 20
13.25
 30
0.0
 40
0.203
  0
INSERT
  5
4A
330
31
100
AcDbEntity
  8
SOLID
100
AcDbBlockReference
  2
106SAET
 10
15.5625
 20
12.8125
 30
0.0
  0
INSERT
  5
4B
330
31
100
AcDbEntity
  8
SOLID
100
AcDbBlockReference
  2
106SAET
 10
15.375
 20
10.6875
 30
0.0
  0
CIRCLE
  5
4C
330
31
100
AcDbEntity
  8
CSOLID
100
AcDbCircle
 10
25.6875
 20
12.25
 30
0.0
 40
0.8125
  0
INSERT
  5
4D
330
31
100
AcDbEntity
  8
CCENTER
100
AcDbBlockReference
  2
100CROSS
 10
25.6875
 20
12.25
 30
0.0
 41
1.33
 42
1.33
  0
CIRCLE
  5
4E
330
31
100
AcDbEntity
  8
CHIDDEN
100
AcDbCircle
 10
25.6875
 20
12.25
 30
0.0
 40
0.53125
  0
CIRCLE
  5
4F
330
31
100
AcDbEntity
  8
CSOLID
100
AcDbCircle
 10
24.3125
 20
11.125
 30
0.0
 40
0.4920000000000001
  0
CIRCLE
  5
50
330
31
100
AcDbEntity
  8
CSOLID
100
AcDbCircle
 10
24.3125
 20
11.125
 30
0.0
 40
0.453
  0
CIRCLE
  5
51
330
31
100
AcDbEntity
  8
CSOLID
100
AcDbCircle
 10
24.3125
 20
11.125
 30
0.0
 40
0.8125
  0
INSERT
  5
52
330
31
100
AcDbEntity
  8
CCENTER
100
AcDbBlockReference
  2
100CROSS
 10
24.3125
 20
11.125
 30
0.0
 41
1.33
 42
1.33
  0
CIRCLE
  5
53
330
31
100
AcDbEntity
  8
CHIDDEN
100
AcDbCircle
 10
24.3125
 20
11.125
 30
0.0
 40
0.53125
  0
INSERT
  5
54
330
31
100
AcDbEntity
  8
CCENTER
100
AcDbBlockReference
  2
100CROSS
 10
7.843999999999999
 20
9.75
 30
0.0
 41
0.188
 42
0.188
  0
CIRCLE
  5
55
330
31
100
AcDbEntity
  8
CSOLID
100
AcDbCircle
 10
7.843999999999999
 20
9.75
 30
0.0
 40
0.09375
  0
CIRCLE
  5
56
330
31
100
AcDbEntity
  8
CSOLID
100
AcDbCircle
 10
6.218999999999999
 20
12.75
 30
0.0
 40
0.09375
  0
INSERT
  5
57
330
31
100
AcDbEntity
  8
CCENTER
100
AcDbBlockReference
  2
100CROSS
 10
6.218999999999999
 20
12.75
 30
0.0
 41
0.188
 42
0.188
  0
INSERT
  5
58
330
31
100
AcDbEntity
  8
CCENTER
100
AcDbBlockReference
  2
100CROSS
 10
6.125
 20
12.3125
 30
0.0
 41
0.25
 42
0.25
  0
CIRCLE
  5
59
330
31
100
AcDbEntity
  8
CSOLID
100
AcDbCircle
 10
6.125
 20
12.3125
 30
0.0
 40
0.1055
  0
CIRCLE
  5
5A
330
31
100
AcDbEntity
  8
CSOLID
100
AcDbCircle
 10
6.125
 20
10.1875
 30
0.0
 40
0.1055
  0
INSERT
  5
5B
330
31
100
AcDbEntity
  8
CCENTER
100
AcDbBlockReference
  2
100CROSS
 10
6.125
 20
10.1875
 30
0.0
 41
0.25
 42
0.25
  0
CIRCLE
  5
5C
330
31
100
AcDbEntity
  8
CSOLID
100
AcDbCircle
 10
7.9375
 20
12.3125
 30
0.0
 40
0.1055
  0
INSERT
  5
5D
330
31
100
AcDbEntity
  8
CCENTER
100
AcDbBlockReference
  2
100CROSS
 10
7.9375
 20
12.3125
 30
0.0
 41
0.25
 42
0.25
  0
CIRCLE
  5
5E
330
31
100
AcDbEntity
  8
CSOLID
100
AcDbCircle
 10
7.9375
 20
10.1875
 30
0.0
 40
0.1055
  0
INSERT
  5
5F
330
31
100
AcDbEntity
  8
CCENTER
100
AcDbBlockReference
  2
100CROSS
 10
7.9375
 20
10.1875
 30
0.0
 41
0.25
 42
0.25
  0
INSERT
  5
60
330
31
100
AcDbEntity
  8
CCENTER
100
AcDbBlockReference
  2
100CROSS
 10
6.656
 20
12.1875
 30
0.0
 41
0.4379999999999999
 42
0.4379999999999999
  0
CIRCLE
  5
61
330
31
100
AcDbEntity
  8
CSOLID
100
AcDbCircle
 10
6.656
 20
12.1875
 30
0.0
 40
0.21875
  0
CIRCLE
  5
62
330
31
100
AcDbEntity
  8
CSOLID
100
AcDbCircle
 10
7.093499999999999
 20
11.6565
 30
0.0
 40
0.21875
  0
INSERT
  5
63
330
31
100
AcDbEntity
  8
CCENTER
100
AcDbBlockReference
  2
100CROSS
 10
7.093499999999999
 20
11.6565
 30
0.0
 41
0.4379999999999999
 42
0.4379999999999999
  0
INSERT
  5
64
330
31
100
AcDbEntity
  8
CCENTER
100
AcDbBlockReference
  2
100CROSS
 10
7.093499999999999
 20
10.844
 30
0.0
 41
0.4379999999999999
 42
0.4379999999999999
  0
CIRCLE
  5
65
330
31
100
AcDbEntity
  8
CSOLID
100
AcDbCircle
 10
7.093499999999999
 20
10.844
 30
0.0
 40
0.21875
  0
CIRCLE
  5
66
330
31
100
AcDbEntity
  8
CSOLID
100
AcDbCircle
 10
7.6875
 20
11.25024999999999
 30
0.0
 40
0.21875
  0
INSERT
  5
67
330
31
100
AcDbEntity
  8
CCENTER
100
AcDbBlockReference
  2
100CROSS
 10
7.6875
 20
11.25024999999999
 30
0.0
 41
0.4379999999999999
 42
0.4379999999999999
  0
CIRCLE
  5
68
330
31
100
AcDbEntity
  8
CHIDDEN
100
AcDbCircle
 10
6.125
 20
10.1875
 30
0.0
 40
0.125
  0
CIRCLE
  5
69
330
31
100
AcDbEntity
  8
CHIDDEN
100
AcDbCircle
 10
7.9375
 20
10.1875
 30
0.0
 40
0.125
  0
CIRCLE
  5
6A
330
31
100
AcDbEntity
  8
CHIDDEN
100
AcDbCircle
 10
7.9375
 20
12.3125
 30
0.0
 40
0.125
  0
CIRCLE
  5
6B
330
31
100
AcDbEntity
  8
CHIDDEN
100
AcDbCircle
 10
6.125
 20
12.3125
 30
0.0
 40
0.125
  0
CIRCLE
  5
6C
330
31
100
AcDbEntity
  8
CSOLID
100
AcDbCircle
 10
7.6875
 20
4.0
 30
0.0
 40
0.4920000000000001
  0
CIRCLE
  5
6D
330
31
100
AcDbEntity
  8
CSOLID
100
AcDbCircle
 10
7.6875
 20
4.0
 30
0.0
 40
0.453
  0
ARC
  5
6E
330
31
100
AcDbEntity
  8
CSOLID
100
AcDbCircle
 10
7.6875
 20
4.0
 30
0.0
 40
0.8125
100
AcDbArc
 50
195.942369
 51
164.057631
  0
INSERT
  5
6F
330
31
100
AcDbEntity
  8
CCENTER
100
AcDbBlockReference
  2
100CROSS
 10
7.6875
 20
4.0
 30
0.0
 41
1.33
 42
1.33
  0
CIRCLE
  5
70
330
31
100
AcDbEntity
  8
CHIDDEN
100
AcDbCircle
 10
7.6875
 20
4.0
 30
0.0
 40
0.53125
  0
CIRCLE
  5
71
330
31
100
AcDbEntity
  8
CSOLID
100
AcDbCircle
 10
6.125
 20
4.0
 30
0.0
 40
0.4920000000000001
  0
CIRCLE
  5
72
330
31
100
AcDbEntity
  8
CSOLID
100
AcDbCircle
 10
6.125
 20
4.0
 30
0.0
 40
0.453
  0
ARC
  5
73
330
31
100
AcDbEntity
  8
CSOLID
100
AcDbCircle
 10
6.125
 20
4.0
 30
0.0
 40
0.8125
100
AcDbArc
 50
15.942369
 51
344.057631
  0
INSERT
  5
74
330
31
100
AcDbEntity
  8
CCENTER
100
AcDbBlockReference
  2
100CROSS
 10
6.125
 20
4.0
 30
0.0
 41
1.33
 42
1.33
  0
CIRCLE
  5
75
330
31
100
AcDbEntity
  8
CHIDDEN
100
AcDbCircle
 10
6.125
 20
4.0
 30
0.0
 40
0.53125
  0
INSERT
  5
76
330
31
100
AcDbEntity
  8
CCENTER
100
AcDbBlockReference
  2
100CROSS
 10
8.0625
 20
5.25
 30
0.0
  0
CIRCLE
  5
77
330
31
100
AcDbEntity
  8
CHIDDEN
100
AcDbCircle
 10
8.0625
 20
5.25
 30
0.0
 40
0.28125
  0
ARC
  5
78
330
31
100
AcDbEntity
  8
CSOLID
100
AcDbCircle
 10
8.0625
 20
5.25
 30
0.0
 40
0.5
100
AcDbArc
 50
215.6590879999999
 51
144.340912
  0
CIRCLE
  5
79
330
31
100
AcDbEntity
  8
CSOLID
100
AcDbCircle
 10
8.0625
 20
5.25
 30
0.0
 40
0.25
  0
INSERT
  5
7A
330
31
100
AcDbEntity
  8
CCENTER
100
AcDbBlockReference
  2
100CROSS
 10
7.25
 20
5.25
 30
0.0
  0
CIRCLE
  5
7B
330
31
100
AcDbEntity
  8
CHIDDEN
100
AcDbCircle
 10
7.25
 20
5.25
 30
0.0
 40
0.28125
  0
ARC
  5
7C
330
31
100
AcDbEntity
  8
CSOLID
100
AcDbCircle
 10
7.25
 20
5.25
 30
0.0
 40
0.5
100
AcDbArc
 50
35.65908799999999
 51
324.3409119999999
  0
CIRCLE
  5
7D
330
31
100
AcDbEntity
  8
CSOLID
100
AcDbCircle
 10
7.25
 20
5.25
 30
0.0
 40
0.25
  0
INSERT
  5
7E
330
31
100
AcDbEntity
  8
CCENTER
100
AcDbBlockReference
  2
100CROSS
 10
7.6875
 20
17.125
 30
0.0
  0
CIRCLE
  5
7F
330
31
100
AcDbEntity
  8
CHIDDEN
100
AcDbCircle
 10
7.6875
 20
17.125
 30
0.0
 40
0.28125
  0
CIRCLE
  5
80
330
31
100
AcDbEntity
  8
CSOLID
100
AcDbCircle
 10
7.6875
 20
17.125
 30
0.0
 40
0.5
  0
CIRCLE
  5
81
330
31
100
AcDbEntity
  8
CSOLID
100
AcDbCircle
 10
7.6875
 20
17.125
 30
0.0
 40
0.25
  0
INSERT
  5
82
330
31
100
AcDbEntity
  8
CCENTER
100
AcDbBlockReference
  2
100CROSS
 10
6.3125
 20
17.125
 30
0.0
  0
CIRCLE
  5
83
330
31
100
AcDbEntity
  8
CHIDDEN
100
AcDbCircle
 10
6.3125
 20
17.125
 30
0.0
 40
0.28125
  0
CIRCLE
  5
84
330
31
100
AcDbEntity
  8
CSOLID
100
AcDbCircle
 10
6.3125
 20
17.125
 30
0.0
 40
0.5
  0
CIRCLE
  5
85
330
31
100
AcDbEntity
  8
CSOLID
100
AcDbCircle
 10
6.3125
 20
17.125
 30
0.0
 40
0.25
  0
TEXT
  5
86
330
31
100
AcDbEntity
  8
CDIM
100
AcDbText
 10
5.40625
 20
4.75
 30
0.0
 40
0.25
  1
T
  7
STR
100
AcDbText
  0
TEXT
  5
87
330
31
100
AcDbEntity
  8
CDIM
100
AcDbText
 10
8.5
 20
4.46875
 30
0.0
 40
0.25
  1
P
  7
STR
100
AcDbText
  0
TEXT
  5
88
330
31
100
AcDbEntity
  8
CDIM
100
AcDbText
 10
8.59375
 20
5.375
 30
0.0
 40
0.25
  1
X
  7
STR
100
AcDbText
  0
TEXT
  5
89
330
31
100
AcDbEntity
  8
CDIM
100
AcDbText
 10
6.5
 20
5.375
 30
0.0
 40
0.25
  1
Y
  7
STR
100
AcDbText
  0
TEXT
  5
8A
330
31
100
AcDbEntity
  8
CDIM
100
AcDbText
 10
5.71875
 20
17.0
 30
0.0
 40
0.25
  1
Y
 50
180.0
  7
STR
100
AcDbText
  0
TEXT
  5
8B
330
31
100
AcDbEntity
  8
CDIM
100
AcDbText
 10
8.46875
 20
17.03125
 30
0.0
 40
0.25
  1
X
 50
180.0
  7
STR
100
AcDbText
  0
TEXT
  5
8C
330
31
100
AcDbEntity
  8
CDIM
100
AcDbText
 10
14.90625
 20
11.9375
 30
0.0
 40
0.25
  1
A
 50
90.0
  7
STR
100
AcDbText
  0
TEXT
  5
8D
330
31
100
AcDbEntity
  8
CDIM
100
AcDbText
 10
14.90625
 20
9.6875
 30
0.0
 40
0.25
  1
B
 50
90.0
  7
STR
100
AcDbText
  0
INSERT
  5
8E
330
31
100
AcDbEntity
  8
CCENTER
100
AcDbBlockReference
  2
100CROSS
 10
23.125
 20
9.375
 30
0.0
 41
0.45
 42
0.45
  0
CIRCLE
  5
8F
330
31
100
AcDbEntity
  8
CSOLID
100
AcDbCircle
 10
25.6875
 20
12.25
 30
0.0
 40
0.453
  0
CIRCLE
  5
90
330
31
100
AcDbEntity
  8
CSOLID
100
AcDbCircle
 10
25.6875
 20
12.25
 30
0.0
 40
0.4920000000000001
  0
TEXT
  5
91
330
31
100
AcDbEntity
  8
CDIM
100
AcDbText
 10
23.53124999999999
 20
11.78125
 30
0.0
 40
0.25
  1
P
  7
STR
100
AcDbText
  0
TEXT
  5
92
330
31
100
AcDbEntity
  8
CDIM
100
AcDbText
 10
24.96875
 20
13.0
 30
0.0
 40
0.25
  1
T
  7
STR
100
AcDbText
  0
LINE
  5
93
330
31
100
AcDbEntity
  8
CDIM
100
AcDbLine
 10
5.25
 20
13.776875
 30
0.0
 11
5.25
 21
14.6041
 31
0.0
  0
LINE
  5
94
330
31
100
AcDbEntity
  8
CDIM
100
AcDbLine
 10
7.6875
 20
11.62062499999999
 30
0.0
 11
7.6875
 21
14.6041
 31
0.0
  0
LINE
  5
95
330
31
100
AcDbEntity
  8
CDIM
100
AcDbLine
 10
5.541599999999999
 20
14.3125
 30
0.0
 11
5.650649999999999
 21
14.3125
 31
0.0
  0
LINE
  5
96
330
31
100
AcDbEntity
  8
CDIM
100
AcDbLine
 10
7.3959
 20
14.3125
 30
0.0
 11
7.28685
 21
14.3125
 31
0.0
  0
SOLID
  5
97
330
31
100
AcDbEntity
  8
CDIM
100
AcDbTrace
 10
5.541599999999999
 20
14.2639
 30
0.0
 11
5.541599999999999
 21
14.3611
 31
0.0
 12
5.25
 22
14.3125
 32
0.0
 13
5.25
 23
14.3125
 33
0.0
  0
SOLID
  5
98
330
31
100
AcDbEntity
  8
CDIM
100
AcDbTrace
 10
7.3959
 20
14.2639
 30
0.0
 11
7.3959
 21
14.3611
 31
0.0
 12
7.6875
 22
14.3125
 32
0.0
 13
7.6875
 23
14.3125
 33
0.0
  0
TEXT
  5
99
330
31
100
AcDbEntity
  8
CDIM
100
AcDbText
 10
5.942249999999999
 20
14.1424
 30
0.0
 40
0.3402
  1
2.44
  7
STR
100
AcDbText
  0
LINE
  5
9A
330
31
100
AcDbEntity
  8
CDIM
100
AcDbLine
 10
5.25
 20
13.776875
 30
0.0
 11
5.25
 21
15.36347499999999
 31
0.0
  0
LINE
  5
9B
330
31
100
AcDbEntity
  8
CDIM
100
AcDbLine
 10
9.25
 20
13.776875
 30
0.0
 11
9.25
 21
15.36347499999999
 31
0.0
  0
LINE
  5
9C
330
31
100
AcDbEntity
  8
CDIM
100
AcDbLine
 10
5.541599999999999
 20
15.071875
 30
0.0
 11
6.44
 21
15.071875
 31
0.0
  0
LINE
  5
9D
330
31
100
AcDbEntity
  8
CDIM
100
AcDbLine
 10
8.958399999999999
 20
15.071875
 30
0.0
 11
8.06
 21
15.071875
 31
0.0
  0
SOLID
  5
9E
330
31
100
AcDbEntity
  8
CDIM
100
AcDbTrace
 10
5.541599999999999
 20
15.02327499999999
 30
0.0
 11
5.541599999999999
 21
15.120475
 31
0.0
 12
5.25
 22
15.071875
 32
0.0
 13
5.25
 23
15.071875
 33
0.0
  0
SOLID
  5
9F
330
31
100
AcDbEntity
  8
CDIM
100
AcDbTrace
 10
8.958399999999999
 20
15.02327499999999
 30
0.0
 11
8.958399999999999
 21
15.120475
 31
0.0
 12
9.25
 22
15.071875
 32
0.0
 13
9.25
 23
15.071875
 33
0.0
  0
TEXT
  5
A0
330
31
100
AcDbEntity
  8
CDIM
100
AcDbText
 10
6.7316
 20
14.901775
 30
0.0
 40
0.3402
  1
4.00
  7
STR
100
AcDbText
  0
LINE
  5
A1
330
31
100
AcDbEntity
  8
CDIM
100
AcDbLine
 10
5.098124999999999
 20
13.625
 30
0.0
 11
4.2709
 21
13.625
 31
0.0
  0
LINE
  5
A2
330
31
100
AcDbEntity
  8
CDIM
100
AcDbLine
 10
7.316874999999999
 20
11.25
 30
0.0
 11
4.2709
 21
11.25
 31
0.0
  0
LINE
  5
A3
330
31
100
AcDbEntity
  8
CDIM
100
AcDbLine
 10
4.5625
 20
13.33339999999999
 30
0.0
 11
4.5625
 21
12.8992
 31
0.0
  0
LINE
  5
A4
330
31
100
AcDbEntity
  8
CDIM
100
AcDbLine
 10
4.5625
 20
11.5416
 30
0.0
 11
4.5625
 21
11.9758
 31
0.0
  0
SOLID
  5
A5
330
31
100
AcDbEntity
  8
CDIM
100
AcDbTrace
 10
4.6111
 20
13.33339999999999
 30
0.0
 11
4.513899999999999
 21
13.33339999999999
 31
0.0
 12
4.5625
 22
13.625
 32
0.0
 13
4.5625
 23
13.625
 33
0.0
  0
SOLID
  5
A6
330
31
100
AcDbEntity
  8
CDIM
100
AcDbTrace
 10
4.6111
 20
11.5416
 30
0.0
 11
4.513899999999999
 21
11.5416
 31
0.0
 12
4.5625
 22
11.25
 32
0.0
 13
4.5625
 23
11.25
 33
0.0
  0
TEXT
  5
A7
330
31
100
AcDbEntity
  8
CDIM
100
AcDbText
 10
4.0441
 20
12.2674
 30
0.0
 40
0.3402
  1
2.38
  7
STR
100
AcDbText
  0
LINE
  5
A8
330
31
100
AcDbEntity
  8
CDIM
100
AcDbLine
 10
5.098124999999999
 20
13.625
 30
0.0
 11
3.511524999999999
 21
13.625
 31
0.0
  0
LINE
  5
A9
330
31
100
AcDbEntity
  8
CDIM
100
AcDbLine
 10
5.098124999999999
 20
9.0
 30
0.0
 11
3.511524999999999
 21
9.0
 31
0.0
  0
LINE
  5
AA
330
31
100
AcDbEntity
  8
CDIM
100
AcDbLine
 10
3.803125
 20
13.33339999999999
 30
0.0
 11
3.803125
 21
11.1492
 31
0.0
  0
LINE
  5
AB
330
31
100
AcDbEntity
  8
CDIM
100
AcDbLine
 10
3.803125
 20
9.2916
 30
0.0
 11
3.803125
 21
10.2258
 31
0.0
  0
SOLID
  5
AC
330
31
100
AcDbEntity
  8
CDIM
100
AcDbTrace
 10
3.851725
 20
13.33339999999999
 30
0.0
 11
3.754525
 21
13.33339999999999
 31
0.0
 12
3.803125
 22
13.625
 32
0.0
 13
3.803125
 23
13.625
 33
0.0
  0
SOLID
  5
AD
330
31
100
AcDbEntity
  8
CDIM
100
AcDbTrace
 10
3.851725
 20
9.2916
 30
0.0
 11
3.754525
 21
9.2916
 31
0.0
 12
3.803125
 22
9.0
 32
0.0
 13
3.803125
 23
9.0
 33
0.0
  0
TEXT
  5
AE
330
31
100
AcDbEntity
  8
CDIM
100
AcDbText
 10
3.284724999999999
 20
10.5174
 30
0.0
 40
0.3402
  1
4.63
  7
STR
100
AcDbText
  0
LINE
  5
AF
330
31
100
AcDbEntity
  8
CDIM
100
AcDbLine
 10
9.401875
 20
13.625
 30
0.0
 11
10.2291
 21
13.625
 31
0.0
  0
LINE
  5
B0
330
31
100
AcDbEntity
  8
CDIM
100
AcDbLine
 10
6.026875
 20
13.25
 30
0.0
 11
10.2291
 21
13.25
 31
0.0
  0
LINE
  5
B1
330
31
100
AcDbEntity
  8
CDIM
100
AcDbLine
 10
9.9375
 20
12.9584
 30
0.0
 11
9.9375
 21
12.6668
 31
0.0
  0
LINE
  5
B2
330
31
100
AcDbEntity
  8
CDIM
100
AcDbLine
 10
9.9375
 20
13.9166
 30
0.0
 11
9.9375
 21
14.20819999999999
 31
0.0
  0
SOLID
  5
B3
330
31
100
AcDbEntity
  8
CDIM
100
AcDbTrace
 10
9.9861
 20
12.9584
 30
0.0
 11
9.888899999999999
 21
12.9584
 31
0.0
 12
9.9375
 22
13.25
 32
0.0
 13
9.9375
 23
13.25
 33
0.0
  0
SOLID
  5
B4
330
31
100
AcDbEntity
  8
CDIM
100
AcDbTrace
 10
9.9861
 20
13.9166
 30
0.0
 11
9.888899999999999
 21
13.9166
 31
0.0
 12
9.9375
 22
13.625
 32
0.0
 13
9.9375
 23
13.625
 33
0.0
  0
TEXT
  5
B5
330
31
100
AcDbEntity
  8
CDIM
100
AcDbText
 10
9.38
 20
12.2467
 30
0.0
 40
0.3402
  1
0.37
  7
STR
100
AcDbText
  0
LINE
  5
B6
330
31
100
AcDbEntity
  8
CDIM
100
AcDbLine
 10
9.401875
 20
13.625
 30
0.0
 11
10.98847499999999
 21
13.625
 31
0.0
  0
LINE
  5
B7
330
31
100
AcDbEntity
  8
CDIM
100
AcDbLine
 10
9.276875
 20
9.375
 30
0.0
 11
10.98847499999999
 21
9.375
 31
0.0
  0
LINE
  5
B8
330
31
100
AcDbEntity
  8
CDIM
100
AcDbLine
 10
10.696875
 20
13.33339999999999
 30
0.0
 11
10.696875
 21
11.9617
 31
0.0
  0
LINE
  5
B9
330
31
100
AcDbEntity
  8
CDIM
100
AcDbLine
 10
10.696875
 20
9.6666
 30
0.0
 11
10.696875
 21
11.0383
 31
0.0
  0
SOLID
  5
BA
330
31
100
AcDbEntity
  8
CDIM
100
AcDbTrace
 10
10.745475
 20
13.33339999999999
 30
0.0
 11
10.648275
 21
13.33339999999999
 31
0.0
 12
10.696875
 22
13.625
 32
0.0
 13
10.696875
 23
13.625
 33
0.0
  0
SOLID
  5
BB
330
31
100
AcDbEntity
  8
CDIM
100
AcDbTrace
 10
10.745475
 20
9.6666
 30
0.0
 11
10.648275
 21
9.6666
 31
0.0
 12
10.696875
 22
9.375
 32
0.0
 13
10.696875
 23
9.375
 33
0.0
  0
TEXT
  5
BC
330
31
100
AcDbEntity
  8
CDIM
100
AcDbText
 10
10.178475
 20
11.3299
 30
0.0
 40
0.3402
  1
4.25
  7
STR
100
AcDbText
  0
LINE
  5
BD
330
31
100
AcDbEntity
  8
CDIM
100
AcDbLine
 10
5.25
 20
8.848124999999999
 30
0.0
 11
5.25
 21
8.083399999999999
 31
0.0
  0
LINE
  5
BE
330
31
100
AcDbEntity
  8
CDIM
100
AcDbLine
 10
5.625
 20
12.754375
 30
0.0
 11
5.625
 21
8.083399999999999
 31
0.0
  0
LINE
  5
BF
330
31
100
AcDbEntity
  8
CDIM
100
AcDbLine
 10
5.916599999999999
 20
8.375
 30
0.0
 11
6.208199999999999
 21
8.375
 31
0.0
  0
LINE
  5
C0
330
31
100
AcDbEntity
  8
CDIM
100
AcDbLine
 10
4.9584
 20
8.375
 30
0.0
 11
4.6668
 21
8.375
 31
0.0
  0
SOLID
  5
C1
330
31
100
AcDbEntity
  8
CDIM
100
AcDbTrace
 10
5.916599999999999
 20
8.326399999999999
 30
0.0
 11
5.916599999999999
 21
8.4236
 31
0.0
 12
5.625
 22
8.375
 32
0.0
 13
5.625
 23
8.375
 33
0.0
  0
SOLID
  5
C2
330
31
100
AcDbEntity
  8
CDIM
100
AcDbTrace
 10
4.9584
 20
8.326399999999999
 30
0.0
 11
4.9584
 21
8.4236
 31
0.0
 12
5.25
 22
8.375
 32
0.0
 13
5.25
 23
8.375
 33
0.0
  0
TEXT
  5
C3
330
31
100
AcDbEntity
  8
CDIM
100
AcDbText
 10
6.499799999999999
 20
8.2049
 30
0.0
 40
0.3402
  1
0.37
  7
STR
100
AcDbText
  0
LINE
  5
C4
330
31
100
AcDbEntity
  8
CDIM
100
AcDbLine
 10
5.25
 20
8.848124999999999
 30
0.0
 11
5.25
 21
7.449024999999999
 31
0.0
  0
LINE
  5
C5
330
31
100
AcDbEntity
  8
CDIM
100
AcDbLine
 10
8.875
 20
8.941874999999999
 30
0.0
 11
8.875
 21
7.449024999999999
 31
0.0
  0
LINE
  5
C6
330
31
100
AcDbEntity
  8
CDIM
100
AcDbLine
 10
5.541599999999999
 20
7.740624999999999
 30
0.0
 11
6.2525
 21
7.740624999999999
 31
0.0
  0
LINE
  5
C7
330
31
100
AcDbEntity
  8
CDIM
100
AcDbLine
 10
8.583399999999999
 20
7.740624999999999
 30
0.0
 11
7.872499999999999
 21
7.740624999999999
 31
0.0
  0
SOLID
  5
C8
330
31
100
AcDbEntity
  8
CDIM
100
AcDbTrace
 10
5.541599999999999
 20
7.692025
 30
0.0
 11
5.541599999999999
 21
7.789225
 31
0.0
 12
5.25
 22
7.740624999999999
 32
0.0
 13
5.25
 23
7.740624999999999
 33
0.0
  0
SOLID
  5
C9
330
31
100
AcDbEntity
  8
CDIM
100
AcDbTrace
 10
8.583399999999999
 20
7.692025
 30
0.0
 11
8.583399999999999
 21
7.789225
 31
0.0
 12
8.875
 22
7.740624999999999
 32
0.0
 13
8.875
 23
7.740624999999999
 33
0.0
  0
TEXT
  5
CA
330
31
100
AcDbEntity
  8
CDIM
100
AcDbText
 10
6.5441
 20
7.570524999999999
 30
0.0
 40
0.3402
  1
3.63
  7
STR
100
AcDbText
  0
LINE
  5
CB
330
31
100
AcDbEntity
  8
CDIM
100
AcDbLine
 10
5.25
 20
16.47312499999999
 30
0.0
 11
5.25
 21
15.64589999999999
 31
0.0
  0
LINE
  5
CC
330
31
100
AcDbEntity
  8
CDIM
100
AcDbLine
 10
6.3125
 20
16.47312499999999
 30
0.0
 11
6.3125
 21
15.64589999999999
 31
0.0
  0
LINE
  5
CD
330
31
100
AcDbEntity
  8
CDIM
100
AcDbLine
 10
6.604099999999999
 20
15.9375
 30
0.0
 11
6.895699999999999
 21
15.9375
 31
0.0
  0
LINE
  5
CE
330
31
100
AcDbEntity
  8
CDIM
100
AcDbLine
 10
4.9584
 20
15.9375
 30
0.0
 11
4.6668
 21
15.9375
 31
0.0
  0
SOLID
  5
CF
330
31
100
AcDbEntity
  8
CDIM
100
AcDbTrace
 10
6.604099999999999
 20
15.8889
 30
0.0
 11
6.604099999999999
 21
15.9861
 31
0.0
 12
6.3125
 22
15.9375
 32
0.0
 13
6.3125
 23
15.9375
 33
0.0
  0
SOLID
  5
D0
330
31
100
AcDbEntity
  8
CDIM
100
AcDbTrace
 10
4.9584
 20
15.8889
 30
0.0
 11
4.9584
 21
15.9861
 31
0.0
 12
5.25
 22
15.9375
 32
0.0
 13
5.25
 23
15.9375
 33
0.0
  0
TEXT
  5
D1
330
31
100
AcDbEntity
  8
CDIM
100
AcDbText
 10
7.187299999999999
 20
15.7674
 30
0.0
 40
0.3402
  1
1.06
  7
STR
100
AcDbText
  0
LINE
  5
D2
330
31
100
AcDbEntity
  8
CDIM
100
AcDbLine
 10
5.25
 20
19.776875
 30
0.0
 11
5.25
 21
20.6041
 31
0.0
  0
LINE
  5
D3
330
31
100
AcDbEntity
  8
CDIM
100
AcDbLine
 10
7.6875
 20
19.401875
 30
0.0
 11
7.6875
 21
20.6041
 31
0.0
  0
LINE
  5
D4
330
31
100
AcDbEntity
  8
CDIM
100
AcDbLine
 10
5.541599999999999
 20
20.3125
 30
0.0
 11
5.650649999999999
 21
20.3125
 31
0.0
  0
LINE
  5
D5
330
31
100
AcDbEntity
  8
CDIM
100
AcDbLine
 10
7.3959
 20
20.3125
 30
0.0
 11
7.28685
 21
20.3125
 31
0.0
  0
SOLID
  5
D6
330
31
100
AcDbEntity
  8
CDIM
100
AcDbTrace
 10
5.541599999999999
 20
20.2639
 30
0.0
 11
5.541599999999999
 21
20.3611
 31
0.0
 12
5.25
 22
20.3125
 32
0.0
 13
5.25
 23
20.3125
 33
0.0
  0
SOLID
  5
D7
330
31
100
AcDbEntity
  8
CDIM
100
AcDbTrace
 10
7.3959
 20
20.2639
 30
0.0
 11
7.3959
 21
20.3611
 31
0.0
 12
7.6875
 22
20.3125
 32
0.0
 13
7.6875
 23
20.3125
 33
0.0
  0
TEXT
  5
D8
330
31
100
AcDbEntity
  8
CDIM
100
AcDbText
 10
5.942249999999999
 20
20.1424
 30
0.0
 40
0.3402
  1
2.44
  7
STR
100
AcDbText
  0
LINE
  5
D9
330
31
100
AcDbEntity
  8
CDIM
100
AcDbLine
 10
5.098124999999999
 20
19.625
 30
0.0
 11
4.2709
 21
19.625
 31
0.0
  0
LINE
  5
DA
330
31
100
AcDbEntity
  8
CDIM
100
AcDbLine
 10
6.995625
 20
18.6875
 30
0.0
 11
4.2709
 21
18.6875
 31
0.0
  0
LINE
  5
DB
330
31
100
AcDbEntity
  8
CDIM
100
AcDbLine
 10
4.5625
 20
18.3959
 30
0.0
 11
4.5625
 21
18.1043
 31
0.0
  0
LINE
  5
DC
330
31
100
AcDbEntity
  8
CDIM
100
AcDbLine
 10
4.5625
 20
19.91659999999999
 30
0.0
 11
4.5625
 21
20.2082
 31
0.0
  0
SOLID
  5
DD
330
31
100
AcDbEntity
  8
CDIM
100
AcDbTrace
 10
4.6111
 20
18.3959
 30
0.0
 11
4.513899999999999
 21
18.3959
 31
0.0
 12
4.5625
 22
18.6875
 32
0.0
 13
4.5625
 23
18.6875
 33
0.0
  0
SOLID
  5
DE
330
31
100
AcDbEntity
  8
CDIM
100
AcDbTrace
 10
4.6111
 20
19.91659999999999
 30
0.0
 11
4.513899999999999
 21
19.91659999999999
 31
0.0
 12
4.5625
 22
19.625
 32
0.0
 13
4.5625
 23
19.625
 33
0.0
  0
TEXT
  5
DF
330
31
100
AcDbEntity
  8
CDIM
100
AcDbText
 10
3.988799999999999
 20
18.9342
 30
0.0
 40
0.3402
  1
0.94
  7
STR
100
AcDbText
  0
LINE
  5
E0
330
31
100
AcDbEntity
  8
CDIM
100
AcDbLine
 10
5.098124999999999
 20
19.625
 30
0.0
 11
3.511524999999999
 21
19.625
 31
0.0
  0
LINE
  5
E1
330
31
100
AcDbEntity
  8
CDIM
100
AcDbLine
 10
5.098124999999999
 20
16.625
 30
0.0
 11
3.511524999999999
 21
16.625
 31
0.0
  0
LINE
  5
E2
330
31
100
AcDbEntity
  8
CDIM
100
AcDbLine
 10
3.803125
 20
19.3334
 30
0.0
 11
3.803125
 21
18.5867
 31
0.0
  0
LINE
  5
E3
330
31
100
AcDbEntity
  8
CDIM
100
AcDbLine
 10
3.803125
 20
16.91659999999999
 30
0.0
 11
3.803125
 21
17.66329999999999
 31
0.0
  0
SOLID
  5
E4
330
31
100
AcDbEntity
  8
CDIM
100
AcDbTrace
 10
3.851725
 20
19.3334
 30
0.0
 11
3.754525
 21
19.3334
 31
0.0
 12
3.803125
 22
19.625
 32
0.0
 13
3.803125
 23
19.625
 33
0.0
  0
SOLID
  5
E5
330
31
100
AcDbEntity
  8
CDIM
100
AcDbTrace
 10
3.851725
 20
16.91659999999999
 30
0.0
 11
3.754525
 21
16.91659999999999
 31
0.0
 12
3.803125
 22
16.625
 32
0.0
 13
3.803125
 23
16.625
 33
0.0
  0
TEXT
  5
E6
330
31
100
AcDbEntity
  8
CDIM
100
AcDbText
 10
3.284724999999999
 20
17.9549
 30
0.0
 40
0.3402
  1
3.00
  7
STR
100
AcDbText
  0
SOLID
  5
E7
330
31
100
AcDbEntity
  8
CDIM
100
AcDbTrace
 10
8.006827000000001
 20
19.420852
 30
0.0
 11
7.913883999999999
 21
19.449304
 31
0.0
 12
7.875
 22
19.15625
 32
0.0
 13
7.875
 23
19.15625
 33
0.0
  0
LINE
  5
E8
330
31
100
AcDbEntity
  8
CDIM
100
AcDbLine
 10
7.960354999999999
 20
19.435078
 30
0.0
 11
8.34375
 21
20.6875
 31
0.0
  0
LINE
  5
E9
330
31
100
AcDbEntity
  8
CDIM
100
AcDbLine
 10
8.34375
 20
20.6875
 30
0.0
 11
8.5625
 21
20.71874999999999
 31
0.0
  0
TEXT
  5
EA
330
31
100
AcDbEntity
  8
CDIM
100
AcDbText
 10
8.8541
 20
20.54864999999999
 30
0.0
 40
0.3402
  1
Relief valve cavity
  7
STR
100
AcDbText
  0
LINE
  5
EB
330
31
100
AcDbEntity
  8
CDIM
100
AcDbLine
 10
5.25
 20
5.901875
 30
0.0
 11
5.25
 21
6.729099999999999
 31
0.0
  0
LINE
  5
EC
330
31
100
AcDbEntity
  8
CDIM
100
AcDbLine
 10
7.25
 20
5.933125
 30
0.0
 11
7.25
 21
6.729099999999999
 31
0.0
  0
LINE
  5
ED
330
31
100
AcDbEntity
  8
CDIM
100
AcDbLine
 10
7.541599999999999
 20
6.4375
 30
0.0
 11
7.833199999999999
 21
6.4375
 31
0.0
  0
LINE
  5
EE
330
31
100
AcDbEntity
  8
CDIM
100
AcDbLine
 10
4.9584
 20
6.4375
 30
0.0
 11
4.6668
 21
6.4375
 31
0.0
  0
SOLID
  5
EF
330
31
100
AcDbEntity
  8
CDIM
100
AcDbTrace
 10
7.541599999999999
 20
6.388899999999999
 30
0.0
 11
7.541599999999999
 21
6.4861
 31
0.0
 12
7.25
 22
6.4375
 32
0.0
 13
7.25
 23
6.4375
 33
0.0
  0
SOLID
  5
F0
330
31
100
AcDbEntity
  8
CDIM
100
AcDbTrace
 10
4.9584
 20
6.388899999999999
 30
0.0
 11
4.9584
 21
6.4861
 31
0.0
 12
5.25
 22
6.4375
 32
0.0
 13
5.25
 23
6.4375
 33
0.0
  0
TEXT
  5
F1
330
31
100
AcDbEntity
  8
CDIM
100
AcDbText
 10
5.749799999999999
 20
6.2674
 30
0.0
 40
0.3402
  1
2.00
  7
STR
100
AcDbText
  0
LINE
  5
F2
330
31
100
AcDbEntity
  8
CDIM
100
AcDbLine
 10
5.25
 20
5.901875
 30
0.0
 11
5.25
 21
7.363475
 31
0.0
  0
LINE
  5
F3
330
31
100
AcDbEntity
  8
CDIM
100
AcDbLine
 10
8.0625
 20
5.933125
 30
0.0
 11
8.0625
 21
7.363475
 31
0.0
  0
LINE
  5
F4
330
31
100
AcDbEntity
  8
CDIM
100
AcDbLine
 10
5.541599999999999
 20
7.071875
 30
0.0
 11
5.91915
 21
7.071875
 31
0.0
  0
LINE
  5
F5
330
31
100
AcDbEntity
  8
CDIM
100
AcDbLine
 10
7.7709
 20
7.071875
 30
0.0
 11
7.393349999999999
 21
7.071875
 31
0.0
  0
SOLID
  5
F6
330
31
100
AcDbEntity
  8
CDIM
100
AcDbTrace
 10
5.541599999999999
 20
7.023274999999999
 30
0.0
 11
5.541599999999999
 21
7.120474999999999
 31
0.0
 12
5.25
 22
7.071875
 32
0.0
 13
5.25
 23
7.071875
 33
0.0
  0
SOLID
  5
F7
330
31
100
AcDbEntity
  8
CDIM
100
AcDbTrace
 10
7.7709
 20
7.023274999999999
 30
0.0
 11
7.7709
 21
7.120474999999999
 31
0.0
 12
8.0625
 22
7.071875
 32
0.0
 13
8.0625
 23
7.071875
 33
0.0
  0
TEXT
  5
F8
330
31
100
AcDbEntity
  8
CDIM
100
AcDbText
 10
6.210749999999999
 20
6.901774999999999
 30
0.0
 40
0.3402
  1
2.81
  7
STR
100
AcDbText
  0
LINE
  5
F9
330
31
100
AcDbEntity
  8
CDIM
100
AcDbLine
 10
5.25
 20
2.598125
 30
0.0
 11
5.25
 21
1.770899999999999
 31
0.0
  0
LINE
  5
FA
330
31
100
AcDbEntity
  8
CDIM
100
AcDbLine
 10
6.125
 20
3.066875
 30
0.0
 11
6.125
 21
1.770899999999999
 31
0.0
  0
LINE
  5
FB
330
31
100
AcDbEntity
  8
CDIM
100
AcDbLine
 10
6.416599999999999
 20
2.0625
 30
0.0
 11
6.708199999999999
 21
2.0625
 31
0.0
  0
LINE
  5
FC
330
31
100
AcDbEntity
  8
CDIM
100
AcDbLine
 10
4.9584
 20
2.0625
 30
0.0
 11
4.6668
 21
2.0625
 31
0.0
  0
SOLID
  5
FD
330
31
100
AcDbEntity
  8
CDIM
100
AcDbTrace
 10
6.416599999999999
 20
2.0139
 30
0.0
 11
6.416599999999999
 21
2.111099999999999
 31
0.0
 12
6.125
 22
2.0625
 32
0.0
 13
6.125
 23
2.0625
 33
0.0
  0
SOLID
  5
FE
330
31
100
AcDbEntity
  8
CDIM
100
AcDbTrace
 10
4.9584
 20
2.0139
 30
0.0
 11
4.9584
 21
2.111099999999999
 31
0.0
 12
5.25
 22
2.0625
 32
0.0
 13
5.25
 23
2.0625
 33
0.0
  0
TEXT
  5
FF
330
31
100
AcDbEntity
  8
CDIM
100
AcDbText
 10
6.999799999999999
 20
1.8924
 30
0.0
 40
0.3402
  1
0.88
  7
STR
100
AcDbText
  0
LINE
  5
100
330
31
100
AcDbEntity
  8
CDIM
100
AcDbLine
 10
5.25
 20
2.598125
 30
0.0
 11
5.25
 21
1.136525
 31
0.0
  0
LINE
  5
101
330
31
100
AcDbEntity
  8
CDIM
100
AcDbLine
 10
7.6875
 20
3.098125
 30
0.0
 11
7.6875
 21
2.40625
 31
0.0
  0
LINE
  5
102
330
31
100
AcDbEntity
  8
CDIM
100
AcDbLine
 10
5.541599999999999
 20
1.428125
 30
0.0
 11
5.650649999999999
 21
1.428125
 31
0.0
  0
LINE
  5
103
330
31
100
AcDbEntity
  8
CDIM
100
AcDbLine
 10
7.3959
 20
1.428125
 30
0.0
 11
7.28685
 21
1.428125
 31
0.0
  0
SOLID
  5
104
330
31
100
AcDbEntity
  8
CDIM
100
AcDbTrace
 10
5.541599999999999
 20
1.379524999999999
 30
0.0
 11
5.541599999999999
 21
1.476725
 31
0.0
 12
5.25
 22
1.428125
 32
0.0
 13
5.25
 23
1.428125
 33
0.0
  0
SOLID
  5
105
330
31
100
AcDbEntity
  8
CDIM
100
AcDbTrace
 10
7.3959
 20
1.379524999999999
 30
0.0
 11
7.3959
 21
1.476725
 31
0.0
 12
7.6875
 22
1.428125
 32
0.0
 13
7.6875
 23
1.428125
 33
0.0
  0
TEXT
  5
106
330
31
100
AcDbEntity
  8
CDIM
100
AcDbText
 10
5.942249999999999
 20
1.258024999999999
 30
0.0
 40
0.3402
  1
2.44
  7
STR
100
AcDbText
  0
LINE
  5
107
330
31
100
AcDbEntity
  8
CDIM
100
AcDbLine
 10
5.098124999999999
 20
2.75
 30
0.0
 11
4.2709
 21
2.75
 31
0.0
  0
LINE
  5
108
330
31
100
AcDbEntity
  8
CDIM
100
AcDbLine
 10
5.316874999999999
 20
4.0
 30
0.0
 11
4.2709
 21
4.0
 31
0.0
  0
LINE
  5
109
330
31
100
AcDbEntity
  8
CDIM
100
AcDbLine
 10
4.5625
 20
4.291599999999999
 30
0.0
 11
4.5625
 21
4.583199999999999
 31
0.0
  0
LINE
  5
10A
330
31
100
AcDbEntity
  8
CDIM
100
AcDbLine
 10
4.5625
 20
2.4584
 30
0.0
 11
4.5625
 21
2.166799999999999
 31
0.0
  0
SOLID
  5
10B
330
31
100
AcDbEntity
  8
CDIM
100
AcDbTrace
 10
4.6111
 20
4.291599999999999
 30
0.0
 11
4.513899999999999
 21
4.291599999999999
 31
0.0
 12
4.5625
 22
4.0
 32
0.0
 13
4.5625
 23
4.0
 33
0.0
  0
SOLID
  5
10C
330
31
100
AcDbEntity
  8
CDIM
100
AcDbTrace
 10
4.6111
 20
2.4584
 30
0.0
 11
4.513899999999999
 21
2.4584
 31
0.0
 12
4.5625
 22
2.75
 32
0.0
 13
4.5625
 23
2.75
 33
0.0
  0
TEXT
  5
10D
330
31
100
AcDbEntity
  8
CDIM
100
AcDbText
 10
4.114449999999999
 20
3.2881
 30
0.0
 40
0.3402
  1
1.25
  7
STR
100
AcDbText
  0
LINE
  5
10E
330
31
100
AcDbEntity
  8
CDIM
100
AcDbLine
 10
5.098124999999999
 20
2.75
 30
0.0
 11
3.386524999999999
 21
2.75
 31
0.0
  0
LINE
  5
10F
330
31
100
AcDbEntity
  8
CDIM
100
AcDbLine
 10
6.566874999999999
 20
5.25
 30
0.0
 11
3.386524999999999
 21
5.25
 31
0.0
  0
LINE
  5
110
330
31
100
AcDbEntity
  8
CDIM
100
AcDbLine
 10
3.678125
 20
3.041599999999999
 30
0.0
 11
3.678125
 21
3.819549999999999
 31
0.0
  0
LINE
  5
111
330
31
100
AcDbEntity
  8
CDIM
100
AcDbLine
 10
3.678125
 20
4.9584
 30
0.0
 11
3.678125
 21
4.74295
 31
0.0
  0
SOLID
  5
112
330
31
100
AcDbEntity
  8
CDIM
100
AcDbTrace
 10
3.726725
 20
3.041599999999999
 30
0.0
 11
3.629525
 21
3.041599999999999
 31
0.0
 12
3.678125
 22
2.75
 32
0.0
 13
3.678125
 23
2.75
 33
0.0
  0
SOLID
  5
113
330
31
100
AcDbEntity
  8
CDIM
100
AcDbTrace
 10
3.726725
 20
4.9584
 30
0.0
 11
3.629525
 21
4.9584
 31
0.0
 12
3.678125
 22
5.25
 32
0.0
 13
3.678125
 23
5.25
 33
0.0
  0
TEXT
  5
114
330
31
100
AcDbEntity
  8
CDIM
100
AcDbText
 10
3.159724999999999
 20
4.11115
 30
0.0
 40
0.3402
  1
2.50
  7
STR
100
AcDbText
  0
LINE
  5
115
330
31
100
AcDbEntity
  8
CDIM
100
AcDbLine
 10
7.6875
 20
1.71875
 30
0.0
 11
7.6875
 21
1.136525
 31
0.0
  0
SOLID
  5
116
330
31
100
AcDbEntity
  8
CDIM
100
AcDbTrace
 10
8.842842999999998
 20
4.999939
 30
0.0
 11
8.858114
 21
5.095932
 31
0.0
 12
8.5625
 22
5.09375
 32
0.0
 13
8.5625
 23
5.09375
 33
0.0
  0
LINE
  5
117
330
31
100
AcDbEntity
  8
CDIM
100
AcDbLine
 10
8.850478
 20
5.047934999999999
 30
0.0
 11
9.9375
 21
4.875
 31
0.0
  0
LINE
  5
118
330
31
100
AcDbEntity
  8
CDIM
100
AcDbLine
 10
9.9375
 20
4.875
 30
0.0
 11
10.1875
 21
4.875
 31
0.0
  0
TEXT
  5
119
330
31
100
AcDbEntity
  8
CDIM
100
AcDbText
 10
10.4791
 20
4.7049
 30
0.0
 40
0.3402
  1
D05H X port
  7
STR
100
AcDbText
  0
SOLID
  5
11A
330
31
100
AcDbEntity
  8
CDIM
100
AcDbTrace
 10
7.836638999999999
 20
5.793516
 30
0.0
 11
7.768855999999999
 21
5.863182
 31
0.0
 12
7.59375
 22
5.625
 32
0.0
 13
7.59375
 23
5.625
 33
0.0
  0
LINE
  5
11B
330
31
100
AcDbEntity
  8
CDIM
100
AcDbLine
 10
7.802747
 20
5.828349
 30
0.0
 11
8.75
 21
6.75
 31
0.0
  0
LINE
  5
11C
330
31
100
AcDbEntity
  8
CDIM
100
AcDbLine
 10
8.75
 20
6.75
 30
0.0
 11
9.03125
 21
6.75
 31
0.0
  0
TEXT
  5
11D
330
31
100
AcDbEntity
  8
CDIM
100
AcDbText
 10
9.32285
 20
6.5799
 30
0.0
 40
0.3402
  1
D05HE Y port
  7
STR
100
AcDbText
  0
LINE
  5
11E
330
31
100
AcDbEntity
  8
CDIM
100
AcDbLine
 10
17.5
 20
8.848124999999999
 30
0.0
 11
17.5
 21
8.083399999999999
 31
0.0
  0
LINE
  5
11F
330
31
100
AcDbEntity
  8
CDIM
100
AcDbLine
 10
15.375
 20
9.785624999999999
 30
0.0
 11
15.375
 21
8.083399999999999
 31
0.0
  0
LINE
  5
120
330
31
100
AcDbEntity
  8
CDIM
100
AcDbLine
 10
15.0834
 20
8.375
 30
0.0
 11
14.7918
 21
8.375
 31
0.0
  0
LINE
  5
121
330
31
100
AcDbEntity
  8
CDIM
100
AcDbLine
 10
17.7916
 20
8.375
 30
0.0
 11
18.0832
 21
8.375
 31
0.0
  0
SOLID
  5
122
330
31
100
AcDbEntity
  8
CDIM
100
AcDbTrace
 10
15.0834
 20
8.326399999999999
 30
0.0
 11
15.0834
 21
8.4236
 31
0.0
 12
15.375
 22
8.375
 32
0.0
 13
15.375
 23
8.375
 33
0.0
  0
SOLID
  5
123
330
31
100
AcDbEntity
  8
CDIM
100
AcDbTrace
 10
17.7916
 20
8.326399999999999
 30
0.0
 11
17.7916
 21
8.4236
 31
0.0
 12
17.5
 22
8.375
 32
0.0
 13
17.5
 23
8.375
 33
0.0
  0
TEXT
  5
124
330
31
100
AcDbEntity
  8
CDIM
100
AcDbText
 10
15.93445
 20
8.2049
 30
0.0
 40
0.3402
  1
2.13
  7
STR
100
AcDbText
  0
SOLID
  5
125
330
31
100
AcDbEntity
  8
CDIM
100
AcDbTrace
 10
8.45156
 20
17.29482699999999
 30
0.0
 11
8.431193999999999
 21
17.38987
 31
0.0
 12
8.15625
 22
17.28125
 32
0.0
 13
8.15625
 23
17.28125
 33
0.0
  0
LINE
  5
126
330
31
100
AcDbEntity
  8
CDIM
100
AcDbLine
 10
8.441377000000001
 20
17.34234899999999
 30
0.0
 11
9.90625
 21
17.65625
 31
0.0
  0
LINE
  5
127
330
31
100
AcDbEntity
  8
CDIM
100
AcDbLine
 10
9.90625
 20
17.65625
 30
0.0
 11
10.21875
 21
17.65625
 31
0.0
  0
TEXT
  5
128
330
31
100
AcDbEntity
  8
CDIM
100
AcDbText
 10
10.51035
 20
17.48615
 30
0.0
 40
0.3402
  1
D05HE X port
  7
STR
100
AcDbText
  0
SOLID
  5
129
330
31
100
AcDbEntity
  8
CDIM
100
AcDbTrace
 10
7.002299
 20
17.458621
 30
0.0
 11
6.959850999999999
 21
17.546063
 31
0.0
 12
6.71875
 22
17.375
 32
0.0
 13
6.71875
 23
17.375
 33
0.0
  0
LINE
  5
12A
330
31
100
AcDbEntity
  8
CDIM
100
AcDbLine
 10
6.981074999999999
 20
17.502342
 30
0.0
 11
9.9375
 21
18.9375
 31
0.0
  0
LINE
  5
12B
330
31
100
AcDbEntity
  8
CDIM
100
AcDbLine
 10
9.9375
 20
18.9375
 30
0.0
 11
10.21875
 21
18.9375
 31
0.0
  0
TEXT
  5
12C
330
31
100
AcDbEntity
  8
CDIM
100
AcDbText
 10
10.51035
 20
18.76739999999999
 30
0.0
 40
0.3402
  1
D05H Y port
  7
STR
100
AcDbText
  0
LINE
  5
12D
330
31
100
AcDbEntity
  8
CDIM
100
AcDbLine
 10
17.5
 20
13.776875
 30
0.0
 11
17.5
 21
14.6041
 31
0.0
  0
LINE
  5
12E
330
31
100
AcDbEntity
  8
CDIM
100
AcDbLine
 10
15.5625
 20
13.714375
 30
0.0
 11
15.5625
 21
14.6041
 31
0.0
  0
LINE
  5
12F
330
31
100
AcDbEntity
  8
CDIM
100
AcDbLine
 10
15.2709
 20
14.3125
 30
0.0
 11
14.9793
 21
14.3125
 31
0.0
  0
LINE
  5
130
330
31
100
AcDbEntity
  8
CDIM
100
AcDbLine
 10
17.7916
 20
14.3125
 30
0.0
 11
18.0832
 21
14.3125
 31
0.0
  0
SOLID
  5
131
330
31
100
AcDbEntity
  8
CDIM
100
AcDbTrace
 10
15.2709
 20
14.2639
 30
0.0
 11
15.2709
 21
14.3611
 31
0.0
 12
15.5625
 22
14.3125
 32
0.0
 13
15.5625
 23
14.3125
 33
0.0
  0
SOLID
  5
132
330
31
100
AcDbEntity
  8
CDIM
100
AcDbTrace
 10
17.7916
 20
14.2639
 30
0.0
 11
17.7916
 21
14.3611
 31
0.0
 12
17.5
 22
14.3125
 32
0.0
 13
17.5
 23
14.3125
 33
0.0
  0
TEXT
  5
133
330
31
100
AcDbEntity
  8
CDIM
100
AcDbText
 10
16.012
 20
14.1424
 30
0.0
 40
0.3402
  1
1.94
  7
STR
100
AcDbText
  0
LINE
  5
134
330
31
100
AcDbEntity
  8
CDIM
100
AcDbLine
 10
17.5
 20
13.776875
 30
0.0
 11
17.5
 21
15.36347499999999
 31
0.0
  0
LINE
  5
135
330
31
100
AcDbEntity
  8
CDIM
100
AcDbLine
 10
14.5
 20
13.776875
 30
0.0
 11
14.5
 21
15.36347499999999
 31
0.0
  0
LINE
  5
136
330
31
100
AcDbEntity
  8
CDIM
100
AcDbLine
 10
17.2084
 20
15.071875
 30
0.0
 11
16.81
 21
15.071875
 31
0.0
  0
LINE
  5
137
330
31
100
AcDbEntity
  8
CDIM
100
AcDbLine
 10
14.7916
 20
15.071875
 30
0.0
 11
15.19
 21
15.071875
 31
0.0
  0
SOLID
  5
138
330
31
100
AcDbEntity
  8
CDIM
100
AcDbTrace
 10
17.2084
 20
15.02327499999999
 30
0.0
 11
17.2084
 21
15.120475
 31
0.0
 12
17.5
 22
15.071875
 32
0.0
 13
17.5
 23
15.071875
 33
0.0
  0
SOLID
  5
139
330
31
100
AcDbEntity
  8
CDIM
100
AcDbTrace
 10
14.7916
 20
15.02327499999999
 30
0.0
 11
14.7916
 21
15.120475
 31
0.0
 12
14.5
 22
15.071875
 32
0.0
 13
14.5
 23
15.071875
 33
0.0
  0
TEXT
  5
13A
330
31
100
AcDbEntity
  8
CDIM
100
AcDbText
 10
15.4816
 20
14.901775
 30
0.0
 40
0.3402
  1
3.00
  7
STR
100
AcDbText
  0
LINE
  5
13B
330
31
100
AcDbEntity
  8
CDIM
100
AcDbLine
 10
14.348125
 20
13.625
 30
0.0
 11
13.5209
 21
13.625
 31
0.0
  0
LINE
  5
13C
330
31
100
AcDbEntity
  8
CDIM
100
AcDbLine
 10
14.691875
 20
12.8125
 30
0.0
 11
13.5209
 21
12.8125
 31
0.0
  0
LINE
  5
13D
330
31
100
AcDbEntity
  8
CDIM
100
AcDbLine
 10
13.8125
 20
12.52089999999999
 30
0.0
 11
13.8125
 21
12.2293
 31
0.0
  0
LINE
  5
13E
330
31
100
AcDbEntity
  8
CDIM
100
AcDbLine
 10
13.8125
 20
13.9166
 30
0.0
 11
13.8125
 21
14.20819999999999
 31
0.0
  0
SOLID
  5
13F
330
31
100
AcDbEntity
  8
CDIM
100
AcDbTrace
 10
13.8611
 20
12.52089999999999
 30
0.0
 11
13.7639
 21
12.52089999999999
 31
0.0
 12
13.8125
 22
12.8125
 32
0.0
 13
13.8125
 23
12.8125
 33
0.0
  0
SOLID
  5
140
330
31
100
AcDbEntity
  8
CDIM
100
AcDbTrace
 10
13.8611
 20
13.9166
 30
0.0
 11
13.7639
 21
13.9166
 31
0.0
 12
13.8125
 22
13.625
 32
0.0
 13
13.8125
 23
13.625
 33
0.0
  0
TEXT
  5
141
330
31
100
AcDbEntity
  8
CDIM
100
AcDbText
 10
13.3383
 20
13.0592
 30
0.0
 40
0.3402
  1
0.81
  7
STR
100
AcDbText
  0
LINE
  5
142
330
31
100
AcDbEntity
  8
CDIM
100
AcDbLine
 10
14.348125
 20
13.625
 30
0.0
 11
12.761525
 21
13.625
 31
0.0
  0
LINE
  5
143
330
31
100
AcDbEntity
  8
CDIM
100
AcDbLine
 10
14.535625
 20
10.6875
 30
0.0
 11
12.761525
 21
10.6875
 31
0.0
  0
LINE
  5
144
330
31
100
AcDbEntity
  8
CDIM
100
AcDbLine
 10
13.053125
 20
13.33339999999999
 30
0.0
 11
13.053125
 21
12.61795
 31
0.0
  0
LINE
  5
145
330
31
100
AcDbEntity
  8
CDIM
100
AcDbLine
 10
13.053125
 20
10.9791
 30
0.0
 11
13.053125
 21
11.69454999999999
 31
0.0
  0
SOLID
  5
146
330
31
100
AcDbEntity
  8
CDIM
100
AcDbTrace
 10
13.101725
 20
13.33339999999999
 30
0.0
 11
13.004525
 21
13.33339999999999
 31
0.0
 12
13.053125
 22
13.625
 32
0.0
 13
13.053125
 23
13.625
 33
0.0
  0
SOLID
  5
147
330
31
100
AcDbEntity
  8
CDIM
100
AcDbTrace
 10
13.101725
 20
10.9791
 30
0.0
 11
13.004525
 21
10.9791
 31
0.0
 12
13.053125
 22
10.6875
 32
0.0
 13
13.053125
 23
10.6875
 33
0.0
  0
TEXT
  5
148
330
31
100
AcDbEntity
  8
CDIM
100
AcDbText
 10
12.526625
 20
11.98614999999999
 30
0.0
 40
0.3402
  1
2.94
  7
STR
100
AcDbText
  0
LINE
  5
149
330
31
100
AcDbEntity
  8
CDIM
100
AcDbLine
 10
22.598125
 20
13.625
 30
0.0
 11
21.7709
 21
13.625
 31
0.0
  0
LINE
  5
14A
330
31
100
AcDbEntity
  8
CDIM
100
AcDbLine
 10
24.848125
 20
12.25
 30
0.0
 11
21.7709
 21
12.25
 31
0.0
  0
LINE
  5
14B
330
31
100
AcDbEntity
  8
CDIM
100
AcDbLine
 10
22.0625
 20
11.9584
 30
0.0
 11
22.0625
 21
11.6668
 31
0.0
  0
LINE
  5
14C
330
31
100
AcDbEntity
  8
CDIM
100
AcDbLine
 10
22.0625
 20
13.9166
 30
0.0
 11
22.0625
 21
14.20819999999999
 31
0.0
  0
SOLID
  5
14D
330
31
100
AcDbEntity
  8
CDIM
100
AcDbTrace
 10
22.1111
 20
11.9584
 30
0.0
 11
22.01389999999999
 21
11.9584
 31
0.0
 12
22.0625
 22
12.25
 32
0.0
 13
22.0625
 23
12.25
 33
0.0
  0
SOLID
  5
14E
330
31
100
AcDbEntity
  8
CDIM
100
AcDbTrace
 10
22.1111
 20
13.9166
 30
0.0
 11
22.01389999999999
 21
13.9166
 31
0.0
 12
22.0625
 22
13.625
 32
0.0
 13
22.0625
 23
13.625
 33
0.0
  0
TEXT
  5
14F
330
31
100
AcDbEntity
  8
CDIM
100
AcDbText
 10
21.53855
 20
12.7467
 30
0.0
 40
0.3402
  1
1.37
  7
STR
100
AcDbText
  0
LINE
  5
150
330
31
100
AcDbEntity
  8
CDIM
100
AcDbLine
 10
22.598125
 20
13.625
 30
0.0
 11
20.761525
 21
13.625
 31
0.0
  0
LINE
  5
151
330
31
100
AcDbEntity
  8
CDIM
100
AcDbLine
 10
23.473125
 20
11.125
 30
0.0
 11
20.761525
 21
11.125
 31
0.0
  0
LINE
  5
152
330
31
100
AcDbEntity
  8
CDIM
100
AcDbLine
 10
21.053125
 20
13.33339999999999
 30
0.0
 11
21.053125
 21
12.55545
 31
0.0
  0
LINE
  5
153
330
31
100
AcDbEntity
  8
CDIM
100
AcDbLine
 10
21.053125
 20
11.4166
 30
0.0
 11
21.053125
 21
11.63205
 31
0.0
  0
SOLID
  5
154
330
31
100
AcDbEntity
  8
CDIM
100
AcDbTrace
 10
21.101725
 20
13.33339999999999
 30
0.0
 11
21.004525
 21
13.33339999999999
 31
0.0
 12
21.053125
 22
13.625
 32
0.0
 13
21.053125
 23
13.625
 33
0.0
  0
SOLID
  5
155
330
31
100
AcDbEntity
  8
CDIM
100
AcDbTrace
 10
21.101725
 20
11.4166
 30
0.0
 11
21.004525
 21
11.4166
 31
0.0
 12
21.053125
 22
11.125
 32
0.0
 13
21.053125
 23
11.125
 33
0.0
  0
TEXT
  5
156
330
31
100
AcDbEntity
  8
CDIM
100
AcDbText
 10
20.534725
 20
11.92365
 30
0.0
 40
0.3402
  1
2.50
  7
STR
100
AcDbText
  0
LINE
  5
157
330
31
100
AcDbEntity
  8
CDIM
100
AcDbLine
 10
26.75
 20
13.776875
 30
0.0
 11
26.75
 21
14.6041
 31
0.0
  0
LINE
  5
158
330
31
100
AcDbEntity
  8
CDIM
100
AcDbLine
 10
25.6875
 20
13.151875
 30
0.0
 11
25.6875
 21
14.6041
 31
0.0
  0
LINE
  5
159
330
31
100
AcDbEntity
  8
CDIM
100
AcDbLine
 10
25.3959
 20
14.3125
 30
0.0
 11
25.10429999999999
 21
14.3125
 31
0.0
  0
LINE
  5
15A
330
31
100
AcDbEntity
  8
CDIM
100
AcDbLine
 10
27.04159999999999
 20
14.3125
 30
0.0
 11
27.3332
 21
14.3125
 31
0.0
  0
SOLID
  5
15B
330
31
100
AcDbEntity
  8
CDIM
100
AcDbTrace
 10
25.3959
 20
14.2639
 30
0.0
 11
25.3959
 21
14.3611
 31
0.0
 12
25.6875
 22
14.3125
 32
0.0
 13
25.6875
 23
14.3125
 33
0.0
  0
SOLID
  5
15C
330
31
100
AcDbEntity
  8
CDIM
100
AcDbTrace
 10
27.04159999999999
 20
14.2639
 30
0.0
 11
27.04159999999999
 21
14.3611
 31
0.0
 12
26.75
 22
14.3125
 32
0.0
 13
26.75
 23
14.3125
 33
0.0
  0
TEXT
  5
15D
330
31
100
AcDbEntity
  8
CDIM
100
AcDbText
 10
23.85689999999999
 20
14.1424
 30
0.0
 40
0.3402
  1
1.06
  7
STR
100
AcDbText
  0
LINE
  5
15E
330
31
100
AcDbEntity
  8
CDIM
100
AcDbLine
 10
26.75
 20
13.776875
 30
0.0
 11
26.75
 21
15.36347499999999
 31
0.0
  0
LINE
  5
15F
330
31
100
AcDbEntity
  8
CDIM
100
AcDbLine
 10
24.3125
 20
11.933125
 30
0.0
 11
24.3125
 21
13.9375
 31
0.0
  0
LINE
  5
160
330
31
100
AcDbEntity
  8
CDIM
100
AcDbLine
 10
26.4584
 20
15.071875
 30
0.0
 11
26.34935
 21
15.071875
 31
0.0
  0
LINE
  5
161
330
31
100
AcDbEntity
  8
CDIM
100
AcDbLine
 10
24.60409999999999
 20
15.071875
 30
0.0
 11
24.71315
 21
15.071875
 31
0.0
  0
SOLID
  5
162
330
31
100
AcDbEntity
  8
CDIM
100
AcDbTrace
 10
26.4584
 20
15.02327499999999
 30
0.0
 11
26.4584
 21
15.120475
 31
0.0
 12
26.75
 22
15.071875
 32
0.0
 13
26.75
 23
15.071875
 33
0.0
  0
SOLID
  5
163
330
31
100
AcDbEntity
  8
CDIM
100
AcDbTrace
 10
24.60409999999999
 20
15.02327499999999
 30
0.0
 11
24.60409999999999
 21
15.120475
 31
0.0
 12
24.3125
 22
15.071875
 32
0.0
 13
24.3125
 23
15.071875
 33
0.0
  0
TEXT
  5
164
330
31
100
AcDbEntity
  8
CDIM
100
AcDbText
 10
25.00475
 20
14.901775
 30
0.0
 40
0.3402
  1
2.44
  7
STR
100
AcDbText
  0
LINE
  5
165
330
31
100
AcDbEntity
  8
CDIM
100
AcDbLine
 10
24.3125
 20
14.6875
 30
0.0
 11
24.3125
 21
15.36347499999999
 31
0.0
  0
ENDBLK
  5
166
330
31
100
AcDbEntity
  8
0
100
AcDbBlockEnd
  0
BLOCK
  5
167
330
33
100
AcDbEntity
  8
0
100
AcDbBlockBegin
  2
100CROSS
 70
     0
 10
5.625
 20
4.59375
 30
0.0
  3
100CROSS
  1

  0
INSERT
  5
169
330
33
100
AcDbEntity
  8
0
100
AcDbBlockReference
  2
050CROSS
 10
5.625
 20
4.59375
 30
0.0
  0
ENDBLK
  5
16A
330
33
100
AcDbEntity
  8
0
100
AcDbBlockEnd
  0
BLOCK
  5
173
330
38
100
AcDbEntity
  8
0
100
AcDbBlockBegin
  2
BOX
 70
     0
 10
0.0
 20
0.0
 30
0.0
  3
BOX
  1

  0
LINE
  5
174
330
38
100
AcDbEntity
  8
0
100
AcDbLine
 10
0.0
 20
1.0
 30
0.0
 11
1.0
 21
1.0
 31
0.0
  0
LINE
  5
175
330
38
100
AcDbEntity
  8
0
100
AcDbLine
 10
1.0
 20
1.0
 30
0.0
 11
1.0
 21
0.0
 31
0.0
  0
LINE
  5
176
330
38
100
AcDbEntity
  8
0
100
AcDbLine
 10
1.0
 20
0.0
 30
0.0
 11
0.0
 21
0.0
 31
0.0
  0
LINE
  5
177
330
38
100
AcDbEntity
  8
0
100
AcDbLine
 10
0.0
 20
0.0
 30
0.0
 11
0.0
 21
1.0
 31
0.0
  0
ENDBLK
  5
178
330
38
100
AcDbEntity
  8
0
100
AcDbBlockEnd
  0
BLOCK
  5
179
330
44
100
AcDbEntity
  8
0
100
AcDbBlockBegin
  2
SUNT3AT
 70
     0
 10
12.3125
 20
17.125
 30
0.0
  3
SUNT3AT
  1

  0
CIRCLE
  5
17A
330
44
100
AcDbEntity
  8
CHIDDEN
100
AcDbCircle
 10
12.3125
 20
17.125
 30
0.0
 40
0.5
  0
CIRCLE
  5
17B
330
44
100
AcDbEntity
  8
CSOLID
100
AcDbCircle
 10
12.3125
 20
17.125
 30
0.0
 40
0.5400000000000001
  0
CIRCLE
  5
17C
330
44
100
AcDbEntity
  8
CSOLID
100
AcDbCircle
 10
12.3125
 20
17.125
 30
0.0
 40
0.5155
  0
CIRCLE
  5
17D
330
44
100
AcDbEntity
  8
CSOLID
100
AcDbCircle
 10
12.3125
 20
17.125
 30
0.0
 40
0.469
  0
CIRCLE
  5
17E
330
44
100
AcDbEntity
  8
CSOLID
100
AcDbCircle
 10
12.3125
 20
17.125
 30
0.0
 40
0.4375
  0
CIRCLE
  5
17F
330
44
100
AcDbEntity
  8
CSOLID
100
AcDbCircle
 10
12.3125
 20
17.125
 30
0.0
 40
0.3439999999999999
  0
INSERT
  5
180
330
44
100
AcDbEntity
  8
CCENTER
100
AcDbBlockReference
  2
100CROSS
 10
12.3125
 20
17.125
 30
0.0
  0
ENDBLK
  5
181
330
44
100
AcDbEntity
  8
0
100
AcDbBlockEnd
  0
BLOCK
  5
182
330
49
100
AcDbEntity
  8
0
100
AcDbBlockBegin
  2
106SAET
 70
     0
 10
6.625
 20
14.28125
 30
0.0
  3
106SAET
  1

  0
CIRCLE
  5
183
330
49
100
AcDbEntity
  8
CSOLID
100
AcDbCircle
 10
6.625
 20
14.28125
 30
0.0
 40
0.4920000000000001
  0
CIRCLE
  5
184
330
49
100
AcDbEntity
  8
CSOLID
100
AcDbCircle
 10
6.625
 20
14.28125
 30
0.0
 40
0.453
  0
CIRCLE
  5
185
330
49
100
AcDbEntity
  8
CSOLID
100
AcDbCircle
 10
6.625
 20
14.28125
 30
0.0
 40
0.8125
  0
INSERT
  5
186
330
49
100
AcDbEntity
  8
CCENTER
100
AcDbBlockReference
  2
100CROSS
 10
6.625
 20
14.28125
 30
0.0
 41
1.33
 42
1.33
  0
CIRCLE
  5
187
330
49
100
AcDbEntity
  8
CHIDDEN
100
AcDbCircle
 10
6.625
 20
14.28125
 30
0.0
 40
0.53125
  0
ENDBLK
  5
188
330
49
100
AcDbEntity
  8
0
100
AcDbBlockEnd
  0
BLOCK
  5
16B
330
168
100
AcDbEntity
  8
0
100
AcDbBlockBegin
  2
050CROSS
 70
     0
 10
5.0
 20
5.0
 30
0.0
  3
050CROSS
  1

  0
LINE
  5
16C
330
168
100
AcDbEntity
  8
0
100
AcDbLine
 10
5.0
 20
5.28125
 30
0.0
 11
5.0
 21
5.78125
 31
0.0
  0
LINE
  5
16D
330
168
100
AcDbEntity
  8
0
100
AcDbLine
 10
5.0
 20
4.875
 30
0.0
 11
5.0
 21
5.125
 31
0.0
  0
LINE
  5
16E
330
168
100
AcDbEntity
  8
0
100
AcDbLine
 10
5.0
 20
4.15625
 30
0.0
 11
5.0
 21
4.71875
 31
0.0
  0
LINE
  5
16F
330
168
100
AcDbEntity
  8
0
100
AcDbLine
 10
5.25
 20
5.0
 30
0.0
 11
5.8125
 21
5.0
 31
0.0
  0
LINE
  5
170
330
168
100
AcDbEntity
  8
0
100
AcDbLine
 10
4.90625
 20
5.0
 30
0.0
 11
5.09375
 21
5.0
 31
0.0
  0
LINE
  5
171
330
168
100
AcDbEntity
  8
0
100
AcDbLine
 10
4.1875
 20
5.0
 30
0.0
 11
4.75
 21
5.0
 31
0.0
  0
ENDBLK
  5
172
330
168
100
AcDbEntity
  8
0
100
AcDbBlockEnd
  0
BLOCK
  5
18A
330
189
100
AcDbEntity
  8
0
100
AcDbBlockBegin
  2
12SAET
 70
     0
 10
0.0
 20
0.0
 30
0.0
  3
12SAET
  1

  0
CIRCLE
  5
18B
330
189
100
AcDbEntity
  8
DAMAN
100
AcDbCircle
 10
0.0
 20
0.0
 30
0.0
 40
0.4920000000000001
  0
CIRCLE
  5
18C
330
189
100
AcDbEntity
  8
DAMAN
100
AcDbCircle
 10
0.0
 20
0.0
 30
0.0
 40
0.453
  0
CIRCLE
  5
18D
330
189
100
AcDbEntity
  8
DAMAN
100
AcDbCircle
 10
0.0
 20
0.0
 30
0.0
 40
0.8125
  0
INSERT
  5
18E
330
189
100
AcDbEntity
  8
DAMAN
100
AcDbBlockReference
  2
100CROSS
 10
0.0
 20
0.0
 30
0.0
 41
1.33
 42
1.33
  0
CIRCLE
  5
18F
330
189
100
AcDbEntity
  8
DAMAN
100
AcDbCircle
 10
0.0
 20
0.0
 30
0.0
 40
0.53125
  0
ENDBLK
  5
190
330
189
100
AcDbEntity
  8
0
100
AcDbBlockEnd
  0
BLOCK
  5
192
330
191
100
AcDbEntity
  8
0
100
AcDbBlockBegin
  2
T3AT
 70
     0
 10
0.0
 20
0.0
 30
0.0
  3
T3AT
  1

  0
CIRCLE
  5
193
330
191
100
AcDbEntity
  8
DAMAN
100
AcDbCircle
 10
0.0
 20
0.0
 30
0.0
 40
0.4665
  0
CIRCLE
  5
194
330
191
100
AcDbEntity
  8
DAMAN
100
AcDbCircle
 10
0.0
 20
0.0
 30
0.0
 40
0.4375
  0
CIRCLE
  5
195
330
191
100
AcDbEntity
  8
DAMAN
  6
HIDDEN
100
AcDbCircle
 10
0.0
 20
0.0
 30
0.0
 40
0.5
  0
INSERT
  5
196
330
191
100
AcDbEntity
  8
DAMAN
100
AcDbBlockReference
  2
100CROSS
 10
0.0
 20
0.0
 30
0.0
 41
0.88
 42
0.88
  0
CIRCLE
  5
197
330
191
100
AcDbEntity
  8
DAMAN
100
AcDbCircle
 10
0.0
 20
0.0
 30
0.0
 40
0.5160000000000001
  0
CIRCLE
  5
198
330
191
100
AcDbEntity
  8
DAMAN
100
AcDbCircle
 10
0.0
 20
0.0
 30
0.0
 40
0.5390000000000001
  0
CIRCLE
  5
199
330
191
100
AcDbEntity
  8
DAMAN
100
AcDbCircle
 10
0.0
 20
0.0
 30
0.0
 40
0.3439999999999999
  0
ENDBLK
  5
19A
330
191
100
AcDbEntity
  8
0
100
AcDbBlockEnd
  0
ENDSEC
  0
SECTION
  2
ENTITIES
  0
INSERT
  5
19B
330
1E
100
AcDbEntity
  8
DAMAN
100
AcDbBlockReference
  2
100CROSS
 10
8.875
 20
13.65625
 30
0.0
 41
0.188
 42
0.188
  0
CIRCLE
  5
19C
330
1E
100
AcDbEntity
  8
DAMAN
100
AcDbCircle
 10
8.875
 20
13.65625
 30
0.0
 40
0.094
  0
CIRCLE
  5
19D
330
1E
100
AcDbEntity
  8
DAMAN
100
AcDbCircle
 10
8.875
 20
10.90624999999999
 30
0.0
 40
0.094
  0
INSERT
  5
19E
330
1E
100
AcDbEntity
  8
DAMAN
100
AcDbBlockReference
  2
100CROSS
 10
8.875
 20
10.90624999999999
 30
0.0
 41
0.188
 42
0.188
  0
INSERT
  5
19F
330
1E
100
AcDbEntity
  8
DAMAN
100
AcDbBlockReference
  2
BOX
 10
6.625
 20
10.03125
 30
0.0
 41
4.0
 42
4.625
  0
INSERT
  5
1A0
330
1E
100
AcDbEntity
  8
DAMAN
100
AcDbBlockReference
  2
BOX
 10
6.625
 20
5.78125
 30
0.0
 41
4.0
 42
3.0
  0
INSERT
  5
1A1
330
1E
100
AcDbEntity
  8
DAMAN
100
AcDbBlockReference
  2
BOX
 10
6.625
 20
15.65625
 30
0.0
 41
4.0
 42
3.0
  0
INSERT
  5
1A2
330
1E
100
AcDbEntity
  8
DAMAN
100
AcDbBlockReference
  2
BOX
 10
13.875
 20
10.03125
 30
0.0
 41
3.0
 42
4.625
  0
INSERT
  5
1A3
330
1E
100
AcDbEntity
  8
DAMAN
100
AcDbBlockReference
  2
BOX
 10
19.125
 20
10.03125
 30
0.0
 41
4.0
 42
4.625
  0
INSERT
  5
1A4
330
1E
100
AcDbEntity
  8
DAMAN
100
AcDbBlockReference
  2
100CROSS
 10
7.0
 20
14.28125
 30
0.0
 41
0.6
 42
0.6
  0
CIRCLE
  5
1A5
330
1E
100
AcDbEntity
  8
DAMAN
100
AcDbCircle
 10
7.0
 20
14.28125
 30
0.0
 40
0.203
  0
CIRCLE
  5
1A6
330
1E
100
AcDbEntity
  8
DAMAN
100
AcDbCircle
 10
7.0
 20
14.28125
 30
0.0
 40
0.3125
  0
CIRCLE
  5
1A7
330
1E
100
AcDbEntity
  8
DAMAN
100
AcDbCircle
 10
10.25
 20
10.40625
 30
0.0
 40
0.3125
  0
CIRCLE
  5
1A8
330
1E
100
AcDbEntity
  8
DAMAN
100
AcDbCircle
 10
10.25
 20
10.40625
 30
0.0
 40
0.203
  0
INSERT
  5
1A9
330
1E
100
AcDbEntity
  8
DAMAN
100
AcDbBlockReference
  2
100CROSS
 10
10.25
 20
10.40625
 30
0.0
 41
0.6
 42
0.6
  0
CIRCLE
  5
1AA
330
1E
100
AcDbEntity
  8
DAMAN
100
AcDbCircle
 10
19.5
 20
10.40625
 30
0.0
 40
0.203
  0
INSERT
  5
1AB
330
1E
100
AcDbEntity
  8
DAMAN
100
AcDbBlockReference
  2
100CROSS
 10
22.74999999999999
 20
14.28125
 30
0.0
 41
0.45
 42
0.45
  0
CIRCLE
  5
1AC
330
1E
100
AcDbEntity
  8
DAMAN
100
AcDbCircle
 10
22.74999999999999
 20
14.28125
 30
0.0
 40
0.203
  0
CIRCLE
  5
1AD
330
1E
100
AcDbEntity
  8
DAMAN
100
AcDbCircle
 10
22.0625
 20
13.28125
 30
0.0
 40
0.8125
  0
INSERT
  5
1AE
330
1E
100
AcDbEntity
  8
DAMAN
100
AcDbBlockReference
  2
100CROSS
 10
22.0625
 20
13.28125
 30
0.0
 41
1.33
 42
1.33
  0
CIRCLE
  5
1AF
330
1E
100
AcDbEntity
  8
DAMAN
100
AcDbCircle
 10
22.0625
 20
13.28125
 30
0.0
 40
0.53125
  0
CIRCLE
  5
1B0
330
1E
100
AcDbEntity
  8
DAMAN
100
AcDbCircle
 10
20.6875
 20
12.15625
 30
0.0
 40
0.4920000000000001
  0
CIRCLE
  5
1B1
330
1E
100
AcDbEntity
  8
DAMAN
100
AcDbCircle
 10
20.6875
 20
12.15625
 30
0.0
 40
0.453
  0
CIRCLE
  5
1B2
330
1E
100
AcDbEntity
  8
DAMAN
100
AcDbCircle
 10
20.6875
 20
12.15625
 30
0.0
 40
0.8125
  0
INSERT
  5
1B3
330
1E
100
AcDbEntity
  8
DAMAN
100
AcDbBlockReference
  2
100CROSS
 10
20.6875
 20
12.15625
 30
0.0
 41
1.33
 42
1.33
  0
CIRCLE
  5
1B4
330
1E
100
AcDbEntity
  8
DAMAN
100
AcDbCircle
 10
20.6875
 20
12.15625
 30
0.0
 40
0.53125
  0
INSERT
  5
1B5
330
1E
100
AcDbEntity
  8
DAMAN
100
AcDbBlockReference
  2
100CROSS
 10
9.218999999999999
 20
10.78125
 30
0.0
 41
0.188
 42
0.188
  0
CIRCLE
  5
1B6
330
1E
100
AcDbEntity
  8
DAMAN
100
AcDbCircle
 10
9.218999999999999
 20
10.78125
 30
0.0
 40
0.09375
  0
CIRCLE
  5
1B7
330
1E
100
AcDbEntity
  8
DAMAN
100
AcDbCircle
 10
7.593999999999999
 20
13.78125
 30
0.0
 40
0.09375
  0
INSERT
  5
1B8
330
1E
100
AcDbEntity
  8
DAMAN
100
AcDbBlockReference
  2
100CROSS
 10
7.593999999999999
 20
13.78125
 30
0.0
 41
0.188
 42
0.188
  0
INSERT
  5
1B9
330
1E
100
AcDbEntity
  8
DAMAN
100
AcDbBlockReference
  2
100CROSS
 10
7.5
 20
13.34375
 30
0.0
 41
0.25
 42
0.25
  0
CIRCLE
  5
1BA
330
1E
100
AcDbEntity
  8
DAMAN
100
AcDbCircle
 10
7.5
 20
13.34375
 30
0.0
 40
0.1055
  0
CIRCLE
  5
1BB
330
1E
100
AcDbEntity
  8
DAMAN
100
AcDbCircle
 10
7.5
 20
11.21874999999999
 30
0.0
 40
0.1055
  0
INSERT
  5
1BC
330
1E
100
AcDbEntity
  8
DAMAN
100
AcDbBlockReference
  2
100CROSS
 10
7.5
 20
11.21874999999999
 30
0.0
 41
0.25
 42
0.25
  0
CIRCLE
  5
1BD
330
1E
100
AcDbEntity
  8
DAMAN
100
AcDbCircle
 10
9.3125
 20
13.34375
 30
0.0
 40
0.1055
  0
INSERT
  5
1BE
330
1E
100
AcDbEntity
  8
DAMAN
100
AcDbBlockReference
  2
100CROSS
 10
9.3125
 20
13.34375
 30
0.0
 41
0.25
 42
0.25
  0
CIRCLE
  5
1BF
330
1E
100
AcDbEntity
  8
DAMAN
100
AcDbCircle
 10
9.3125
 20
11.21874999999999
 30
0.0
 40
0.1055
  0
INSERT
  5
1C0
330
1E
100
AcDbEntity
  8
DAMAN
100
AcDbBlockReference
  2
100CROSS
 10
9.3125
 20
11.21874999999999
 30
0.0
 41
0.25
 42
0.25
  0
INSERT
  5
1C1
330
1E
100
AcDbEntity
  8
DAMAN
100
AcDbBlockReference
  2
100CROSS
 10
8.031
 20
13.21875
 30
0.0
 41
0.4379999999999999
 42
0.4379999999999999
  0
CIRCLE
  5
1C2
330
1E
100
AcDbEntity
  8
DAMAN
100
AcDbCircle
 10
8.031
 20
13.21875
 30
0.0
 40
0.21875
  0
CIRCLE
  5
1C3
330
1E
100
AcDbEntity
  8
DAMAN
100
AcDbCircle
 10
8.4685
 20
12.68774999999999
 30
0.0
 40
0.21875
  0
INSERT
  5
1C4
330
1E
100
AcDbEntity
  8
DAMAN
100
AcDbBlockReference
  2
100CROSS
 10
8.4685
 20
12.68774999999999
 30
0.0
 41
0.4379999999999999
 42
0.4379999999999999
  0
INSERT
  5
1C5
330
1E
100
AcDbEntity
  8
DAMAN
100
AcDbBlockReference
  2
100CROSS
 10
8.4685
 20
11.87524999999999
 30
0.0
 41
0.4379999999999999
 42
0.4379999999999999
  0
CIRCLE
  5
1C6
330
1E
100
AcDbEntity
  8
DAMAN
100
AcDbCircle
 10
8.4685
 20
11.87524999999999
 30
0.0
 40
0.21875
  0
CIRCLE
  5
1C7
330
1E
100
AcDbEntity
  8
DAMAN
100
AcDbCircle
 10
9.0625
 20
12.2815
 30
0.0
 40
0.21875
  0
INSERT
  5
1C8
330
1E
100
AcDbEntity
  8
DAMAN
100
AcDbBlockReference
  2
100CROSS
 10
9.0625
 20
12.2815
 30
0.0
 41
0.4379999999999999
 42
0.4379999999999999
  0
CIRCLE
  5
1C9
330
1E
100
AcDbEntity
  8
DAMAN
100
AcDbCircle
 10
7.5
 20
11.21874999999999
 30
0.0
 40
0.125
  0
CIRCLE
  5
1CA
330
1E
100
AcDbEntity
  8
DAMAN
100
AcDbCircle
 10
9.3125
 20
11.21874999999999
 30
0.0
 40
0.125
  0
CIRCLE
  5
1CB
330
1E
100
AcDbEntity
  8
DAMAN
100
AcDbCircle
 10
9.3125
 20
13.34375
 30
0.0
 40
0.125
  0
CIRCLE
  5
1CC
330
1E
100
AcDbEntity
  8
DAMAN
100
AcDbCircle
 10
7.5
 20
13.34375
 30
0.0
 40
0.125
  0
CIRCLE
  5
1CD
330
1E
100
AcDbEntity
  8
DAMAN
100
AcDbCircle
 10
9.0625
 20
7.03125
 30
0.0
 40
0.4920000000000001
  0
CIRCLE
  5
1CE
330
1E
100
AcDbEntity
  8
DAMAN
100
AcDbCircle
 10
9.0625
 20
7.03125
 30
0.0
 40
0.453
  0
ARC
  5
1CF
330
1E
100
AcDbEntity
  8
DAMAN
100
AcDbCircle
 10
9.0625
 20
7.03125
 30
0.0
 40
0.8125
100
AcDbArc
 50
195.942369
 51
164.057631
  0
INSERT
  5
1D0
330
1E
100
AcDbEntity
  8
DAMAN
100
AcDbBlockReference
  2
100CROSS
 10
9.0625
 20
7.03125
 30
0.0
 41
1.33
 42
1.33
  0
CIRCLE
  5
1D1
330
1E
100
AcDbEntity
  8
DAMAN
100
AcDbCircle
 10
9.0625
 20
7.03125
 30
0.0
 40
0.53125
  0
CIRCLE
  5
1D2
330
1E
100
AcDbEntity
  8
DAMAN
100
AcDbCircle
 10
7.5
 20
7.03125
 30
0.0
 40
0.4920000000000001
  0
CIRCLE
  5
1D3
330
1E
100
AcDbEntity
  8
DAMAN
100
AcDbCircle
 10
7.5
 20
7.03125
 30
0.0
 40
0.453
  0
ARC
  5
1D4
330
1E
100
AcDbEntity
  8
DAMAN
100
AcDbCircle
 10
7.5
 20
7.03125
 30
0.0
 40
0.8125
100
AcDbArc
 50
15.942369
 51
344.057631
  0
INSERT
  5
1D5
330
1E
100
AcDbEntity
  8
DAMAN
100
AcDbBlockReference
  2
100CROSS
 10
7.5
 20
7.03125
 30
0.0
 41
1.33
 42
1.33
  0
CIRCLE
  5
1D6
330
1E
100
AcDbEntity
  8
DAMAN
100
AcDbCircle
 10
7.5
 20
7.03125
 30
0.0
 40
0.53125
  0
INSERT
  5
1D7
330
1E
100
AcDbEntity
  8
DAMAN
100
AcDbBlockReference
  2
100CROSS
 10
9.375
 20
8.28125
 30
0.0
  0
ARC
  5
1D8
330
1E
100
AcDbEntity
  8
DAMAN
100
AcDbCircle
 10
9.375
 20
8.28125
 30
0.0
 40
0.5
100
AcDbArc
 50
226.5674629999999
 51
133.432537
  0
CIRCLE
  5
1D9
330
1E
100
AcDbEntity
  8
DAMAN
100
AcDbCircle
 10
9.375
 20
8.28125
 30
0.0
 40
0.25
  0
INSERT
  5
1DA
330
1E
100
AcDbEntity
  8
DAMAN
100
AcDbBlockReference
  2
100CROSS
 10
8.6875
 20
8.28125
 30
0.0
  0
ARC
  5
1DB
330
1E
100
AcDbEntity
  8
DAMAN
100
AcDbCircle
 10
8.6875
 20
8.28125
 30
0.0
 40
0.5
100
AcDbArc
 50
46.567463
 51
313.432537
  0
CIRCLE
  5
1DC
330
1E
100
AcDbEntity
  8
DAMAN
100
AcDbCircle
 10
8.6875
 20
8.28125
 30
0.0
 40
0.25
  0
CIRCLE
  5
1DD
330
1E
100
AcDbEntity
  8
DAMAN
100
AcDbCircle
 10
9.0625
 20
16.15625
 30
0.0
 40
0.28125
  0
CIRCLE
  5
1DE
330
1E
100
AcDbEntity
  8
DAMAN
100
AcDbCircle
 10
9.0625
 20
16.15625
 30
0.0
 40
0.5
  0
CIRCLE
  5
1DF
330
1E
100
AcDbEntity
  8
DAMAN
100
AcDbCircle
 10
9.0625
 20
16.15625
 30
0.0
 40
0.25
  0
CIRCLE
  5
1E0
330
1E
100
AcDbEntity
  8
DAMAN
100
AcDbCircle
 10
7.6875
 20
16.15625
 30
0.0
 40
0.28125
  0
CIRCLE
  5
1E1
330
1E
100
AcDbEntity
  8
DAMAN
100
AcDbCircle
 10
7.6875
 20
16.15625
 30
0.0
 40
0.5
  0
CIRCLE
  5
1E2
330
1E
100
AcDbEntity
  8
DAMAN
100
AcDbCircle
 10
7.6875
 20
16.15625
 30
0.0
 40
0.25
  0
TEXT
  5
1E3
330
1E
100
AcDbEntity
  8
DAMAN
100
AcDbText
 10
6.78125
 20
7.78125
 30
0.0
 40
0.25
  1
T
  7
STR
100
AcDbText
  0
TEXT
  5
1E4
330
1E
100
AcDbEntity
  8
DAMAN
100
AcDbText
 10
9.875
 20
7.5
 30
0.0
 40
0.25
  1
P
  7
STR
100
AcDbText
  0
TEXT
  5
1E5
330
1E
100
AcDbEntity
  8
DAMAN
100
AcDbText
 10
9.96875
 20
8.40625
 30
0.0
 40
0.25
  1
X
  7
STR
100
AcDbText
  0
TEXT
  5
1E6
330
1E
100
AcDbEntity
  8
DAMAN
100
AcDbText
 10
7.875
 20
8.40625
 30
0.0
 40
0.25
  1
Y
  7
STR
100
AcDbText
  0
TEXT
  5
1E7
330
1E
100
AcDbEntity
  8
DAMAN
100
AcDbText
 10
7.09375
 20
16.03125
 30
0.0
 40
0.25
  1
Y
 50
180.0
  7
STR
100
AcDbText
  0
TEXT
  5
1E8
330
1E
100
AcDbEntity
  8
DAMAN
100
AcDbText
 10
9.84375
 20
16.0625
 30
0.0
 40
0.25
  1
X
 50
180.0
  7
STR
100
AcDbText
  0
TEXT
  5
1E9
330
1E
100
AcDbEntity
  8
DAMAN
100
AcDbText
 10
14.28125
 20
12.96875
 30
0.0
 40
0.25
  1
A
 50
90.0
  7
STR
100
AcDbText
  0
TEXT
  5
1EA
330
1E
100
AcDbEntity
  8
DAMAN
100
AcDbText
 10
14.28125
 20
10.71875
 30
0.0
 40
0.25
  1
B
 50
90.0
  7
STR
100
AcDbText
  0
INSERT
  5
1EB
330
1E
100
AcDbEntity
  8
DAMAN
100
AcDbBlockReference
  2
100CROSS
 10
19.5
 20
10.40625
 30
0.0
 41
0.45
 42
0.45
  0
CIRCLE
  5
1EC
330
1E
100
AcDbEntity
  8
DAMAN
100
AcDbCircle
 10
22.0625
 20
13.28125
 30
0.0
 40
0.453
  0
CIRCLE
  5
1ED
330
1E
100
AcDbEntity
  8
DAMAN
100
AcDbCircle
 10
22.0625
 20
13.28125
 30
0.0
 40
0.4920000000000001
  0
TEXT
  5
1EE
330
1E
100
AcDbEntity
  8
DAMAN
100
AcDbText
 10
19.90625
 20
12.8125
 30
0.0
 40
0.25
  1
P
  7
STR
100
AcDbText
  0
TEXT
  5
1EF
330
1E
100
AcDbEntity
  8
DAMAN
100
AcDbText
 10
21.34374999999999
 20
14.03125
 30
0.0
 40
0.25
  1
T
  7
STR
100
AcDbText
  0
INSERT
  5
1F0
330
1E
100
AcDbEntity
  8
DAMAN
100
AcDbBlockReference
  2
12SAET
 10
14.75
 20
11.71875
 30
0.0
  0
INSERT
  5
1F1
330
1E
100
AcDbEntity
  8
DAMAN
100
AcDbBlockReference
  2
12SAET
 10
14.9375
 20
13.84375
 30
0.0
  0
INSERT
  5
1F2
330
1E
100
AcDbEntity
  8
DAMAN
100
AcDbBlockReference
  2
T3AT
 10
9.0625
 20
17.71875
 30
0.0
  0
INSERT
  5
1F3
330
1E
100
AcDbEntity
  8
DAMAN
100
AcDbBlockReference
  2
100CROSS
 10
7.6875
 20
16.15625
 30
0.0
  0
INSERT
  5
1F4
330
1E
100
AcDbEntity
  8
DAMAN
100
AcDbBlockReference
  2
100CROSS
 10
9.0625
 20
16.15625
 30
0.0
  0
TEXT
  5
1F5
330
1E
100
AcDbEntity
  8
DAMAN
100
AcDbText
 10
16.02019772553848
 20
10.25308710903041
 30
0.0
 40
0.188
  1
DAMAN ****
 50
90.0
100
AcDbText
  0
ENDSEC
  0
SECTION
  2
OBJECTS
  0
DICTIONARY
  5
C
330
0
100
AcDbDictionary
  3
ACAD_GROUP
350
D
  3
ACAD_LAYOUT
350
19
  3
ACAD_MLINESTYLE
350
16
  3
ACAD_PLOTSETTINGS
350
18
  3
ACAD_PLOTSTYLENAME
350
E
  3
ACDBHEADERROUNDTRIPXREC
350
1F9
  0
DICTIONARY
  5
21B
330
1E
100
AcDbDictionary
280
     1
  3
ACAD_LAYOUTSELFREF
360
21C
  0
DICTIONARY
  5
219
330
1A
100
AcDbDictionary
280
     1
  3
ACAD_LAYOUTSELFREF
360
21A
  0
DICTIONARY
  5
D
102
{ACAD_REACTORS
330
C
102
}
330
C
100
AcDbDictionary
  0
DICTIONARY
  5
19
102
{ACAD_REACTORS
330
C
102
}
330
C
100
AcDbDictionary
  0
DICTIONARY
  5
16
102
{ACAD_REACTORS
330
C
102
}
330
C
100
AcDbDictionary
  3
STANDARD
350
17
  0
DICTIONARY
  5
18
102
{ACAD_REACTORS
330
C
102
}
330
C
100
AcDbDictionary
  0
ACDBDICTIONARYWDFLT
  5
E
102
{ACAD_REACTORS
330
C
102
}
330
C
100
AcDbDictionary
281
     1
  3
Normal
350
F
100
AcDbDictionaryWithDefault
340
F
  0
DICTIONARY
  5
1F9
102
{ACAD_REACTORS
330
C
102
}
330
C
100
AcDbDictionary
  3
CEPSNTYPE
350
203
  3
FINGERPRINTGUID
350
204
  3
HYPERLINKBASE
350
1FC
  3
INSUNITS
350
202
  3
LAYOUTDICT
350
1FE
  3
LWETCUNION
350
201
  3
PLOTSETDICT
350
1FF
  3
PLOTSTYLNAMDICT
350
200
  3
PSVPSCALE
350
206
  3
PUCSBASE
350
209
  3
PUCSORGBACK
350
20F
  3
PUCSORGBOTTOM
350
20B
  3
PUCSORGFRONT
350
20E
  3
PUCSORGLEFT
350
20C
  3
PUCSORGRIGHT
350
20D
  3
PUCSORGTOP
350
20A
  3
PUCSORTHOREF
350
207
  3
PUCSORTHOVIEW
350
208
  3
STYLESHEET
350
1FD
  3
TSTACKALIGN
350
1FA
  3
TSTACKSIZE
350
1FB
  3
UCSBASE
350
212
  3
UCSORGBACK
350
218
  3
UCSORGBOTTOM
350
214
  3
UCSORGFRONT
350
217
  3
UCSORGLEFT
350
215
  3
UCSORGRIGHT
350
216
  3
UCSORGTOP
350
213
  3
UCSORTHOREF
350
210
  3
UCSORTHOVIEW
350
211
  3
VERSIONGUID
350
205
  0
XRECORD
  5
21C
102
{ACAD_REACTORS
330
21B
102
}
330
21B
100
AcDbXrecord
340
1E
  0
XRECORD
  5
21A
102
{ACAD_REACTORS
330
219
102
}
330
219
100
AcDbXrecord
340
1A
  0
MLINESTYLE
  5
17
102
{ACAD_REACTORS
330
16
102
}
330
16
100
AcDbMlineStyle
  2
STANDARD
 70
     0
  3

 62
   256
 51
90.0
 52
90.0
 71
     2
 49
0.5
 62
   256
  6
BYLAYER
 49
-0.5
 62
   256
  6
BYLAYER
  0
ACDBPLACEHOLDER
  5
F
102
{ACAD_REACTORS
330
E
102
}
330
E
100
AcDbPlaceHolder
280
     0
  0
XRECORD
  5
203
102
{ACAD_REACTORS
330
1F9
102
}
330
1F9
100
AcDbXrecord
 90
        0
  0
XRECORD
  5
204
102
{ACAD_REACTORS
330
1F9
102
}
330
1F9
100
AcDbXrecord
  1
{FAD4CB16-C323-4D78-A763-5D42C18C9317}
  0
XRECORD
  5
1FC
102
{ACAD_REACTORS
330
1F9
102
}
330
1F9
100
AcDbXrecord
  1

  0
XRECORD
  5
202
102
{ACAD_REACTORS
330
1F9
102
}
330
1F9
100
AcDbXrecord
 90
        0
  0
XRECORD
  5
1FE
102
{ACAD_REACTORS
330
1F9
102
}
330
1F9
100
AcDbXrecord
340
19
  0
XRECORD
  5
201
102
{ACAD_REACTORS
330
1F9
102
}
330
1F9
100
AcDbXrecord
 90
    10781
  0
XRECORD
  5
1FF
102
{ACAD_REACTORS
330
1F9
102
}
330
1F9
100
AcDbXrecord
340
18
  0
XRECORD
  5
200
102
{ACAD_REACTORS
330
1F9
102
}
330
1F9
100
AcDbXrecord
340
E
  0
XRECORD
  5
206
102
{ACAD_REACTORS
330
1F9
102
}
330
1F9
100
AcDbXrecord
 40
0.0
  0
XRECORD
  5
209
102
{ACAD_REACTORS
330
1F9
102
}
330
1F9
100
AcDbXrecord
340
0
  0
XRECORD
  5
20F
102
{ACAD_REACTORS
330
1F9
102
}
330
1F9
100
AcDbXrecord
 10
0.0
 20
0.0
 30
0.0
  0
XRECORD
  5
20B
102
{ACAD_REACTORS
330
1F9
102
}
330
1F9
100
AcDbXrecord
 10
0.0
 20
0.0
 30
0.0
  0
XRECORD
  5
20E
102
{ACAD_REACTORS
330
1F9
102
}
330
1F9
100
AcDbXrecord
 10
0.0
 20
0.0
 30
0.0
  0
XRECORD
  5
20C
102
{ACAD_REACTORS
330
1F9
102
}
330
1F9
100
AcDbXrecord
 10
0.0
 20
0.0
 30
0.0
  0
XRECORD
  5
20D
102
{ACAD_REACTORS
330
1F9
102
}
330
1F9
100
AcDbXrecord
 10
0.0
 20
0.0
 30
0.0
  0
XRECORD
  5
20A
102
{ACAD_REACTORS
330
1F9
102
}
330
1F9
100
AcDbXrecord
 10
0.0
 20
0.0
 30
0.0
  0
XRECORD
  5
207
102
{ACAD_REACTORS
330
1F9
102
}
330
1F9
100
AcDbXrecord
340
0
  0
XRECORD
  5
208
102
{ACAD_REACTORS
330
1F9
102
}
330
1F9
100
AcDbXrecord
 70
     0
  0
XRECORD
  5
1FD
102
{ACAD_REACTORS
330
1F9
102
}
330
1F9
100
AcDbXrecord
  1

  0
XRECORD
  5
1FA
102
{ACAD_REACTORS
330
1F9
102
}
330
1F9
100
AcDbXrecord
 90
        1
  0
XRECORD
  5
1FB
102
{ACAD_REACTORS
330
1F9
102
}
330
1F9
100
AcDbXrecord
 90
       70
  0
XRECORD
  5
212
102
{ACAD_REACTORS
330
1F9
102
}
330
1F9
100
AcDbXrecord
340
0
  0
XRECORD
  5
218
102
{ACAD_REACTORS
330
1F9
102
}
330
1F9
100
AcDbXrecord
 10
0.0
 20
0.0
 30
0.0
  0
XRECORD
  5
214
102
{ACAD_REACTORS
330
1F9
102
}
330
1F9
100
AcDbXrecord
 10
0.0
 20
0.0
 30
0.0
  0
XRECORD
  5
217
102
{ACAD_REACTORS
330
1F9
102
}
330
1F9
100
AcDbXrecord
 10
0.0
 20
0.0
 30
0.0
  0
XRECORD
  5
215
102
{ACAD_REACTORS
330
1F9
102
}
330
1F9
100
AcDbXrecord
 10
0.0
 20
0.0
 30
0.0
  0
XRECORD
  5
216
102
{ACAD_REACTORS
330
1F9
102
}
330
1F9
100
AcDbXrecord
 10
0.0
 20
0.0
 30
0.0
  0
XRECORD
  5
213
102
{ACAD_REACTORS
330
1F9
102
}
330
1F9
100
AcDbXrecord
 10
0.0
 20
0.0
 30
0.0
  0
XRECORD
  5
210
102
{ACAD_REACTORS
330
1F9
102
}
330
1F9
100
AcDbXrecord
340
0
  0
XRECORD
  5
211
102
{ACAD_REACTORS
330
1F9
102
}
330
1F9
100
AcDbXrecord
 70
     0
  0
XRECORD
  5
205
102
{ACAD_REACTORS
330
1F9
102
}
330
1F9
100
AcDbXrecord
  1
{C5A7979E-03EE-4F5A-9519-F6843EBACCAB}
  0
ENDSEC
  0
EOF
