 0
SECTION
 2
HEADER
 9
$ACADVER
 1
AC1009
 9
$EXTMIN
10
-0.5619999999999992
20
-0.5619999999999996
30
0.0
 9
$EXTMAX
10
37.3119999999999976
20
17.5620000000000012
30
0.0
 9
$LIMMIN
10
0.0
20
0.0
 9
$LIMMAX
10
12.0000000000000000
20
9.0000000000000000
 9
$ORTHOMODE
70
  1
 9
$REGENMODE
70
  1
 9
$FILLMODE
70
  1
 9
$QTEXTMODE
70
  0
 9
$DRAGMODE
70
  2
 9
$LTSCALE
40
1.0000000000000000
 9
$OSMODE
70
  0
 9
$ATTMODE
70
  1
 9
$TEXTSIZE
40
0.2000000000000000
 9
$TRACEWID
40
0.0500000000000000
 9
$CECOLOR
62
  0
 9
$DIMSCALE
40
1.0000000000000000
 9
$DIMASZ
40
0.1800000000000000
 9
$DIMEXO
40
0.0625000000000000
 9
$DIMDLI
40
0.3800000000000000
 9
$DIMRND
40
0.0
 9
$DIMDLE
40
0.0
 9
$DIMEXE
40
0.1800000000000000
 9
$DIMTP
40
0.0
 9
$DIMTM
40
0.0
 9
$DIMTXT
40
0.1800000000000000
 9
$DIMCEN
40
0.0900000000000000
 9
$DIMTSZ
40
0.0
 9
$DIMTOL
70
  0
 9
$DIMLIM
70
  0
 9
$DIMTIH
70
  1
 9
$DIMTOH
70
  1
 9
$DIMSE1
70
  0
 9
$DIMSE2
70
  0
 9
$DIMTAD
70
  0
 9
$DIMZIN
70
  0
 9
$DIMBLK
 1

 9
$DIMASO
70
  1
 9
$DIMSHO
70
  1
 9
$DIMALT
70
  0
 9
$DIMALTD
70
  2
 9
$DIMALTF
40
25.3999999999999986
 9
$DIMLFAC
40
1.0000000000000000
 9
$DIMPOST
 1

 9
$DIMAPOST
 1

 9
$DIMTOFL
70
  0
 9
$DIMTVP
40
0.0
 9
$DIMTIX
70
  0
 9
$DIMSOXD
70
  0
 9
$DIMSAH
70
  0
 9
$DIMBLK1
 1

 9
$DIMBLK2
 1

 9
$HANDLING
70
  1
 9
$HANDSEED
 5
273
 9
$MIRRTEXT
70
  1
 9
$INSBASE
10
0.0
20
0.0
30
0.0
 9
$SPLINETYPE
70
  6
 9
$SURFTAB1
70
  6
 9
$SURFTAB2
70
  6
 9
$SURFTYPE
70
  6
 9
$SURFU
70
  6
 9
$SURFV
70
  6
 9
$UCSNAME
 2

 9
$UCSORG
10
0.0
20
0.0
30
0.0
 9
$UCSXDIR
10
1.0000000000000000
20
0.0
30
0.0
 9
$UCSYDIR
10
0.0
20
1.0000000000000000
30
0.0
 9
$USERI1
70
  0
 9
$USERI2
70
  0
 9
$USERI3
70
  0
 9
$USERI4
70
  0
 9
$USERI5
70
  0
 9
$USERR1
40
0.0
 9
$USERR2
40
0.0
 9
$USERR3
40
0.0
 9
$USERR4
40
0.0
 9
$USERR5
40
0.0
 9
$WORLDVIEW
70
  1
 9
$DIMCLRD
70
  0
 9
$DIMCLRE
70
  0
 9
$DIMCLRT
70
  0
 9
$DIMGAP
40
0.0900000000000000
 9
$DIMTFAC
40
1.0000000000000000
 9
$MAXACTVP
70
 16
 9
$PLIMCHECK
70
  0
 9
$PEXTMIN
10
100000000000000000000.0000000000000000
20
100000000000000000000.0000000000000000
30
100000000000000000000.0000000000000000
 9
$PEXTMAX
10
-100000000000000000000.0000000000000000
20
-100000000000000000000.0000000000000000
30
-100000000000000000000.0000000000000000
 9
$PLIMMIN
10
0.0
20
0.0
 9
$PLIMMAX
10
12.0000000000000000
20
9.0000000000000000
 9
$PUCSORG
10
0.0
20
0.0
30
0.0
 9
$PUCSXDIR
10
1.0000000000000000
20
0.0
30
0.0
 9
$PUCSYDIR
10
0.0
20
1.0000000000000000
30
0.0
 9
$PELEVATION
40
0.0
 9
$PINSBASE
10
0.0
20
0.0
30
0.0
 9
$SHADEDGE
70
  3
 9
$SHADEDIF
70
 70
 9
$TILEMODE
70
  1
 9
$UNITMODE
70
  0
 9
$VISRETAIN
70
  0
 9
$LUNITS
70
  2
 9
$LUPREC
70
  4
 9
$AXISMODE
70
  0
 9
$AXISUNIT
10
0.0
20
0.0
 9
$SKETCHINC
40
0.1000000000000000
 9
$FILLETRAD
40
0.0
 9
$AUNITS
70
  0
 9
$AUPREC
70
  0
 9
$MENU
 1
tom
 9
$ELEVATION
40
0.0
 9
$THICKNESS
40
0.0
 9
$LIMCHECK
70
  0
 9
$BLIPMODE
70
  1
 9
$CHAMFERA
40
0.0
 9
$CHAMFERB
40
0.0
 9
$SKPOLY
70
  0
 9
$TDCREATE
40
2449857.909440150
 9
$TDUPDATE
40
2450512.356690162
 9
$TDINDWG
40
0.000204745
 9
$TDUSRTIMER
40
0.000204745
 9
$USRTIMER
70
  1
 9
$ANGBASE
50
0.0
 9
$ANGDIR
70
  0
 9
$PDMODE
70
  0
 9
$PDSIZE
40
0.0
 9
$PLINEWID
40
0.0
 9
$COORDS
70
  1
 9
$SPLFRAME
70
  0
 9
$SPLINESEGS
70
  8
 9
$ATTDIA
70
  0
 9
$ATTREQ
70
  1
 9
$PLINEGEN
70
  0
 9
$PSLTSCALE
70
  1
 9
$TREEDEPTH
70
3020
 9
$DWGCODEPAGE
 3
dos850
 0
ENDSEC
 0
SECTION
 2
TABLES
 0
TABLE
 2
VPORT
70
999
 0
VPORT
 2
*ACTIVE
70
  0
10
0.0
20
0.0
11
1.0000000000000000
21
1.0000000000000000
12
25.3508831854474828
22
13.3045364683301326
13
0.0
23
0.0
14
0.0312500000000000
24
0.0312500000000000
15
0.0
25
0.0
16
0.0
26
0.0
36
1.0000000000000000
17
0.0
27
0.0
37
0.0
40
27.7330729366602640
41
1.8687350835322196
42
50.0000000000000000
43
0.0
44
0.0
50
0.0
51
0.0
71
  0
72
100
73
  1
74
  1
75
  0
76
  0
77
  0
78
  0
 0
ENDTAB
 0
TABLE
 2
LTYPE
70
999
 0
LTYPE
 2
CONTINUOUS
70
  0
 3
Solid line
72
 65
73
  0
40
0.0
 0
LTYPE
 2
HIDDEN
70
  0
 3
_ _ _ _ _ _ _ _ _ _ _ _ _ _ _ _ _ _ _ _ _ _ _
72
 65
73
  2
40
0.3750000000000000
49
0.250000
49
-0.125000
 0
LTYPE
 2
CENTER
70
  0
 3
____ _ ____ _ ____ _ ____ _ ____ _ ____ _ ____
72
 65
73
  4
40
2.0000000000000000
49
1.250000
49
-0.250000
49
0.250000
49
-0.250000
 0
LTYPE
 2
PHANTOM
70
  0
 3
_____ _ _ _____ _ _ _____ _ _ _____ _ _ ____
72
 65
73
  6
40
2.5000000000000000
49
1.250000
49
-0.250000
49
0.250000
49
-0.250000
49
0.250000
49
-0.250000
 0
LTYPE
 2
DASHED
70
  0
 3
__ __ __ __ __ __ __ __ __ __ __ __ __ __ __ __
72
 65
73
  2
40
0.7500000000000000
49
0.500000
49
-0.250000
 0
LTYPE
 2
BYBLOCK
70
  0
 3

72
 65
73
  0
40
0.0
 0
LTYPE
 2
BYLAYER
70
  0
 3

72
 65
73
  0
40
0.0
 0
ENDTAB
 0
TABLE
 2
LAYER
70
999
 0
LAYER
 2
0
70
  0
62
  7
 6
CONTINUOUS
 0
LAYER
 2
DAMAN
70
  0
62
  5
 6
CONTINUOUS
 0
LAYER
 2
CHIDDEN
70
  0
62
  3
 6
HIDDEN
 0
LAYER
 2
CSOLID
70
  0
62
  3
 6
CONTINUOUS
 0
LAYER
 2
CCENTER
70
  0
62
  4
 6
CENTER
 0
LAYER
 2
PHANTOM
70
  0
62
  1
 6
PHANTOM
 0
LAYER
 2
BORDER
70
  0
62
  7
 6
CONTINUOUS
 0
LAYER
 2
CDIM
70
  0
62
  2
 6
CONTINUOUS
 0
ENDTAB
 0
TABLE
 2
STYLE
70
999
 0
STYLE
 2
STANDARD
70
  0
40
0.0
41
1.0000000000000000
50
0.0
71
  0
42
0.2000000000000000
 3
txt
 4

 0
STYLE
 2
STR
70
  0
40
0.0
41
1.0000000000000000
50
0.0
71
  0
42
0.2500000000000000
 3
SIMPLEX
 4

 0
ENDTAB
 0
TABLE
 2
VIEW
70
999
 0
ENDTAB
 0
TABLE
 2
UCS
70
999
 0
ENDTAB
 0
TABLE
 2
APPID
70
999
 0
APPID
 2
ACAD
70
  0
 0
ENDTAB
 0
TABLE
 2
DIMSTYLE
70
999
 0
DIMSTYLE
 2
STANDARD
70
  0
 3

 4

 5

 6

 7

40
1.0000000000000000
41
0.1800000000000000
42
0.0625000000000000
43
0.3800000000000000
44
0.1800000000000000
45
0.0
46
0.0
47
0.0
48
0.0
140
0.1800000000000000
141
0.0900000000000000
142
0.0
143
25.3999999999999986
144
1.0000000000000000
145
0.0
146
1.0000000000000000
147
0.0900000000000000
71
  0
72
  0
73
  1
74
  1
75
  0
76
  0
77
  0
78
  0
170
  0
171
  2
172
  0
173
  0
174
  0
175
  0
176
  0
177
  0
178
  0
 0
ENDTAB
 0
ENDSEC
 0
SECTION
 2
BLOCKS
 0
BLOCK
 8
0
 5
49
 2
500MKT
70
  0
10
0.0
20
0.0
30
0.0
 0
INSERT
 8
DAMAN
 5
4A
 2
100CROSS
10
-0.937000
20
-0.437000
30
0.0
41
0.422000
42
0.422000
43
0.0
50
0.0
70
  1
71
  1
44
0.0
45
0.0
 0
LINE
 8
DAMAN
 5
4B
10
-0.218250
20
-0.031250
30
0.0
11
-0.218250
21
-0.843250
31
0.0
 0
LINE
 8
DAMAN
 5
4C
10
-0.156000
20
-5.000000
30
0.0
11
-0.156000
21
0.0
31
0.0
 0
LINE
 8
DAMAN
 5
4D
10
0.0
20
-5.000000
30
0.0
11
0.0
21
0.0
31
0.0
 0
LINE
 8
DAMAN
 5
4E
10
-0.218250
20
-0.843250
30
0.0
11
-0.155750
21
-0.843250
31
0.0
 0
LINE
 8
DAMAN
 5
4F
10
-0.437250
20
-0.264250
30
0.0
11
-0.468250
21
-0.264250
31
0.0
 0
LINE
 8
DAMAN
 5
50
10
-0.468250
20
-0.124250
30
0.0
11
-0.218250
21
-0.124250
31
0.0
 0
LINE
 8
DAMAN
 5
51
10
-0.750000
20
-0.437000
30
0.0
11
1.000000
21
-0.437000
31
0.0
 0
LINE
 8
DAMAN
 5
52
10
-0.437250
20
-0.609250
30
0.0
11
-0.468250
21
-0.609250
31
0.0
 0
LINE
 8
DAMAN
 5
53
10
-0.218250
20
-0.749250
30
0.0
11
-0.468250
21
-0.749250
31
0.0
 0
LINE
 8
DAMAN
 5
54
10
0.0
20
0.0
30
0.0
11
-1.375000
21
0.0
31
0.0
 0
POLYLINE
 8
DAMAN
 5
55
66
  1
10
0.0
20
0.0
30
0.0
70
  1
40
0.0
41
0.0
71
  0
72
  0
73
  0
74
  0
75
  0
 0
VERTEX
 8
DAMAN
 5
56
10
-1.207200
20
-0.593000
30
0.0
40
0.0
41
0.0
42
0.0
70
  0
50
0.0
 0
VERTEX
 8
DAMAN
 5
57
10
-0.937000
20
-0.749000
30
0.0
40
0.0
41
0.0
42
0.0
70
  0
50
0.0
 0
VERTEX
 8
DAMAN
 5
58
10
-0.666800
20
-0.593000
30
0.0
40
0.0
41
0.0
42
0.0
70
  0
50
0.0
 0
VERTEX
 8
DAMAN
 5
59
10
-0.666800
20
-0.281000
30
0.0
40
0.0
41
0.0
42
0.0
70
  0
50
0.0
 0
VERTEX
 8
DAMAN
 5
5A
10
-0.937000
20
-0.125000
30
0.0
40
0.0
41
0.0
42
0.0
70
  0
50
0.0
 0
VERTEX
 8
DAMAN
 5
5B
10
-1.207200
20
-0.281000
30
0.0
40
0.0
41
0.0
42
0.0
70
  0
50
0.0
 0
SEQEND
 8
DAMAN
 5
5C
 0
CIRCLE
 8
DAMAN
 5
5D
10
-0.937000
20
-0.437000
30
0.0
40
0.265000
 0
LINE
 8
DAMAN
 5
5E
10
-0.468250
20
-0.749250
30
0.0
11
-0.468250
21
-0.124250
31
0.0
 0
POINT
 8
CHIDDEN
 5
5F
10
-0.734293
20
-0.495572
30
0.0
50
0.0
 0
LINE
 8
DAMAN
 5
60
10
-0.000000
20
-0.280250
30
0.0
11
0.844000
21
-0.280250
31
0.0
 0
LINE
 8
DAMAN
 5
61
10
0.812000
20
-0.249250
30
0.0
11
-0.000000
21
-0.249250
31
0.0
 0
LINE
 8
DAMAN
 5
62
10
-0.000000
20
-0.593250
30
0.0
11
0.844000
21
-0.593250
31
0.0
 0
LINE
 8
DAMAN
 5
63
10
-0.000000
20
-0.624250
30
0.0
11
0.812000
21
-0.624250
31
0.0
 0
LINE
 8
DAMAN
 5
64
10
-0.218250
20
-0.609250
30
0.0
11
-0.437250
21
-0.609250
31
0.0
 0
LINE
 8
DAMAN
 5
65
10
-0.156250
20
-0.031250
30
0.0
11
-0.218250
21
-0.031250
31
0.0
 0
LINE
 8
DAMAN
 5
66
10
-0.218250
20
-0.264250
30
0.0
11
-0.437250
21
-0.264250
31
0.0
 0
LINE
 8
DAMAN
 5
67
10
0.875000
20
-0.561750
30
0.0
11
0.875000
21
-0.312250
31
0.0
 0
LINE
 8
DAMAN
 5
68
10
0.812000
20
-0.624250
30
0.0
11
0.875000
21
-0.561750
31
0.0
 0
LINE
 8
DAMAN
 5
69
10
0.875000
20
-0.312250
30
0.0
11
0.812000
21
-0.249250
31
0.0
 0
LINE
 8
DAMAN
 5
6A
10
-0.468250
20
-4.249250
30
0.0
11
-0.218250
21
-4.249250
31
0.0
 0
LINE
 8
DAMAN
 5
6B
10
-0.437250
20
-4.389250
30
0.0
11
-0.468250
21
-4.389250
31
0.0
 0
LINE
 8
DAMAN
 5
6C
10
-0.750000
20
-4.562000
30
0.0
11
1.000000
21
-4.562000
31
0.0
 0
LINE
 8
DAMAN
 5
6D
10
-0.468250
20
-4.874250
30
0.0
11
-0.468250
21
-4.249250
31
0.0
 0
INSERT
 8
DAMAN
 5
6E
 2
100CROSS
10
-0.937000
20
-4.562000
30
0.0
41
0.422000
42
0.422000
43
0.0
50
0.0
70
  1
71
  1
44
0.0
45
0.0
 0
POLYLINE
 8
DAMAN
 5
6F
66
  1
10
0.0
20
0.0
30
0.0
70
  1
40
0.0
41
0.0
71
  0
72
  0
73
  0
74
  0
75
  0
 0
VERTEX
 8
DAMAN
 5
70
10
-1.207200
20
-4.718000
30
0.0
40
0.0
41
0.0
42
0.0
70
  0
50
0.0
 0
VERTEX
 8
DAMAN
 5
71
10
-0.937000
20
-4.874000
30
0.0
40
0.0
41
0.0
42
0.0
70
  0
50
0.0
 0
VERTEX
 8
DAMAN
 5
72
10
-0.666800
20
-4.718000
30
0.0
40
0.0
41
0.0
42
0.0
70
  0
50
0.0
 0
VERTEX
 8
DAMAN
 5
73
10
-0.666800
20
-4.406000
30
0.0
40
0.0
41
0.0
42
0.0
70
  0
50
0.0
 0
VERTEX
 8
DAMAN
 5
74
10
-0.937000
20
-4.250000
30
0.0
40
0.0
41
0.0
42
0.0
70
  0
50
0.0
 0
VERTEX
 8
DAMAN
 5
75
10
-1.207200
20
-4.406000
30
0.0
40
0.0
41
0.0
42
0.0
70
  0
50
0.0
 0
SEQEND
 8
DAMAN
 5
76
 0
CIRCLE
 8
DAMAN
 5
77
10
-0.937000
20
-4.562000
30
0.0
40
0.265000
 0
POINT
 8
CHIDDEN
 5
78
10
-0.734293
20
-4.620572
30
0.0
50
0.0
 0
LINE
 8
DAMAN
 5
79
10
-0.218250
20
-4.156250
30
0.0
11
-0.218250
21
-4.968250
31
0.0
 0
LINE
 8
DAMAN
 5
7A
10
0.812000
20
-4.374250
30
0.0
11
-0.000000
21
-4.374250
31
0.0
 0
LINE
 8
DAMAN
 5
7B
10
-0.000000
20
-4.405250
30
0.0
11
0.844000
21
-4.405250
31
0.0
 0
LINE
 8
DAMAN
 5
7C
10
-0.218250
20
-4.389250
30
0.0
11
-0.437250
21
-4.389250
31
0.0
 0
LINE
 8
DAMAN
 5
7D
10
0.875000
20
-4.686750
30
0.0
11
0.875000
21
-4.437250
31
0.0
 0
LINE
 8
DAMAN
 5
7E
10
0.875000
20
-4.437250
30
0.0
11
0.812000
21
-4.374250
31
0.0
 0
LINE
 8
DAMAN
 5
7F
10
-0.156250
20
-4.156250
30
0.0
11
-0.218250
21
-4.156250
31
0.0
 0
LINE
 8
DAMAN
 5
80
10
-0.437250
20
-4.734250
30
0.0
11
-0.468250
21
-4.734250
31
0.0
 0
LINE
 8
DAMAN
 5
81
10
-0.000000
20
-4.749250
30
0.0
11
0.812000
21
-4.749250
31
0.0
 0
LINE
 8
DAMAN
 5
82
10
-0.000000
20
-4.718250
30
0.0
11
0.844000
21
-4.718250
31
0.0
 0
LINE
 8
DAMAN
 5
83
10
-0.218250
20
-4.734250
30
0.0
11
-0.437250
21
-4.734250
31
0.0
 0
LINE
 8
DAMAN
 5
84
10
0.812000
20
-4.749250
30
0.0
11
0.875000
21
-4.686750
31
0.0
 0
LINE
 8
DAMAN
 5
85
10
-0.218250
20
-4.874250
30
0.0
11
-0.468250
21
-4.874250
31
0.0
 0
LINE
 8
DAMAN
 5
86
10
-1.375000
20
-5.000000
30
0.0
11
0.0
21
-5.000000
31
0.0
 0
LINE
 8
DAMAN
 5
87
10
-0.218250
20
-4.968250
30
0.0
11
-0.155750
21
-4.968250
31
0.0
 0
LINE
 8
DAMAN
 5
88
10
-1.375000
20
0.0
30
0.0
11
-1.375000
21
-5.000000
31
0.0
 0
ENDBLK
 8
0
 5
89
 0
BLOCK
 8
0
 5
8A
 2
100CROSS
70
  0
10
5.625000
20
4.593750
30
0.0
 0
INSERT
 8
0
 5
8B
 2
050CROSS
10
5.625000
20
4.593750
30
0.0
41
1.000000
42
1.000000
43
0.0
50
0.0
70
  1
71
  1
44
0.0
45
0.0
 0
ENDBLK
 8
0
 5
8C
 0
BLOCK
 8
0
 5
8D
 2
050CROSS
70
  0
10
5.000000
20
5.000000
30
0.0
 0
LINE
 8
0
 5
8E
10
5.000000
20
5.281250
30
0.0
11
5.000000
21
5.781250
31
0.0
 0
LINE
 8
0
 5
8F
10
5.000000
20
4.875000
30
0.0
11
5.000000
21
5.125000
31
0.0
 0
LINE
 8
0
 5
90
10
5.000000
20
4.156250
30
0.0
11
5.000000
21
4.718750
31
0.0
 0
LINE
 8
0
 5
91
10
5.250000
20
5.000000
30
0.0
11
5.812500
21
5.000000
31
0.0
 0
LINE
 8
0
 5
92
10
4.906250
20
5.000000
30
0.0
11
5.093750
21
5.000000
31
0.0
 0
LINE
 8
0
 5
93
10
4.187500
20
5.000000
30
0.0
11
4.750000
21
5.000000
31
0.0
 0
ENDBLK
 8
0
 5
94
 0
BLOCK
 8
0
 5
95
 2
500MKCT
70
  0
10
0.0
20
0.0
30
0.0
 0
INSERT
 8
DAMAN
 5
96
 2
100CROSS
10
-0.937000
20
-0.437000
30
0.0
41
0.422000
42
0.422000
43
0.0
50
0.0
70
  1
71
  1
44
0.0
45
0.0
 0
LINE
 8
DAMAN
 5
97
10
-0.218250
20
-0.031250
30
0.0
11
-0.218250
21
-0.843250
31
0.0
 0
LINE
 8
DAMAN
 5
98
10
-0.156000
20
-5.000000
30
0.0
11
-0.156000
21
0.0
31
0.0
 0
LINE
 8
DAMAN
 5
99
10
-1.375000
20
0.0
30
0.0
11
-1.375000
21
-5.000000
31
0.0
 0
LINE
 8
DAMAN
 5
9A
10
0.0
20
-5.000000
30
0.0
11
0.0
21
0.0
31
0.0
 0
LINE
 8
DAMAN
 5
9B
10
-0.218250
20
-4.874250
30
0.0
11
-0.468250
21
-4.874250
31
0.0
 0
LINE
 8
DAMAN
 5
9C
10
-0.437250
20
-4.734250
30
0.0
11
-0.468250
21
-4.734250
31
0.0
 0
LINE
 8
DAMAN
 5
9D
10
-0.468250
20
-4.249250
30
0.0
11
-0.218250
21
-4.249250
31
0.0
 0
LINE
 8
DAMAN
 5
9E
10
-0.437250
20
-4.389250
30
0.0
11
-0.468250
21
-4.389250
31
0.0
 0
LINE
 8
DAMAN
 5
9F
10
-1.375000
20
-5.000000
30
0.0
11
0.0
21
-5.000000
31
0.0
 0
LINE
 8
DAMAN
 5
A0
10
-0.468250
20
-4.874250
30
0.0
11
-0.468250
21
-4.249250
31
0.0
 0
INSERT
 8
DAMAN
 5
A1
 2
100CROSS
10
-0.937000
20
-4.562000
30
0.0
41
0.422000
42
0.422000
43
0.0
50
0.0
70
  1
71
  1
44
0.0
45
0.0
 0
POLYLINE
 8
DAMAN
 5
A2
66
  1
10
0.0
20
0.0
30
0.0
70
  1
40
0.0
41
0.0
71
  0
72
  0
73
  0
74
  0
75
  0
 0
VERTEX
 8
DAMAN
 5
A3
10
-1.207200
20
-4.718000
30
0.0
40
0.0
41
0.0
42
0.0
70
  0
50
0.0
 0
VERTEX
 8
DAMAN
 5
A4
10
-0.937000
20
-4.874000
30
0.0
40
0.0
41
0.0
42
0.0
70
  0
50
0.0
 0
VERTEX
 8
DAMAN
 5
A5
10
-0.666800
20
-4.718000
30
0.0
40
0.0
41
0.0
42
0.0
70
  0
50
0.0
 0
VERTEX
 8
DAMAN
 5
A6
10
-0.666800
20
-4.406000
30
0.0
40
0.0
41
0.0
42
0.0
70
  0
50
0.0
 0
VERTEX
 8
DAMAN
 5
A7
10
-0.937000
20
-4.250000
30
0.0
40
0.0
41
0.0
42
0.0
70
  0
50
0.0
 0
VERTEX
 8
DAMAN
 5
A8
10
-1.207200
20
-4.406000
30
0.0
40
0.0
41
0.0
42
0.0
70
  0
50
0.0
 0
SEQEND
 8
DAMAN
 5
A9
 0
CIRCLE
 8
DAMAN
 5
AA
10
-0.937000
20
-4.562000
30
0.0
40
0.265000
 0
POINT
 8
CHIDDEN
 5
AB
10
-1.074717
20
-4.721860
30
0.0
50
0.0
 0
POINT
 8
CHIDDEN
 5
AC
10
-1.024928
20
-4.370194
30
0.0
50
0.0
 0
POINT
 8
CHIDDEN
 5
AD
10
-0.734293
20
-4.620572
30
0.0
50
0.0
 0
LINE
 8
DAMAN
 5
AE
10
-0.218250
20
-4.156250
30
0.0
11
-0.218250
21
-4.968250
31
0.0
 0
LINE
 8
DAMAN
 5
AF
10
-0.218250
20
-4.968250
30
0.0
11
-0.155750
21
-4.968250
31
0.0
 0
LINE
 8
DAMAN
 5
B0
10
-0.218250
20
-4.734250
30
0.0
11
-0.437250
21
-4.734250
31
0.0
 0
LINE
 8
DAMAN
 5
B1
10
-0.218250
20
-4.389250
30
0.0
11
-0.437250
21
-4.389250
31
0.0
 0
LINE
 8
DAMAN
 5
B2
10
-0.156250
20
-4.156250
30
0.0
11
-0.218250
21
-4.156250
31
0.0
 0
LINE
 8
DAMAN
 5
B3
10
-0.218250
20
-0.843250
30
0.0
11
-0.155750
21
-0.843250
31
0.0
 0
LINE
 8
DAMAN
 5
B4
10
-0.437250
20
-0.264250
30
0.0
11
-0.468250
21
-0.264250
31
0.0
 0
LINE
 8
DAMAN
 5
B5
10
-0.468250
20
-0.124250
30
0.0
11
-0.218250
21
-0.124250
31
0.0
 0
LINE
 8
DAMAN
 5
B6
10
-0.437250
20
-0.609250
30
0.0
11
-0.468250
21
-0.609250
31
0.0
 0
LINE
 8
DAMAN
 5
B7
10
-0.218250
20
-0.749250
30
0.0
11
-0.468250
21
-0.749250
31
0.0
 0
LINE
 8
DAMAN
 5
B8
10
0.0
20
0.0
30
0.0
11
-1.375000
21
0.0
31
0.0
 0
POLYLINE
 8
DAMAN
 5
B9
66
  1
10
0.0
20
0.0
30
0.0
70
  1
40
0.0
41
0.0
71
  0
72
  0
73
  0
74
  0
75
  0
 0
VERTEX
 8
DAMAN
 5
BA
10
-1.207200
20
-0.593000
30
0.0
40
0.0
41
0.0
42
0.0
70
  0
50
0.0
 0
VERTEX
 8
DAMAN
 5
BB
10
-0.937000
20
-0.749000
30
0.0
40
0.0
41
0.0
42
0.0
70
  0
50
0.0
 0
VERTEX
 8
DAMAN
 5
BC
10
-0.666800
20
-0.593000
30
0.0
40
0.0
41
0.0
42
0.0
70
  0
50
0.0
 0
VERTEX
 8
DAMAN
 5
BD
10
-0.666800
20
-0.281000
30
0.0
40
0.0
41
0.0
42
0.0
70
  0
50
0.0
 0
VERTEX
 8
DAMAN
 5
BE
10
-0.937000
20
-0.125000
30
0.0
40
0.0
41
0.0
42
0.0
70
  0
50
0.0
 0
VERTEX
 8
DAMAN
 5
BF
10
-1.207200
20
-0.281000
30
0.0
40
0.0
41
0.0
42
0.0
70
  0
50
0.0
 0
SEQEND
 8
DAMAN
 5
C0
 0
CIRCLE
 8
DAMAN
 5
C1
10
-0.937000
20
-0.437000
30
0.0
40
0.265000
 0
POINT
 8
CHIDDEN
 5
C2
10
-1.074717
20
-0.596860
30
0.0
50
0.0
 0
POINT
 8
CHIDDEN
 5
C3
10
-1.024928
20
-0.245194
30
0.0
50
0.0
 0
LINE
 8
DAMAN
 5
C4
10
-0.468250
20
-0.749250
30
0.0
11
-0.468250
21
-0.124250
31
0.0
 0
POINT
 8
CHIDDEN
 5
C5
10
-0.734293
20
-0.495572
30
0.0
50
0.0
 0
LINE
 8
DAMAN
 5
C6
10
-0.218250
20
-0.609250
30
0.0
11
-0.437250
21
-0.609250
31
0.0
 0
LINE
 8
DAMAN
 5
C7
10
-0.156250
20
-0.031250
30
0.0
11
-0.218250
21
-0.031250
31
0.0
 0
LINE
 8
DAMAN
 5
C8
10
-0.218250
20
-0.264250
30
0.0
11
-0.437250
21
-0.264250
31
0.0
 0
ENDBLK
 8
0
 5
C9
 0
BLOCK
 8
0
 5
CA
 2
500MKS
70
  0
10
0.0
20
0.0
30
0.0
 0
LINE
 8
DAMAN
 5
CB
10
-0.313000
20
-0.718750
30
0.0
11
-1.125000
21
-0.718750
31
0.0
 0
LINE
 8
DAMAN
 5
CC
10
-1.031000
20
-0.468750
30
0.0
11
-0.406000
21
-0.468750
31
0.0
 0
LINE
 8
DAMAN
 5
CD
10
-0.187750
20
-0.781000
30
0.0
11
-1.156750
21
-0.781000
31
0.0
 0
LINE
 8
DAMAN
 5
CE
10
-1.156750
20
-0.937000
30
0.0
11
-0.187750
21
-0.937000
31
0.0
 0
LINE
 8
DAMAN
 5
CF
10
-0.718750
20
-0.187000
30
0.0
11
-0.718750
21
-1.937000
31
0.0
 0
LINE
 8
DAMAN
 5
D0
10
-0.875000
20
-0.937000
30
0.0
11
-0.875000
21
-1.781000
31
0.0
 0
LINE
 8
DAMAN
 5
D1
10
-0.562000
20
-0.937000
30
0.0
11
-0.562000
21
-1.781000
31
0.0
 0
LINE
 8
DAMAN
 5
D2
10
-0.531000
20
-1.749000
30
0.0
11
-0.531000
21
-0.937000
31
0.0
 0
LINE
 8
DAMAN
 5
D3
10
-0.906000
20
-0.937000
30
0.0
11
-0.906000
21
-1.749000
31
0.0
 0
LINE
 8
DAMAN
 5
D4
10
-0.906000
20
-1.749000
30
0.0
11
-0.843500
21
-1.812000
31
0.0
 0
LINE
 8
DAMAN
 5
D5
10
-0.594000
20
-1.812000
30
0.0
11
-0.531000
21
-1.749000
31
0.0
 0
LINE
 8
DAMAN
 5
D6
10
-0.843500
20
-1.812000
30
0.0
11
-0.594000
21
-1.812000
31
0.0
 0
LINE
 8
DAMAN
 5
D7
10
-1.156750
20
-0.781000
30
0.0
11
-1.156750
21
-0.937000
31
0.0
 0
LINE
 8
DAMAN
 5
D8
10
-1.031000
20
-0.718750
30
0.0
11
-1.031000
21
-0.468750
31
0.0
 0
LINE
 8
DAMAN
 5
D9
10
-0.891000
20
-0.718750
30
0.0
11
-0.891000
21
-0.499750
31
0.0
 0
LINE
 8
DAMAN
 5
DA
10
-1.125000
20
-0.718750
30
0.0
11
-1.125000
21
-0.781250
31
0.0
 0
LINE
 8
DAMAN
 5
DB
10
-0.891000
20
-0.499750
30
0.0
11
-0.891000
21
-0.468750
31
0.0
 0
LINE
 8
DAMAN
 5
DC
10
-0.546000
20
-0.718750
30
0.0
11
-0.546000
21
-0.499750
31
0.0
 0
LINE
 8
DAMAN
 5
DD
10
-0.546000
20
-0.499750
30
0.0
11
-0.546000
21
-0.468750
31
0.0
 0
LINE
 8
DAMAN
 5
DE
10
-0.250000
20
-0.312000
30
0.0
11
-0.250000
21
0.313000
31
0.0
 0
LINE
 8
DAMAN
 5
DF
10
0.0
20
0.406000
30
0.0
11
0.0
21
-0.406000
31
0.0
 0
LINE
 8
DAMAN
 5
E0
10
0.062500
20
-0.406000
30
0.0
11
0.062000
21
0.406000
31
0.0
 0
LINE
 8
DAMAN
 5
E1
10
0.062250
20
0.438000
30
0.0
11
0.062250
21
-0.531000
31
0.0
 0
LINE
 8
DAMAN
 5
E2
10
0.218250
20
-0.531000
30
0.0
11
0.218250
21
0.438000
31
0.0
 0
ARC
 8
DAMAN
 5
E3
10
-0.187750
20
-0.531000
30
0.0
40
0.406000
50
270.000000
51
0.0
 0
LINE
 8
DAMAN
 5
E4
10
0.0
20
-0.406000
30
0.0
11
0.062500
21
-0.406000
31
0.0
 0
ARC
 8
DAMAN
 5
E5
10
-0.187750
20
-0.531000
30
0.0
40
0.250000
50
270.000000
51
0.0
 0
LINE
 8
DAMAN
 5
E6
10
-0.406000
20
-0.468750
30
0.0
11
-0.406000
21
-0.718750
31
0.0
 0
LINE
 8
DAMAN
 5
E7
10
-0.313000
20
-0.780750
30
0.0
11
-0.313000
21
-0.718750
31
0.0
 0
LINE
 8
DAMAN
 5
E8
10
0.0
20
-0.312000
30
0.0
11
-0.250000
21
-0.312000
31
0.0
 0
LINE
 8
DAMAN
 5
E9
10
-0.219000
20
-0.172000
30
0.0
11
-0.250000
21
-0.172000
31
0.0
 0
LINE
 8
DAMAN
 5
EA
10
0.0
20
-0.172000
30
0.0
11
-0.219000
21
-0.172000
31
0.0
 0
LINE
 8
DAMAN
 5
EB
10
-0.219000
20
0.173000
30
0.0
11
-0.250000
21
0.173000
31
0.0
 0
LINE
 8
DAMAN
 5
EC
10
0.0
20
0.173000
30
0.0
11
-0.219000
21
0.173000
31
0.0
 0
LINE
 8
DAMAN
 5
ED
10
0.062000
20
0.406000
30
0.0
11
0.0
21
0.406000
31
0.0
 0
LINE
 8
DAMAN
 5
EE
10
-0.250000
20
0.313000
30
0.0
11
0.0
21
0.313000
31
0.0
 0
LINE
 8
DAMAN
 5
EF
10
0.218250
20
0.438000
30
0.0
11
0.062250
21
0.438000
31
0.0
 0
ENDBLK
 8
0
 5
F0
 0
BLOCK
 8
0
 5
F1
 2
D05H
70
  0
10
0.0
20
0.0
30
0.0
 0
INSERT
 8
DAMAN
 5
F2
 2
D05
10
5.031250
20
5.718750
30
0.0
41
1.000000
42
1.000000
43
1.000000
50
0.0
70
  1
71
  1
44
0.0
45
0.0
 0
CIRCLE
 8
DAMAN
 5
F3
10
5.125250
20
6.156750
30
0.0
40
0.094000
 0
INSERT
 8
DAMAN
 5
F4
 2
100CROSS
10
5.125250
20
6.156750
30
0.0
41
0.250000
42
0.250000
43
0.0
50
0.0
70
  1
71
  1
44
0.0
45
0.0
 0
CIRCLE
 8
DAMAN
 5
F5
10
6.750250
20
3.156750
30
0.0
40
0.094000
 0
INSERT
 8
DAMAN
 5
F6
 2
100CROSS
10
6.750250
20
3.156750
30
0.0
41
0.250000
42
0.250000
43
0.0
50
0.0
70
  1
71
  1
44
0.0
45
0.0
 0
ENDBLK
 8
0
 5
F7
 0
BLOCK
 8
0
 5
F8
 2
D05
70
  0
10
0.0
20
0.0
30
0.0
 0
CIRCLE
 8
DAMAN
 5
F9
10
1.812500
20
0.0
30
0.0
40
0.125000
 0
CIRCLE
 8
DAMAN
 5
FA
10
1.812500
20
-2.125000
30
0.0
40
0.125000
 0
CIRCLE
 8
DAMAN
 5
FB
10
0.0
20
0.0
30
0.0
40
0.125000
 0
CIRCLE
 8
DAMAN
 5
FC
10
0.0
20
-2.125000
30
0.0
40
0.125000
 0
INSERT
 8
DAMAN
 5
FD
 2
100CROSS
10
-0.000000
20
-0.000000
30
0.0
41
0.250000
42
0.250000
43
0.0
50
0.0
70
  1
71
  1
44
0.0
45
0.0
 0
CIRCLE
 8
DAMAN
 5
FE
10
-0.000000
20
-0.000000
30
0.0
40
0.105500
 0
CIRCLE
 8
DAMAN
 5
FF
10
-0.000000
20
-2.125000
30
0.0
40
0.105500
 0
INSERT
 8
DAMAN
 5
100
 2
100CROSS
10
-0.000000
20
-2.125000
30
0.0
41
0.250000
42
0.250000
43
0.0
50
0.0
70
  1
71
  1
44
0.0
45
0.0
 0
CIRCLE
 8
DAMAN
 5
101
10
1.812500
20
-0.000000
30
0.0
40
0.105500
 0
INSERT
 8
DAMAN
 5
102
 2
100CROSS
10
1.812500
20
-0.000000
30
0.0
41
0.250000
42
0.250000
43
0.0
50
0.0
70
  1
71
  1
44
0.0
45
0.0
 0
CIRCLE
 8
DAMAN
 5
103
10
1.812500
20
-2.125000
30
0.0
40
0.105500
 0
INSERT
 8
DAMAN
 5
104
 2
100CROSS
10
1.812500
20
-2.125000
30
0.0
41
0.250000
42
0.250000
43
0.0
50
0.0
70
  1
71
  1
44
0.0
45
0.0
 0
INSERT
 8
DAMAN
 5
105
 2
100CROSS
10
0.531000
20
-0.125000
30
0.0
41
0.438000
42
0.438000
43
0.0
50
0.0
70
  1
71
  1
44
0.0
45
0.0
 0
CIRCLE
 8
DAMAN
 5
106
10
0.531000
20
-0.125000
30
0.0
40
0.218750
 0
CIRCLE
 8
DAMAN
 5
107
10
0.968500
20
-0.656000
30
0.0
40
0.218750
 0
INSERT
 8
DAMAN
 5
108
 2
100CROSS
10
0.968500
20
-0.656000
30
0.0
41
0.438000
42
0.438000
43
0.0
50
0.0
70
  1
71
  1
44
0.0
45
0.0
 0
INSERT
 8
DAMAN
 5
109
 2
100CROSS
10
0.968500
20
-1.468500
30
0.0
41
0.438000
42
0.438000
43
0.0
50
0.0
70
  1
71
  1
44
0.0
45
0.0
 0
CIRCLE
 8
DAMAN
 5
10A
10
0.968500
20
-1.468500
30
0.0
40
0.218750
 0
CIRCLE
 8
DAMAN
 5
10B
10
1.562500
20
-1.062250
30
0.0
40
0.218750
 0
INSERT
 8
DAMAN
 5
10C
 2
100CROSS
10
1.562500
20
-1.062250
30
0.0
41
0.438000
42
0.438000
43
0.0
50
0.0
70
  1
71
  1
44
0.0
45
0.0
 0
ENDBLK
 8
0
 5
10D
 0
BLOCK
 8
0
 5
10E
 2
075NPTFT
70
  0
10
0.0
20
0.0
30
0.0
 0
INSERT
 8
DAMAN
 5
10F
 2
750NPTFT
10
-6.410893
20
-4.555543
30
0.0
41
1.000000
42
1.000000
43
1.000000
50
0.0
70
  1
71
  1
44
0.0
45
0.0
 0
ENDBLK
 8
0
 5
110
 0
BLOCK
 8
0
 5
111
 2
750NPTFT
70
  0
10
0.0
20
0.0
30
0.0
 0
INSERT
 8
DAMAN
62
  5
 5
112
 2
100CROSS
10
6.410893
20
4.555543
30
0.0
41
0.980000
42
0.980000
43
0.0
50
0.0
70
  1
71
  1
44
0.0
45
0.0
 0
CIRCLE
 8
DAMAN
62
  5
 5
113
10
6.410893
20
4.555543
30
0.0
40
0.491067
 0
CIRCLE
 8
DAMAN
62
  5
 5
114
10
6.410893
20
4.555543
30
0.0
40
0.453000
 0
CIRCLE
 8
DAMAN
62
  5
 5
115
10
6.410893
20
4.555543
30
0.0
40
0.531250
 0
ENDBLK
 8
0
 5
116
 0
BLOCK
 8
0
 5
117
 2
100NPTFT
70
  0
10
0.0
20
0.0
30
0.0
 0
CIRCLE
 8
DAMAN
 5
118
10
0.0
20
0.0
30
0.0
40
0.562500
 0
CIRCLE
 8
DAMAN
 5
119
10
0.0
20
0.0
30
0.0
40
0.672000
 0
INSERT
 8
DAMAN
 5
11A
 2
100CROSS
10
0.0
20
0.0
30
0.0
41
1.200000
42
1.200000
43
0.0
50
0.0
70
  1
71
  1
44
0.0
45
0.0
 0
CIRCLE
 8
DAMAN
 5
11B
10
-0.000000
20
-0.000000
30
0.0
40
0.625000
 0
ENDBLK
 8
0
 5
11C
 0
BLOCK
 8
0
 5
11D
 2
025NPTFT
70
  0
10
0.0
20
0.0
30
0.0
 0
INSERT
 8
DAMAN
 5
11E
 2
250NPTFT
10
0.0
20
0.0
30
0.0
41
1.000000
42
1.000000
43
1.000000
50
0.0
70
  1
71
  1
44
0.0
45
0.0
 0
ENDBLK
 8
0
 5
11F
 0
BLOCK
 8
0
 5
120
 2
250NPTFT
70
  0
10
0.0
20
0.0
30
0.0
 0
CIRCLE
 8
DAMAN
 5
121
10
0.0
20
0.0
30
0.0
40
0.273000
 0
CIRCLE
 8
DAMAN
 5
122
10
0.0
20
0.0
30
0.0
40
0.211000
 0
INSERT
 8
DAMAN
 5
123
 2
100CROSS
10
0.0
20
0.0
30
0.0
41
0.422000
42
0.422000
43
0.0
50
0.0
70
  1
71
  1
44
0.0
45
0.0
 0
CIRCLE
 8
DAMAN
 5
124
10
0.000000
20
0.000000
30
0.0
40
0.242251
 0
POINT
 8
CHIDDEN
 5
125
10
-0.087928
20
0.191806
30
0.0
50
0.0
 0
POINT
 8
CHIDDEN
 5
126
10
-0.137717
20
-0.159860
30
0.0
50
0.0
 0
POINT
 8
CHIDDEN
 5
127
10
0.202707
20
-0.058572
30
0.0
50
0.0
 0
ENDBLK
 8
0
 5
128
 0
BLOCK
 8
0
 5
129
 2
038NPTFT
70
  0
10
0.0
20
0.0
30
0.0
 0
INSERT
 8
DAMAN
 5
12A
 2
375NPTFT
10
0.000000
20
0.000000
30
0.0
41
1.000000
42
1.000000
43
1.000000
50
0.0
70
  1
71
  1
44
0.0
45
0.0
 0
ENDBLK
 8
0
 5
12B
 0
BLOCK
 8
0
 5
12C
 2
375NPTFT
70
  0
10
0.0
20
0.0
30
0.0
 0
INSERT
 8
DAMAN
 5
12D
 2
100CROSS
10
0.0
20
0.0
30
0.0
41
0.680000
42
0.680000
43
0.0
50
0.0
70
  1
71
  1
44
0.0
45
0.0
 0
CIRCLE
 8
DAMAN
 5
12E
10
-0.000000
20
-0.000000
30
0.0
40
0.312500
 0
CIRCLE
 8
DAMAN
 5
12F
10
0.0
20
0.0
30
0.0
40
0.281000
 0
CIRCLE
 8
DAMAN
 5
130
10
0.0
20
0.0
30
0.0
40
0.344000
 0
ENDBLK
 8
0
 5
131
 0
BLOCK
 8
0
 5
132
 2
C102T
70
  0
10
0.0
20
0.0
30
0.0
 0
CIRCLE
 8
DAMAN
 5
133
10
-0.000000
20
-0.000000
30
0.0
40
0.406000
 0
INSERT
 8
DAMAN
 5
134
 2
100CROSS
10
-0.000000
20
-0.000000
30
0.0
41
1.200000
42
1.200000
43
0.0
50
0.0
70
  1
71
  1
44
0.0
45
0.0
 0
CIRCLE
 8
DAMAN
 5
135
10
-0.000000
20
-0.000000
30
0.0
40
0.594000
 0
CIRCLE
 8
DAMAN
 5
136
10
-0.000000
20
-0.000000
30
0.0
40
0.437500
 0
CIRCLE
 8
DAMAN
 5
137
10
-0.000000
20
-0.000000
30
0.0
40
0.472500
 0
CIRCLE
 8
DAMAN
 5
138
10
-0.000000
20
-0.000000
30
0.0
40
0.312500
 0
ENDBLK
 8
0
 5
139
 0
BLOCK
 8
0
 5
13A
 2
T3AT
70
  0
10
0.0
20
0.0
30
0.0
 0
CIRCLE
 8
DAMAN
 5
13B
10
0.0
20
0.0
30
0.0
40
0.466500
 0
CIRCLE
 8
DAMAN
 5
13C
10
-0.000000
20
-0.000000
30
0.0
40
0.437500
 0
CIRCLE
 8
DAMAN
 5
13D
10
-0.000000
20
-0.000000
30
0.0
40
0.500000
 0
INSERT
 8
DAMAN
 5
13E
 2
100CROSS
10
0.0
20
0.0
30
0.0
41
0.880000
42
0.880000
43
1.000000
50
0.0
70
  1
71
  1
44
0.0
45
0.0
 0
CIRCLE
 8
DAMAN
 5
13F
10
0.0
20
0.0
30
0.0
40
0.516000
 0
CIRCLE
 8
DAMAN
 5
140
10
0.0
20
0.0
30
0.0
40
0.539000
 0
CIRCLE
 8
DAMAN
 5
141
10
0.0
20
0.0
30
0.0
40
0.344000
 0
ENDBLK
 8
0
 5
142
 0
BLOCK
 8
0
 5
143
 2
D05HE
70
  0
10
0.0
20
0.0
30
0.0
 0
INSERT
 8
DAMAN
 5
144
 2
100CROSS
10
6.406250
20
3.281750
30
0.0
41
0.250000
42
0.250000
43
0.0
50
0.0
70
  1
71
  1
44
0.0
45
0.0
 0
CIRCLE
 8
DAMAN
 5
145
10
6.843750
20
5.718750
30
0.0
40
0.125000
 0
CIRCLE
 8
DAMAN
 5
146
10
6.843750
20
3.593750
30
0.0
40
0.125000
 0
CIRCLE
 8
DAMAN
 5
147
10
5.031250
20
5.718750
30
0.0
40
0.125000
 0
CIRCLE
 8
DAMAN
 5
148
10
5.031250
20
3.593750
30
0.0
40
0.125000
 0
INSERT
 8
DAMAN
 5
149
 2
100CROSS
10
5.031250
20
5.718750
30
0.0
41
0.250000
42
0.250000
43
0.0
50
0.0
70
  1
71
  1
44
0.0
45
0.0
 0
CIRCLE
 8
DAMAN
 5
14A
10
5.031250
20
5.718750
30
0.0
40
0.105500
 0
CIRCLE
 8
DAMAN
 5
14B
10
5.031250
20
3.593750
30
0.0
40
0.105500
 0
INSERT
 8
DAMAN
 5
14C
 2
100CROSS
10
5.031250
20
3.593750
30
0.0
41
0.250000
42
0.250000
43
0.0
50
0.0
70
  1
71
  1
44
0.0
45
0.0
 0
CIRCLE
 8
DAMAN
 5
14D
10
6.843750
20
5.718750
30
0.0
40
0.105500
 0
INSERT
 8
DAMAN
 5
14E
 2
100CROSS
10
6.843750
20
5.718750
30
0.0
41
0.250000
42
0.250000
43
0.0
50
0.0
70
  1
71
  1
44
0.0
45
0.0
 0
CIRCLE
 8
DAMAN
 5
14F
10
6.843750
20
3.593750
30
0.0
40
0.105500
 0
INSERT
 8
DAMAN
 5
150
 2
100CROSS
10
6.843750
20
3.593750
30
0.0
41
0.250000
42
0.250000
43
0.0
50
0.0
70
  1
71
  1
44
0.0
45
0.0
 0
INSERT
 8
DAMAN
 5
151
 2
100CROSS
10
5.562250
20
5.593750
30
0.0
41
0.438000
42
0.438000
43
0.0
50
0.0
70
  1
71
  1
44
0.0
45
0.0
 0
CIRCLE
 8
DAMAN
 5
152
10
5.562250
20
5.593750
30
0.0
40
0.218750
 0
CIRCLE
 8
DAMAN
 5
153
10
5.999750
20
5.062750
30
0.0
40
0.218750
 0
INSERT
 8
DAMAN
 5
154
 2
100CROSS
10
5.999750
20
5.062750
30
0.0
41
0.438000
42
0.438000
43
0.0
50
0.0
70
  1
71
  1
44
0.0
45
0.0
 0
INSERT
 8
DAMAN
 5
155
 2
100CROSS
10
5.999750
20
4.250250
30
0.0
41
0.438000
42
0.438000
43
0.0
50
0.0
70
  1
71
  1
44
0.0
45
0.0
 0
CIRCLE
 8
DAMAN
 5
156
10
5.999750
20
4.250250
30
0.0
40
0.218750
 0
CIRCLE
 8
DAMAN
 5
157
10
6.593750
20
4.656500
30
0.0
40
0.218750
 0
INSERT
 8
DAMAN
 5
158
 2
100CROSS
10
6.593750
20
4.656500
30
0.0
41
0.438000
42
0.438000
43
0.0
50
0.0
70
  1
71
  1
44
0.0
45
0.0
 0
CIRCLE
 8
DAMAN
 5
159
10
5.562250
20
3.719250
30
0.0
40
0.218750
 0
INSERT
 8
DAMAN
 5
15A
 2
100CROSS
10
5.562250
20
3.719250
30
0.0
41
-0.438000
42
0.438000
43
0.0
50
180.000000
70
  1
71
  1
44
0.0
45
0.0
 0
CIRCLE
 8
DAMAN
 5
15B
10
6.406250
20
3.281750
30
0.0
40
0.136000
 0
CIRCLE
 8
DAMAN
 5
15C
10
6.406250
20
6.031250
30
0.0
40
0.136000
 0
INSERT
 8
DAMAN
 5
15D
 2
100CROSS
10
6.406250
20
6.031250
30
0.0
41
-0.250000
42
0.250000
43
0.0
50
180.000000
70
  1
71
  1
44
0.0
45
0.0
 0
ENDBLK
 8
0
 5
15E
 0
BLOCK
 8
0
 5
15F
 2
MGBHBI
70
  0
10
0.0
20
0.0
30
0.0
 0
LINE
 8
DAMAN
 5
160
10
1.000000
20
6.000000
30
0.0
11
5.000000
21
6.000000
31
0.0
 0
LINE
 8
DAMAN
 5
161
10
5.000000
20
6.000000
30
0.0
11
5.000000
21
11.000000
31
0.0
 0
LINE
 8
DAMAN
 5
162
10
5.000000
20
11.000000
30
0.0
11
1.000000
21
11.000000
31
0.0
 0
LINE
 8
DAMAN
 5
163
10
1.000000
20
11.000000
30
0.0
11
1.000000
21
6.000000
31
0.0
 0
LINE
 8
DAMAN
 5
164
10
7.000000
20
6.000000
30
0.0
11
13.500000
21
6.000000
31
0.0
 0
LINE
 8
DAMAN
 5
165
10
13.500000
20
6.000000
30
0.0
11
13.500000
21
11.000000
31
0.0
 0
LINE
 8
DAMAN
 5
166
10
13.500000
20
11.000000
30
0.0
11
7.000000
21
11.000000
31
0.0
 0
LINE
 8
DAMAN
 5
167
10
7.000000
20
11.000000
30
0.0
11
7.000000
21
6.000000
31
0.0
 0
LINE
 8
DAMAN
 5
168
10
19.500000
20
11.000000
30
0.0
11
19.500000
21
6.000000
31
0.0
 0
LINE
 8
DAMAN
 5
169
10
15.500000
20
6.000000
30
0.0
11
15.500000
21
11.000000
31
0.0
 0
LINE
 8
DAMAN
 5
16A
10
19.500000
20
6.000000
30
0.0
11
15.500000
21
6.000000
31
0.0
 0
LINE
 8
DAMAN
 5
16B
10
15.500000
20
11.000000
30
0.0
11
19.500000
21
11.000000
31
0.0
 0
LINE
 8
DAMAN
 5
16C
10
13.500000
20
16.000000
30
0.0
11
7.000000
21
16.000000
31
0.0
 0
LINE
 8
DAMAN
 5
16D
10
7.000000
20
12.000000
30
0.0
11
13.500000
21
12.000000
31
0.0
 0
LINE
 8
DAMAN
 5
16E
10
7.000000
20
16.000000
30
0.0
11
7.000000
21
12.000000
31
0.0
 0
LINE
 8
DAMAN
 5
16F
10
13.500000
20
12.000000
30
0.0
11
13.500000
21
16.000000
31
0.0
 0
LINE
 8
DAMAN
 5
170
10
13.500000
20
5.000000
30
0.0
11
7.000000
21
5.000000
31
0.0
 0
LINE
 8
DAMAN
 5
171
10
7.000000
20
1.000000
30
0.0
11
13.500000
21
1.000000
31
0.0
 0
LINE
 8
DAMAN
 5
172
10
7.000000
20
5.000000
30
0.0
11
7.000000
21
1.000000
31
0.0
 0
LINE
 8
DAMAN
 5
173
10
13.500000
20
1.000000
30
0.0
11
13.500000
21
5.000000
31
0.0
 0
INSERT
 8
DAMAN
 5
174
 2
500MKT
10
20.062000
20
11.000000
30
0.0
41
1.000000
42
1.000000
43
1.000000
50
0.0
70
  1
71
  1
44
0.0
45
0.0
 0
INSERT
 8
DAMAN
 5
175
 2
500MKT
10
0.438000
20
6.000000
30
0.0
41
1.000000
42
1.000000
43
1.000000
50
180.000000
70
  1
71
  1
44
0.0
45
0.0
 0
INSERT
 8
DAMAN
 5
176
 2
500MKCT
10
7.000000
20
11.000000
30
0.0
41
1.000000
42
1.000000
43
1.000000
50
0.0
70
  1
71
  1
44
0.0
45
0.0
 0
INSERT
 8
DAMAN
 5
177
 2
500MKCT
10
13.500000
20
6.000000
30
0.0
41
1.000000
42
1.000000
43
1.000000
50
180.000000
70
  1
71
  1
44
0.0
45
0.0
 0
INSERT
 8
DAMAN
 5
178
 2
500MKS
10
6.781750
20
1.375000
30
0.0
41
1.000000
42
1.000000
43
1.000000
50
0.0
70
  1
71
  1
44
0.0
45
0.0
 0
INSERT
 8
DAMAN
 5
179
 2
500MKS
10
13.718250
20
1.375000
30
0.0
41
-1.000000
42
1.000000
43
1.000000
50
0.0
70
  1
71
  1
44
0.0
45
0.0
 0
INSERT
 8
DAMAN
 5
17A
 2
500MKS
10
13.718250
20
15.625000
30
0.0
41
1.000000
42
1.000000
43
1.000000
50
180.000000
70
  1
71
  1
44
0.0
45
0.0
 0
INSERT
 8
DAMAN
 5
17B
 2
500MKS
10
6.781750
20
15.625000
30
0.0
41
-1.000000
42
1.000000
43
1.000000
50
180.000000
70
  1
71
  1
44
0.0
45
0.0
 0
TEXT
 8
DAMAN
 5
17C
10
4.187500
20
10.437500
30
0.0
40
0.200000
 1
T
50
270.000000
41
1.000000
51
0.0
 7
STANDARD
71
  0
72
  0
73
  0
 0
TEXT
 8
DAMAN
 5
17D
10
4.281250
20
6.875000
30
0.0
40
0.200000
 1
P
50
270.000000
41
1.000000
51
0.0
 7
STANDARD
71
  0
72
  0
73
  0
 0
TEXT
 8
DAMAN
 5
17E
10
16.312500
20
10.375000
30
0.0
40
0.200000
 1
T
50
90.000000
41
1.000000
51
0.0
 7
STANDARD
71
  0
72
  0
73
  0
 0
TEXT
 8
DAMAN
 5
17F
10
16.218750
20
6.906250
30
0.0
40
0.200000
 1
P
50
90.000000
41
1.000000
51
0.0
 7
STANDARD
71
  0
72
  0
73
  0
 0
TEXT
 8
DAMAN
 5
180
10
9.500000
20
4.687500
30
0.0
40
0.200000
 1
B
50
0.0
41
1.000000
51
0.0
 7
STANDARD
71
  0
72
  0
73
  0
 0
TEXT
 8
DAMAN
 5
181
10
9.500000
20
2.687500
30
0.0
40
0.200000
 1
A
50
0.0
41
1.000000
51
0.0
 7
STANDARD
71
  0
72
  0
73
  0
 0
TEXT
 8
DAMAN
 5
182
10
12.750000
20
4.687500
30
0.0
40
0.200000
 1
B
50
0.0
41
1.000000
51
0.0
 7
STANDARD
71
  0
72
  0
73
  0
 0
TEXT
 8
DAMAN
 5
183
10
12.750000
20
2.687500
30
0.0
40
0.200000
 1
A
50
0.0
41
1.000000
51
0.0
 7
STANDARD
71
  0
72
  0
73
  0
 0
TEXT
 8
DAMAN
 5
184
10
9.375000
20
3.562500
30
0.0
40
0.180000
 1
DAMAN ****
50
0.0
41
1.000000
51
0.0
 7
STANDARD
71
  0
72
  0
73
  0
 0
TEXT
 8
DAMAN
 5
185
10
7.250000
20
3.531250
30
0.0
40
0.200000
 1
X
50
0.0
41
1.000000
51
0.0
 7
STANDARD
71
  0
72
  0
73
  0
 0
INSERT
 8
DAMAN
 5
186
 2
D05
10
7.718500
20
9.374250
30
0.0
41
1.000000
42
1.000000
43
1.000000
50
0.0
70
  1
71
  1
44
0.0
45
0.0
 0
INSERT
 8
DAMAN
 5
187
 2
D05
10
10.968500
20
9.374250
30
0.0
41
1.000000
42
1.000000
43
1.000000
50
0.0
70
  1
71
  1
44
0.0
45
0.0
 0
INSERT
 8
DAMAN
 5
188
 2
T3AT
10
10.250000
20
14.625000
30
0.0
41
1.000000
42
1.000000
43
1.000000
50
0.0
70
  1
71
  1
44
0.0
45
0.0
 0
INSERT
 8
DAMAN
 5
189
 2
100CROSS
10
7.812500
20
9.812250
30
0.0
41
0.250000
42
0.250000
43
0.0
50
0.0
70
  1
71
  1
44
0.0
45
0.0
 0
CIRCLE
 8
DAMAN
 5
18A
10
7.812500
20
9.812250
30
0.0
40
0.094000
 0
INSERT
 8
DAMAN
 5
18B
 2
100CROSS
10
9.437500
20
6.812250
30
0.0
41
0.250000
42
0.250000
43
0.0
50
0.0
70
  1
71
  1
44
0.0
45
0.0
 0
CIRCLE
 8
DAMAN
 5
18C
10
9.437500
20
6.812250
30
0.0
40
0.094000
 0
INSERT
 8
DAMAN
 5
18D
 2
100CROSS
10
11.062500
20
9.812250
30
0.0
41
0.250000
42
0.250000
43
0.0
50
0.0
70
  1
71
  1
44
0.0
45
0.0
 0
CIRCLE
 8
DAMAN
 5
18E
10
11.062500
20
9.812250
30
0.0
40
0.094000
 0
CIRCLE
 8
DAMAN
 5
18F
10
12.687500
20
6.812250
30
0.0
40
0.094000
 0
INSERT
 8
DAMAN
 5
190
 2
100CROSS
10
12.687500
20
6.812250
30
0.0
41
0.250000
42
0.250000
43
0.0
50
0.0
70
  1
71
  1
44
0.0
45
0.0
 0
TEXT
 8
DAMAN
 5
191
10
7.437500
20
12.343750
30
0.0
40
0.200000
 1
Y
50
180.000000
41
1.000000
51
0.0
 7
STANDARD
71
  0
72
  0
73
  0
 0
INSERT
 8
DAMAN
 5
192
 2
0375BSPPT
10
2.281250
20
8.406250
30
0.0
41
1.000000
42
1.000000
43
1.000000
50
0.0
70
  1
71
  1
44
0.0
45
0.0
 0
INSERT
 8
DAMAN
 5
193
 2
0375BSPPT
10
2.031250
20
-1.343750
30
0.0
41
1.000000
42
1.000000
43
1.000000
50
0.0
70
  1
71
  1
44
0.0
45
0.0
 0
INSERT
 8
DAMAN
 5
194
 2
100BSPPT
10
3.000000
20
9.844000
30
0.0
41
1.000000
42
1.000000
43
1.000000
50
0.0
70
  1
71
  1
44
0.0
45
0.0
 0
INSERT
 8
DAMAN
 5
195
 2
100BSPPT
10
17.500000
20
9.844000
30
0.0
41
1.000000
42
1.000000
43
1.000000
50
0.0
70
  1
71
  1
44
0.0
45
0.0
 0
INSERT
 8
DAMAN
 5
196
 2
075BSPPT
10
3.000000
20
7.844000
30
0.0
41
1.000000
42
1.000000
43
1.000000
50
0.0
70
  1
71
  1
44
0.0
45
0.0
 0
INSERT
 8
DAMAN
 5
197
 2
075BSPPT
10
8.562000
20
4.125000
30
0.0
41
1.000000
42
1.000000
43
1.000000
50
0.0
70
  1
71
  1
44
0.0
45
0.0
 0
INSERT
 8
DAMAN
 5
198
 2
075BSPPT
10
8.562000
20
1.875000
30
0.0
41
1.000000
42
1.000000
43
1.000000
50
0.0
70
  1
71
  1
44
0.0
45
0.0
 0
INSERT
 8
DAMAN
 5
199
 2
075BSPPT
10
11.812000
20
4.125000
30
0.0
41
1.000000
42
1.000000
43
1.000000
50
0.0
70
  1
71
  1
44
0.0
45
0.0
 0
INSERT
 8
DAMAN
 5
19A
 2
075BSPPT
10
11.812000
20
1.875000
30
0.0
41
1.000000
42
1.000000
43
1.000000
50
0.0
70
  1
71
  1
44
0.0
45
0.0
 0
INSERT
 8
DAMAN
 5
19B
 2
075BSPPT
10
17.500000
20
7.844000
30
0.0
41
1.000000
42
1.000000
43
1.000000
50
0.0
70
  1
71
  1
44
0.0
45
0.0
 0
ENDBLK
 8
0
 5
19C
 0
BLOCK
 8
0
 5
19D
 2
0375BSPPT
70
  0
10
0.0
20
0.0
30
0.0
 0
CIRCLE
 8
DAMAN
 5
19E
10
5.718750
20
4.343750
30
0.0
40
0.328000
 0
CIRCLE
 8
DAMAN
 5
19F
10
5.718750
20
4.343750
30
0.0
40
0.332500
 0
CIRCLE
 8
DAMAN
 5
1A0
10
5.718750
20
4.343750
30
0.0
40
0.303500
 0
CIRCLE
 8
DAMAN
 5
1A1
10
5.718750
20
4.343750
30
0.0
40
0.510000
 0
INSERT
 8
DAMAN
 5
1A2
 2
100CROSS
10
5.718750
20
4.343750
30
0.0
41
0.880000
42
0.880000
43
0.0
50
0.0
70
  1
71
  1
44
0.0
45
0.0
 0
ENDBLK
 8
0
 5
1A3
 0
BLOCK
 8
0
 5
1A4
 2
075BSPPT
70
  0
10
0.0
20
0.0
30
0.0
 0
CIRCLE
 8
DAMAN
 5
1A5
10
0.0
20
0.0
30
0.0
40
0.453000
 0
CIRCLE
 8
DAMAN
 5
1A6
10
0.0
20
0.0
30
0.0
40
0.475000
 0
CIRCLE
 8
DAMAN
 5
1A7
10
0.0
20
0.0
30
0.0
40
0.720000
 0
LINE
 8
DAMAN
 5
1A8
10
-0.812500
20
0.0
30
0.0
11
0.812500
21
0.0
31
0.0
 0
CIRCLE
 8
DAMAN
 5
1A9
10
0.0
20
0.0
30
0.0
40
0.520000
 0
LINE
 8
DAMAN
 5
1AA
10
0.0
20
0.812500
30
0.0
11
0.0
21
-0.812500
31
0.0
 0
ENDBLK
 8
0
 5
1AB
 0
BLOCK
 8
0
 5
1AC
 2
100BSPPT
70
  0
10
0.0
20
0.0
30
0.0
 0
CIRCLE
 8
DAMAN
 5
1AD
10
0.0
20
0.0
30
0.0
40
0.654500
 0
CIRCLE
 8
DAMAN
 5
1AE
10
0.0
20
0.0
30
0.0
40
0.612500
 0
CIRCLE
 8
DAMAN
 5
1AF
10
0.0
20
0.0
30
0.0
40
0.915000
 0
INSERT
 8
DAMAN
 5
1B0
 2
100CROSS
10
0.0
20
0.0
30
0.0
41
1.330000
42
1.330000
43
0.0
50
0.0
70
  1
71
  1
44
0.0
45
0.0
 0
CIRCLE
 8
DAMAN
 5
1B1
10
0.000000
20
0.000000
30
0.0
40
0.657500
 0
ENDBLK
 8
0
 5
1B2
 0
BLOCK
 8
0
 5
1B3
 2
106SAET
70
  0
10
0.0
20
0.0
30
0.0
 0
CIRCLE
 8
CSOLID
 5
1B4
10
-0.000000
20
-0.000000
30
0.0
40
0.492000
 0
CIRCLE
 8
CSOLID
 5
1B5
10
-0.000000
20
-0.000000
30
0.0
40
0.453000
 0
CIRCLE
 8
CSOLID
 5
1B6
10
-0.000000
20
-0.000000
30
0.0
40
0.812500
 0
INSERT
 8
CCENTER
 5
1B7
 2
100CROSS
10
-0.000000
20
-0.000000
30
0.0
41
1.330000
42
1.330000
43
0.0
50
0.0
70
  1
71
  1
44
0.0
45
0.0
 0
CIRCLE
 8
CHIDDEN
 5
1B8
10
-0.000000
20
-0.000000
30
0.0
40
0.531250
 0
CIRCLE
 8
PHANTOM
 5
1B9
10
0.0
20
0.0
30
0.0
40
0.725000
 0
ENDBLK
 8
0
 5
1BA
 0
BLOCK
 8
0
 5
1BB
 2
MGAG
70
  0
10
0.0
20
0.0
30
0.0
 0
LINE
 8
DAMAN
 5
1BC
10
1.000000
20
6.000000
30
0.0
11
5.000000
21
6.000000
31
0.0
 0
LINE
 8
DAMAN
 5
1BD
10
5.000000
20
6.000000
30
0.0
11
5.000000
21
11.000000
31
0.0
 0
LINE
 8
DAMAN
 5
1BE
10
5.000000
20
11.000000
30
0.0
11
1.000000
21
11.000000
31
0.0
 0
LINE
 8
DAMAN
 5
1BF
10
1.000000
20
11.000000
30
0.0
11
1.000000
21
6.000000
31
0.0
 0
LINE
 8
DAMAN
 5
1C0
10
7.000000
20
6.000000
30
0.0
11
10.250000
21
6.000000
31
0.0
 0
LINE
 8
DAMAN
 5
1C1
10
10.250000
20
6.000000
30
0.0
11
10.250000
21
11.000000
31
0.0
 0
LINE
 8
DAMAN
 5
1C2
10
10.250000
20
11.000000
30
0.0
11
7.000000
21
11.000000
31
0.0
 0
LINE
 8
DAMAN
 5
1C3
10
7.000000
20
11.000000
30
0.0
11
7.000000
21
6.000000
31
0.0
 0
LINE
 8
DAMAN
 5
1C4
10
16.250000
20
11.000000
30
0.0
11
16.250000
21
6.000000
31
0.0
 0
LINE
 8
DAMAN
 5
1C5
10
12.250000
20
6.000000
30
0.0
11
12.250000
21
11.000000
31
0.0
 0
LINE
 8
DAMAN
 5
1C6
10
16.250000
20
6.000000
30
0.0
11
12.250000
21
6.000000
31
0.0
 0
LINE
 8
DAMAN
 5
1C7
10
12.250000
20
11.000000
30
0.0
11
16.250000
21
11.000000
31
0.0
 0
LINE
 8
DAMAN
 5
1C8
10
10.250000
20
5.000000
30
0.0
11
7.000000
21
5.000000
31
0.0
 0
LINE
 8
DAMAN
 5
1C9
10
7.000000
20
1.000000
30
0.0
11
10.250000
21
1.000000
31
0.0
 0
LINE
 8
DAMAN
 5
1CA
10
7.000000
20
5.000000
30
0.0
11
7.000000
21
1.000000
31
0.0
 0
LINE
 8
DAMAN
 5
1CB
10
10.250000
20
1.000000
30
0.0
11
10.250000
21
5.000000
31
0.0
 0
INSERT
 8
DAMAN
 5
1CC
 2
500MKT
10
16.812000
20
11.000000
30
0.0
41
1.000000
42
1.000000
43
1.000000
50
0.0
70
  1
71
  1
44
0.0
45
0.0
 0
INSERT
 8
DAMAN
 5
1CD
 2
500MKT
10
0.438000
20
6.000000
30
0.0
41
1.000000
42
1.000000
43
1.000000
50
180.000000
70
  1
71
  1
44
0.0
45
0.0
 0
INSERT
 8
DAMAN
 5
1CE
 2
500MKCT
10
7.000000
20
11.000000
30
0.0
41
1.000000
42
1.000000
43
1.000000
50
0.0
70
  1
71
  1
44
0.0
45
0.0
 0
INSERT
 8
DAMAN
 5
1CF
 2
500MKCT
10
10.250000
20
6.000000
30
0.0
41
1.000000
42
1.000000
43
1.000000
50
180.000000
70
  1
71
  1
44
0.0
45
0.0
 0
INSERT
 8
DAMAN
 5
1D0
 2
500MKS
10
6.781750
20
1.375000
30
0.0
41
1.000000
42
1.000000
43
1.000000
50
0.0
70
  1
71
  1
44
0.0
45
0.0
 0
INSERT
 8
DAMAN
 5
1D1
 2
500MKS
10
10.468250
20
1.375000
30
0.0
41
-1.000000
42
1.000000
43
1.000000
50
0.0
70
  1
71
  1
44
0.0
45
0.0
 0
TEXT
 8
DAMAN
 5
1D2
10
4.187500
20
10.437500
30
0.0
40
0.200000
 1
T
50
270.000000
41
1.000000
51
0.0
 7
STANDARD
71
  0
72
  0
73
  0
 0
TEXT
 8
DAMAN
 5
1D3
10
4.281250
20
6.875000
30
0.0
40
0.200000
 1
P
50
270.000000
41
1.000000
51
0.0
 7
STANDARD
71
  0
72
  0
73
  0
 0
TEXT
 8
DAMAN
 5
1D4
10
13.062500
20
10.375000
30
0.0
40
0.200000
 1
T
50
90.000000
41
1.000000
51
0.0
 7
STANDARD
71
  0
72
  0
73
  0
 0
TEXT
 8
DAMAN
 5
1D5
10
12.968750
20
6.906250
30
0.0
40
0.200000
 1
P
50
90.000000
41
1.000000
51
0.0
 7
STANDARD
71
  0
72
  0
73
  0
 0
TEXT
 8
DAMAN
 5
1D6
10
9.500000
20
4.687500
30
0.0
40
0.200000
 1
B
50
0.0
41
1.000000
51
0.0
 7
STANDARD
71
  0
72
  0
73
  0
 0
TEXT
 8
DAMAN
 5
1D7
10
9.500000
20
2.687500
30
0.0
40
0.200000
 1
A
50
0.0
41
1.000000
51
0.0
 7
STANDARD
71
  0
72
  0
73
  0
 0
TEXT
 8
DAMAN
 5
1D8
10
7.875000
20
2.937500
30
0.0
40
0.180000
 1
DAMAN ****
50
0.0
41
1.000000
51
0.0
 7
STANDARD
71
  0
72
  0
73
  0
 0
INSERT
 8
DAMAN
 5
1D9
 2
D05
10
7.718500
20
9.374250
30
0.0
41
1.000000
42
1.000000
43
1.000000
50
0.0
70
  1
71
  1
44
0.0
45
0.0
 0
INSERT
 8
DAMAN
 5
1DA
 2
12SAET
10
8.562000
20
4.125000
30
0.0
41
1.000000
42
1.000000
43
1.000000
50
0.0
70
  1
71
  1
44
0.0
45
0.0
 0
INSERT
 8
DAMAN
 5
1DB
 2
12SAET
10
8.562000
20
1.875000
30
0.0
41
1.000000
42
1.000000
43
1.000000
50
0.0
70
  1
71
  1
44
0.0
45
0.0
 0
INSERT
 8
DAMAN
 5
1DC
 2
12SAET
10
3.000000
20
7.844000
30
0.0
41
1.000000
42
1.000000
43
1.000000
50
0.0
70
  1
71
  1
44
0.0
45
0.0
 0
INSERT
 8
DAMAN
 5
1DD
 2
12SAET
10
14.250000
20
7.844000
30
0.0
41
1.000000
42
1.000000
43
1.000000
50
0.0
70
  1
71
  1
44
0.0
45
0.0
 0
INSERT
 8
DAMAN
 5
1DE
 2
16SAET
10
3.000000
20
9.844000
30
0.0
41
1.000000
42
1.000000
43
1.000000
50
0.0
70
  1
71
  1
44
0.0
45
0.0
 0
INSERT
 8
DAMAN
 5
1DF
 2
16SAET
10
14.250000
20
9.844000
30
0.0
41
1.000000
42
1.000000
43
1.000000
50
0.0
70
  1
71
  1
44
0.0
45
0.0
 0
ENDBLK
 8
0
 5
1E0
 0
BLOCK
 8
0
 5
1E1
 2
12SAET
70
  0
10
0.0
20
0.0
30
0.0
 0
CIRCLE
 8
DAMAN
 5
1E2
10
0.000000
20
0.000000
30
0.0
40
0.531250
 0
INSERT
 8
DAMAN
 5
1E3
 2
100CROSS
10
0.0
20
0.0
30
0.0
41
1.330000
42
1.330000
43
0.0
50
0.0
70
  1
71
  1
44
0.0
45
0.0
 0
CIRCLE
 8
DAMAN
 5
1E4
10
0.0
20
0.0
30
0.0
40
0.812500
 0
CIRCLE
 8
DAMAN
 5
1E5
10
0.0
20
0.0
30
0.0
40
0.453000
 0
CIRCLE
 8
DAMAN
 5
1E6
10
0.0
20
0.0
30
0.0
40
0.492000
 0
ENDBLK
 8
0
 5
1E7
 0
BLOCK
 8
0
 5
1E8
 2
16SAET
70
  0
10
0.0
20
0.0
30
0.0
 0
CIRCLE
 8
DAMAN
 5
1E9
10
0.0
20
0.0
30
0.0
40
0.612500
 0
CIRCLE
 8
DAMAN
 5
1EA
10
0.0
20
0.0
30
0.0
40
0.562000
 0
CIRCLE
 8
DAMAN
 5
1EB
10
0.0
20
0.0
30
0.0
40
1.000000
 0
INSERT
 8
DAMAN
 5
1EC
 2
100CROSS
10
0.0
20
0.0
30
0.0
41
1.600000
42
1.600000
43
0.0
50
0.0
70
  1
71
  1
44
0.0
45
0.0
 0
CIRCLE
 8
DAMAN
 5
1ED
10
0.0
20
0.0
30
0.0
40
0.656250
 0
ENDBLK
 8
0
 5
1EE
 0
BLOCK
 8
0
 5
1EF
 2
06SAET
70
  0
10
0.0
20
0.0
30
0.0
 0
INSERT
 8
DAMAN
 5
1F0
 2
100CROSS
10
0.0
20
0.0
30
0.0
41
1.000000
42
1.000000
43
0.0
50
0.0
70
  1
71
  1
44
0.0
45
0.0
 0
CIRCLE
 8
DAMAN
 5
1F1
10
0.0
20
0.0
30
0.0
40
0.281250
 0
CIRCLE
 8
DAMAN
 5
1F2
10
0.0
20
0.0
30
0.0
40
0.500000
 0
CIRCLE
 8
DAMAN
 5
1F3
10
0.0
20
0.0
30
0.0
40
0.250000
 0
ENDBLK
 8
0
 5
1F4
 0
BLOCK
 8
0
 5
1F5
 2
MGBG
70
  0
10
0.0
20
0.0
30
0.0
 0
LINE
 8
DAMAN
 5
1F6
10
1.000000
20
6.000000
30
0.0
11
5.000000
21
6.000000
31
0.0
 0
LINE
 8
DAMAN
 5
1F7
10
5.000000
20
6.000000
30
0.0
11
5.000000
21
11.000000
31
0.0
 0
LINE
 8
DAMAN
 5
1F8
10
5.000000
20
11.000000
30
0.0
11
1.000000
21
11.000000
31
0.0
 0
LINE
 8
DAMAN
 5
1F9
10
1.000000
20
11.000000
30
0.0
11
1.000000
21
6.000000
31
0.0
 0
LINE
 8
DAMAN
 5
1FA
10
7.000000
20
6.000000
30
0.0
11
13.500000
21
6.000000
31
0.0
 0
LINE
 8
DAMAN
 5
1FB
10
13.500000
20
6.000000
30
0.0
11
13.500000
21
11.000000
31
0.0
 0
LINE
 8
DAMAN
 5
1FC
10
13.500000
20
11.000000
30
0.0
11
7.000000
21
11.000000
31
0.0
 0
LINE
 8
DAMAN
 5
1FD
10
7.000000
20
11.000000
30
0.0
11
7.000000
21
6.000000
31
0.0
 0
LINE
 8
DAMAN
 5
1FE
10
19.500000
20
11.000000
30
0.0
11
19.500000
21
6.000000
31
0.0
 0
LINE
 8
DAMAN
 5
1FF
10
15.500000
20
6.000000
30
0.0
11
15.500000
21
11.000000
31
0.0
 0
LINE
 8
DAMAN
 5
200
10
19.500000
20
6.000000
30
0.0
11
15.500000
21
6.000000
31
0.0
 0
LINE
 8
DAMAN
 5
201
10
15.500000
20
11.000000
30
0.0
11
19.500000
21
11.000000
31
0.0
 0
LINE
 8
DAMAN
 5
202
10
13.500000
20
5.000000
30
0.0
11
7.000000
21
5.000000
31
0.0
 0
LINE
 8
DAMAN
 5
203
10
7.000000
20
1.000000
30
0.0
11
13.500000
21
1.000000
31
0.0
 0
LINE
 8
DAMAN
 5
204
10
7.000000
20
5.000000
30
0.0
11
7.000000
21
1.000000
31
0.0
 0
LINE
 8
DAMAN
 5
205
10
13.500000
20
1.000000
30
0.0
11
13.500000
21
5.000000
31
0.0
 0
INSERT
 8
DAMAN
 5
206
 2
500MKT
10
20.062000
20
11.000000
30
0.0
41
1.000000
42
1.000000
43
1.000000
50
0.0
70
  1
71
  1
44
0.0
45
0.0
 0
INSERT
 8
DAMAN
 5
207
 2
500MKT
10
0.438000
20
6.000000
30
0.0
41
1.000000
42
1.000000
43
1.000000
50
180.000000
70
  1
71
  1
44
0.0
45
0.0
 0
INSERT
 8
DAMAN
 5
208
 2
500MKCT
10
7.000000
20
11.000000
30
0.0
41
1.000000
42
1.000000
43
1.000000
50
0.0
70
  1
71
  1
44
0.0
45
0.0
 0
INSERT
 8
DAMAN
 5
209
 2
500MKCT
10
13.500000
20
6.000000
30
0.0
41
1.000000
42
1.000000
43
1.000000
50
180.000000
70
  1
71
  1
44
0.0
45
0.0
 0
INSERT
 8
DAMAN
 5
20A
 2
500MKS
10
6.781750
20
1.375000
30
0.0
41
1.000000
42
1.000000
43
1.000000
50
0.0
70
  1
71
  1
44
0.0
45
0.0
 0
INSERT
 8
DAMAN
 5
20B
 2
500MKS
10
13.718250
20
1.375000
30
0.0
41
-1.000000
42
1.000000
43
1.000000
50
0.0
70
  1
71
  1
44
0.0
45
0.0
 0
TEXT
 8
DAMAN
 5
20C
10
4.187500
20
10.437500
30
0.0
40
0.200000
 1
T
50
270.000000
41
1.000000
51
0.0
 7
STANDARD
71
  0
72
  0
73
  0
 0
TEXT
 8
DAMAN
 5
20D
10
4.281250
20
6.875000
30
0.0
40
0.200000
 1
P
50
270.000000
41
1.000000
51
0.0
 7
STANDARD
71
  0
72
  0
73
  0
 0
TEXT
 8
DAMAN
 5
20E
10
16.312500
20
10.375000
30
0.0
40
0.200000
 1
T
50
90.000000
41
1.000000
51
0.0
 7
STANDARD
71
  0
72
  0
73
  0
 0
TEXT
 8
DAMAN
 5
20F
10
16.218750
20
6.906250
30
0.0
40
0.200000
 1
P
50
90.000000
41
1.000000
51
0.0
 7
STANDARD
71
  0
72
  0
73
  0
 0
TEXT
 8
DAMAN
 5
210
10
9.500000
20
4.687500
30
0.0
40
0.200000
 1
B
50
0.0
41
1.000000
51
0.0
 7
STANDARD
71
  0
72
  0
73
  0
 0
TEXT
 8
DAMAN
 5
211
10
9.500000
20
2.687500
30
0.0
40
0.200000
 1
A
50
0.0
41
1.000000
51
0.0
 7
STANDARD
71
  0
72
  0
73
  0
 0
TEXT
 8
DAMAN
 5
212
10
12.750000
20
4.687500
30
0.0
40
0.200000
 1
B
50
0.0
41
1.000000
51
0.0
 7
STANDARD
71
  0
72
  0
73
  0
 0
TEXT
 8
DAMAN
 5
213
10
12.750000
20
2.687500
30
0.0
40
0.200000
 1
A
50
0.0
41
1.000000
51
0.0
 7
STANDARD
71
  0
72
  0
73
  0
 0
TEXT
 8
DAMAN
 5
214
10
9.375000
20
3.562500
30
0.0
40
0.180000
 1
DAMAN ****
50
0.0
41
1.000000
51
0.0
 7
STANDARD
71
  0
72
  0
73
  0
 0
INSERT
 8
DAMAN
 5
215
 2
D05
10
7.718500
20
9.374250
30
0.0
41
1.000000
42
1.000000
43
1.000000
50
0.0
70
  1
71
  1
44
0.0
45
0.0
 0
INSERT
 8
DAMAN
 5
216
 2
D05
10
10.968500
20
9.374250
30
0.0
41
1.000000
42
1.000000
43
1.000000
50
0.0
70
  1
71
  1
44
0.0
45
0.0
 0
INSERT
 8
DAMAN
 5
217
 2
12SAET
10
8.562000
20
4.125000
30
0.0
41
1.000000
42
1.000000
43
1.000000
50
0.0
70
  1
71
  1
44
0.0
45
0.0
 0
INSERT
 8
DAMAN
 5
218
 2
12SAET
10
11.812000
20
4.125000
30
0.0
41
1.000000
42
1.000000
43
1.000000
50
0.0
70
  1
71
  1
44
0.0
45
0.0
 0
INSERT
 8
DAMAN
 5
219
 2
12SAET
10
11.812000
20
1.875000
30
0.0
41
1.000000
42
1.000000
43
1.000000
50
0.0
70
  1
71
  1
44
0.0
45
0.0
 0
INSERT
 8
DAMAN
 5
21A
 2
12SAET
10
8.562000
20
1.875000
30
0.0
41
1.000000
42
1.000000
43
1.000000
50
0.0
70
  1
71
  1
44
0.0
45
0.0
 0
INSERT
 8
DAMAN
 5
21B
 2
12SAET
10
3.000000
20
7.844000
30
0.0
41
1.000000
42
1.000000
43
1.000000
50
0.0
70
  1
71
  1
44
0.0
45
0.0
 0
INSERT
 8
DAMAN
 5
21C
 2
12SAET
10
17.500000
20
7.844000
30
0.0
41
1.000000
42
1.000000
43
1.000000
50
0.0
70
  1
71
  1
44
0.0
45
0.0
 0
INSERT
 8
DAMAN
 5
21D
 2
16SAET
10
3.000000
20
9.844000
30
0.0
41
1.000000
42
1.000000
43
1.000000
50
0.0
70
  1
71
  1
44
0.0
45
0.0
 0
INSERT
 8
DAMAN
 5
21E
 2
16SAET
10
17.500000
20
9.844000
30
0.0
41
1.000000
42
1.000000
43
1.000000
50
0.0
70
  1
71
  1
44
0.0
45
0.0
 0
INSERT
 8
DAMAN
 5
21F
 2
06SAET
10
10.188000
20
2.500000
30
0.0
41
1.000000
42
1.000000
43
1.000000
50
0.0
70
  1
71
  1
44
0.0
45
0.0
 0
TEXT
 8
DAMAN
 5
220
10
10.750000
20
2.968750
30
0.0
40
0.188000
 1
GA
50
0.0
41
1.000000
51
0.0
 7
STANDARD
71
  0
72
  0
73
  0
 0
ENDBLK
 8
0
 5
221
 0
ENDSEC
 0
SECTION
 2
ENTITIES
 0
LINE
 8
DAMAN
 5
222
10
1.000000
20
6.000000
30
0.0
11
5.000000
21
6.000000
31
0.0
 0
LINE
 8
DAMAN
 5
223
10
5.000000
20
6.000000
30
0.0
11
5.000000
21
11.000000
31
0.0
 0
LINE
 8
DAMAN
 5
224
10
5.000000
20
11.000000
30
0.0
11
1.000000
21
11.000000
31
0.0
 0
LINE
 8
DAMAN
 5
225
10
1.000000
20
11.000000
30
0.0
11
1.000000
21
6.000000
31
0.0
 0
LINE
 8
DAMAN
 5
226
10
7.000000
20
6.000000
30
0.0
11
29.750000
21
6.000000
31
0.0
 0
LINE
 8
DAMAN
 5
227
10
29.750000
20
6.000000
30
0.0
11
29.750000
21
11.000000
31
0.0
 0
LINE
 8
DAMAN
 5
228
10
29.750000
20
11.000000
30
0.0
11
7.000000
21
11.000000
31
0.0
 0
LINE
 8
DAMAN
 5
229
10
7.000000
20
11.000000
30
0.0
11
7.000000
21
6.000000
31
0.0
 0
LINE
 8
DAMAN
 5
22A
10
35.750000
20
11.000000
30
0.0
11
35.750000
21
6.000000
31
0.0
 0
LINE
 8
DAMAN
 5
22B
10
31.750000
20
6.000000
30
0.0
11
31.750000
21
11.000000
31
0.0
 0
LINE
 8
DAMAN
 5
22C
10
35.750000
20
6.000000
30
0.0
11
31.750000
21
6.000000
31
0.0
 0
LINE
 8
DAMAN
 5
22D
10
31.750000
20
11.000000
30
0.0
11
35.750000
21
11.000000
31
0.0
 0
LINE
 8
DAMAN
 5
22E
10
29.750000
20
16.000000
30
0.0
11
7.000000
21
16.000000
31
0.0
 0
LINE
 8
DAMAN
 5
22F
10
7.000000
20
12.000000
30
0.0
11
29.750000
21
12.000000
31
0.0
 0
LINE
 8
DAMAN
 5
230
10
7.000000
20
16.000000
30
0.0
11
7.000000
21
12.000000
31
0.0
 0
LINE
 8
DAMAN
 5
231
10
29.750000
20
12.000000
30
0.0
11
29.750000
21
16.000000
31
0.0
 0
LINE
 8
DAMAN
 5
232
10
29.750000
20
5.000000
30
0.0
11
7.000000
21
5.000000
31
0.0
 0
LINE
 8
DAMAN
 5
233
10
7.000000
20
1.000000
30
0.0
11
29.750000
21
1.000000
31
0.0
 0
LINE
 8
DAMAN
 5
234
10
7.000000
20
5.000000
30
0.0
11
7.000000
21
1.000000
31
0.0
 0
LINE
 8
DAMAN
 5
235
10
29.750000
20
1.000000
30
0.0
11
29.750000
21
5.000000
31
0.0
 0
INSERT
 8
DAMAN
 5
236
 2
500MKT
10
36.312000
20
11.000000
30
0.0
41
1.000000
42
1.000000
43
1.000000
50
0.0
70
  1
71
  1
44
0.0
45
0.0
 0
INSERT
 8
DAMAN
 5
237
 2
500MKT
10
0.438000
20
6.000000
30
0.0
41
1.000000
42
1.000000
43
1.000000
50
180.000000
70
  1
71
  1
44
0.0
45
0.0
 0
INSERT
 8
DAMAN
 5
238
 2
500MKCT
10
7.000000
20
11.000000
30
0.0
41
1.000000
42
1.000000
43
1.000000
50
0.0
70
  1
71
  1
44
0.0
45
0.0
 0
INSERT
 8
DAMAN
 5
239
 2
500MKCT
10
29.750000
20
6.000000
30
0.0
41
1.000000
42
1.000000
43
1.000000
50
180.000000
70
  1
71
  1
44
0.0
45
0.0
 0
INSERT
 8
DAMAN
 5
23A
 2
500MKS
10
6.781750
20
1.375000
30
0.0
41
1.000000
42
1.000000
43
1.000000
50
0.0
70
  1
71
  1
44
0.0
45
0.0
 0
INSERT
 8
DAMAN
 5
23B
 2
500MKS
10
29.968250
20
1.375000
30
0.0
41
-1.000000
42
1.000000
43
1.000000
50
0.0
70
  1
71
  1
44
0.0
45
0.0
 0
INSERT
 8
DAMAN
 5
23C
 2
500MKS
10
29.968250
20
15.625000
30
0.0
41
1.000000
42
1.000000
43
1.000000
50
180.000000
70
  1
71
  1
44
0.0
45
0.0
 0
INSERT
 8
DAMAN
 5
23D
 2
500MKS
10
6.781750
20
15.625000
30
0.0
41
-1.000000
42
1.000000
43
1.000000
50
180.000000
70
  1
71
  1
44
0.0
45
0.0
 0
TEXT
 8
DAMAN
 5
23E
10
4.187500
20
10.437500
30
0.0
40
0.200000
 1
T
50
270.000000
41
1.000000
51
0.0
 7
STANDARD
71
  0
72
  0
73
  0
 0
TEXT
 8
DAMAN
 5
23F
10
4.219250
20
6.875000
30
0.0
40
0.200000
 1
P
50
270.000000
41
1.000000
51
0.0
 7
STANDARD
71
  0
72
  0
73
  0
 0
TEXT
 8
DAMAN
 5
240
10
32.562500
20
10.375000
30
0.0
40
0.200000
 1
T
50
90.000000
41
1.000000
51
0.0
 7
STANDARD
71
  0
72
  0
73
  0
 0
TEXT
 8
DAMAN
 5
241
10
32.468750
20
6.906250
30
0.0
40
0.200000
 1
P
50
90.000000
41
1.000000
51
0.0
 7
STANDARD
71
  0
72
  0
73
  0
 0
TEXT
 8
DAMAN
 5
242
10
9.500000
20
4.687500
30
0.0
40
0.200000
 1
B
50
0.0
41
1.000000
51
0.0
 7
STANDARD
71
  0
72
  0
73
  0
 0
TEXT
 8
DAMAN
 5
243
10
9.500000
20
2.687500
30
0.0
40
0.200000
 1
A
50
0.0
41
1.000000
51
0.0
 7
STANDARD
71
  0
72
  0
73
  0
 0
TEXT
 8
DAMAN
 5
244
10
9.375000
20
3.392656
30
0.0
40
0.180000
 1
DAMAN ****
50
0.0
41
1.000000
51
0.0
 7
STANDARD
71
  0
72
  0
73
  0
 0
INSERT
 8
DAMAN
 5
245
 2
D05
10
7.718500
20
9.374250
30
0.0
41
1.000000
42
1.000000
43
1.000000
50
0.0
70
  1
71
  1
44
0.0
45
0.0
 0
INSERT
 8
DAMAN
 5
246
 2
T3AT
10
10.250000
20
14.625000
30
0.0
41
1.000000
42
1.000000
43
1.000000
50
0.0
70
  1
71
  1
44
0.0
45
0.0
 0
INSERT
 8
DAMAN
 5
247
 2
12SAET
10
8.562000
20
4.125000
30
0.0
41
1.000000
42
1.000000
43
1.000000
50
0.0
70
  1
71
  1
44
0.0
45
0.0
 0
INSERT
 8
DAMAN
 5
248
 2
12SAET
10
8.562000
20
1.875000
30
0.0
41
1.000000
42
1.000000
43
1.000000
50
0.0
70
  1
71
  1
44
0.0
45
0.0
 0
INSERT
 8
DAMAN
 5
249
 2
12SAET
10
3.000000
20
7.844000
30
0.0
41
1.000000
42
1.000000
43
1.000000
50
0.0
70
  1
71
  1
44
0.0
45
0.0
 0
INSERT
 8
DAMAN
 5
24A
 2
16SAET
10
3.000000
20
9.844000
30
0.0
41
1.000000
42
1.000000
43
1.000000
50
0.0
70
  1
71
  1
44
0.0
45
0.0
 0
INSERT
 8
DAMAN
 5
24B
 2
16SAET
10
33.750000
20
9.844000
30
0.0
41
-1.000000
42
1.000000
43
1.000000
50
0.0
70
  1
71
  1
44
0.0
45
0.0
 0
INSERT
 8
DAMAN
 5
24C
 2
12SAET
10
33.750000
20
7.844000
30
0.0
41
-1.000000
42
1.000000
43
1.000000
50
0.0
70
  1
71
  1
44
0.0
45
0.0
 0
INSERT
 8
DAMAN
 5
24D
 2
D05
10
10.968500
20
9.374250
30
0.0
41
1.000000
42
1.000000
43
1.000000
50
0.0
70
  1
71
  1
44
0.0
45
0.0
 0
INSERT
 8
DAMAN
 5
24E
 2
12SAET
10
11.812000
20
4.125000
30
0.0
41
1.000000
42
1.000000
43
1.000000
50
0.0
70
  1
71
  1
44
0.0
45
0.0
 0
TEXT
 8
DAMAN
 5
24F
10
12.750000
20
4.687500
30
0.0
40
0.200000
 1
B
50
0.0
41
1.000000
51
0.0
 7
STANDARD
71
  0
72
  0
73
  0
 0
TEXT
 8
DAMAN
 5
250
10
12.750000
20
2.687500
30
0.0
40
0.200000
 1
A
50
0.0
41
1.000000
51
0.0
 7
STANDARD
71
  0
72
  0
73
  0
 0
INSERT
 8
DAMAN
 5
251
 2
12SAET
10
11.812000
20
1.875000
30
0.0
41
1.000000
42
1.000000
43
1.000000
50
0.0
70
  1
71
  1
44
0.0
45
0.0
 0
INSERT
 8
DAMAN
 5
252
 2
D05
10
14.218500
20
9.374250
30
0.0
41
1.000000
42
1.000000
43
1.000000
50
0.0
70
  1
71
  1
44
0.0
45
0.0
 0
INSERT
 8
DAMAN
 5
253
 2
12SAET
10
15.062000
20
1.875000
30
0.0
41
1.000000
42
1.000000
43
1.000000
50
0.0
70
  1
71
  1
44
0.0
45
0.0
 0
INSERT
 8
DAMAN
 5
254
 2
12SAET
10
15.062000
20
4.125000
30
0.0
41
1.000000
42
1.000000
43
1.000000
50
0.0
70
  1
71
  1
44
0.0
45
0.0
 0
TEXT
 8
DAMAN
 5
255
10
16.000000
20
2.687500
30
0.0
40
0.200000
 1
A
50
0.0
41
1.000000
51
0.0
 7
STANDARD
71
  0
72
  0
73
  0
 0
TEXT
 8
DAMAN
 5
256
10
16.000000
20
4.687500
30
0.0
40
0.200000
 1
B
50
0.0
41
1.000000
51
0.0
 7
STANDARD
71
  0
72
  0
73
  0
 0
INSERT
 8
DAMAN
 5
257
 2
D05
10
17.468500
20
9.374250
30
0.0
41
1.000000
42
1.000000
43
1.000000
50
0.0
70
  1
71
  1
44
0.0
45
0.0
 0
TEXT
 8
DAMAN
 5
258
10
19.250000
20
2.687500
30
0.0
40
0.200000
 1
A
50
0.0
41
1.000000
51
0.0
 7
STANDARD
71
  0
72
  0
73
  0
 0
INSERT
 8
DAMAN
 5
259
 2
12SAET
10
18.312000
20
1.875000
30
0.0
41
1.000000
42
1.000000
43
1.000000
50
0.0
70
  1
71
  1
44
0.0
45
0.0
 0
INSERT
 8
DAMAN
 5
25A
 2
12SAET
10
18.312000
20
4.125000
30
0.0
41
1.000000
42
1.000000
43
1.000000
50
0.0
70
  1
71
  1
44
0.0
45
0.0
 0
TEXT
 8
DAMAN
 5
25B
10
19.250000
20
4.687500
30
0.0
40
0.200000
 1
B
50
0.0
41
1.000000
51
0.0
 7
STANDARD
71
  0
72
  0
73
  0
 0
INSERT
 8
DAMAN
 5
25C
 2
D05
10
20.718500
20
9.374250
30
0.0
41
1.000000
42
1.000000
43
1.000000
50
0.0
70
  1
71
  1
44
0.0
45
0.0
 0
INSERT
 8
DAMAN
 5
25D
 2
12SAET
10
21.562000
20
1.875000
30
0.0
41
1.000000
42
1.000000
43
1.000000
50
0.0
70
  1
71
  1
44
0.0
45
0.0
 0
TEXT
 8
DAMAN
 5
25E
10
22.500000
20
2.687500
30
0.0
40
0.200000
 1
A
50
0.0
41
1.000000
51
0.0
 7
STANDARD
71
  0
72
  0
73
  0
 0
INSERT
 8
DAMAN
 5
25F
 2
12SAET
10
21.562000
20
4.125000
30
0.0
41
1.000000
42
1.000000
43
1.000000
50
0.0
70
  1
71
  1
44
0.0
45
0.0
 0
TEXT
 8
DAMAN
 5
260
10
22.500000
20
4.687500
30
0.0
40
0.200000
 1
B
50
0.0
41
1.000000
51
0.0
 7
STANDARD
71
  0
72
  0
73
  0
 0
INSERT
 8
DAMAN
 5
261
 2
D05
10
23.968500
20
9.374250
30
0.0
41
1.000000
42
1.000000
43
1.000000
50
0.0
70
  1
71
  1
44
0.0
45
0.0
 0
TEXT
 8
DAMAN
 5
262
10
25.750000
20
2.687500
30
0.0
40
0.200000
 1
A
50
0.0
41
1.000000
51
0.0
 7
STANDARD
71
  0
72
  0
73
  0
 0
INSERT
 8
DAMAN
 5
263
 2
12SAET
10
24.812000
20
1.875000
30
0.0
41
1.000000
42
1.000000
43
1.000000
50
0.0
70
  1
71
  1
44
0.0
45
0.0
 0
INSERT
 8
DAMAN
 5
264
 2
12SAET
10
24.812000
20
4.125000
30
0.0
41
1.000000
42
1.000000
43
1.000000
50
0.0
70
  1
71
  1
44
0.0
45
0.0
 0
TEXT
 8
DAMAN
 5
265
10
25.750000
20
4.687500
30
0.0
40
0.200000
 1
B
50
0.0
41
1.000000
51
0.0
 7
STANDARD
71
  0
72
  0
73
  0
 0
INSERT
 8
DAMAN
 5
266
 2
D05
10
27.218500
20
9.374250
30
0.0
41
1.000000
42
1.000000
43
1.000000
50
0.0
70
  1
71
  1
44
0.0
45
0.0
 0
INSERT
 8
DAMAN
 5
267
 2
12SAET
10
28.062000
20
1.875000
30
0.0
41
1.000000
42
1.000000
43
1.000000
50
0.0
70
  1
71
  1
44
0.0
45
0.0
 0
TEXT
 8
DAMAN
 5
268
10
29.000000
20
2.687500
30
0.0
40
0.200000
 1
A
50
0.0
41
1.000000
51
0.0
 7
STANDARD
71
  0
72
  0
73
  0
 0
INSERT
 8
DAMAN
 5
269
 2
12SAET
10
28.062000
20
4.125000
30
0.0
41
1.000000
42
1.000000
43
1.000000
50
0.0
70
  1
71
  1
44
0.0
45
0.0
 0
TEXT
 8
DAMAN
 5
26A
10
29.000000
20
4.687500
30
0.0
40
0.200000
 1
B
50
0.0
41
1.000000
51
0.0
 7
STANDARD
71
  0
72
  0
73
  0
 0
INSERT
 8
DAMAN
 5
270
 2
06SAET
10
10.188000
20
2.500000
30
0.0
41
1.000000
42
1.000000
43
1.000000
50
0.0
70
  1
71
  1
44
0.0
45
0.0
 0
TEXT
 8
DAMAN
 5
271
10
10.750000
20
2.968750
30
0.0
40
0.188000
 1
GA
50
0.0
41
1.000000
51
0.0
 7
STANDARD
71
  0
72
  0
73
  0
 0
ENDSEC
 0
EOF
