  0
SECTION
  2
HEADER
  9
$ACADVER
  1
AC1014
  9
$ACADMAINTVER
 70
     9
  9
$DWGCODEPAGE
  3
ANSI_1252
  9
$INSBASE
 10
0.0
 20
0.0
 30
0.0
  9
$EXTMIN
 10
3.125024792003713
 20
-0.1879948104079752
 30
-0.0015258207003583
  9
$EXTMAX
 10
31.25160636366998
 20
13.87558780087808
 30
0.0000000349246037
  9
$LIMMIN
 10
0.0
 20
0.0
  9
$LIMMAX
 10
12.0
 20
9.0
  9
$ORTHOMODE
 70
     0
  9
$REGENMODE
 70
     1
  9
$FILLMODE
 70
     1
  9
$QTEXTMODE
 70
     0
  9
$MIRRTEXT
 70
     1
  9
$DRAGMODE
 70
     2
  9
$LTSCALE
 40
1.0
  9
$OSMODE
 70
    37
  9
$ATTMODE
 70
     1
  9
$TEXTSIZE
 40
0.2
  9
$TRACEWID
 40
0.05
  9
$TEXTSTYLE
  7
STANDARD
  9
$CLAYER
  8
0
  9
$CELTYPE
  6
CONTINUOUS
  9
$CECOLOR
 62
   256
  9
$CELTSCALE
 40
1.0
  9
$DELOBJ
 70
     1
  9
$DISPSILH
 70
     0
  9
$DIMSCALE
 40
1.0
  9
$DIMASZ
 40
0.18
  9
$DIMEXO
 40
0.0625
  9
$DIMDLI
 40
0.38
  9
$DIMRND
 40
0.0
  9
$DIMDLE
 40
0.0
  9
$DIMEXE
 40
0.18
  9
$DIMTP
 40
0.0
  9
$DIMTM
 40
0.0
  9
$DIMTXT
 40
0.18
  9
$DIMCEN
 40
0.09
  9
$DIMTSZ
 40
0.0
  9
$DIMTOL
 70
     0
  9
$DIMLIM
 70
     0
  9
$DIMTIH
 70
     1
  9
$DIMTOH
 70
     1
  9
$DIMSE1
 70
     0
  9
$DIMSE2
 70
     0
  9
$DIMTAD
 70
     0
  9
$DIMZIN
 70
     0
  9
$DIMBLK
  1

  9
$DIMASO
 70
     1
  9
$DIMSHO
 70
     1
  9
$DIMPOST
  1

  9
$DIMAPOST
  1

  9
$DIMALT
 70
     0
  9
$DIMALTD
 70
     2
  9
$DIMALTF
 40
25.4
  9
$DIMLFAC
 40
1.0
  9
$DIMTOFL
 70
     0
  9
$DIMTVP
 40
0.0
  9
$DIMTIX
 70
     0
  9
$DIMSOXD
 70
     0
  9
$DIMSAH
 70
     0
  9
$DIMBLK1
  1

  9
$DIMBLK2
  1

  9
$DIMSTYLE
  2
STANDARD
  9
$DIMCLRD
 70
     0
  9
$DIMCLRE
 70
     0
  9
$DIMCLRT
 70
     0
  9
$DIMTFAC
 40
1.0
  9
$DIMGAP
 40
0.09
  9
$DIMJUST
 70
     0
  9
$DIMSD1
 70
     0
  9
$DIMSD2
 70
     0
  9
$DIMTOLJ
 70
     1
  9
$DIMTZIN
 70
     0
  9
$DIMALTZ
 70
     0
  9
$DIMALTTZ
 70
     0
  9
$DIMFIT
 70
     3
  9
$DIMUPT
 70
     0
  9
$DIMUNIT
 70
     2
  9
$DIMDEC
 70
     4
  9
$DIMTDEC
 70
     4
  9
$DIMALTU
 70
     2
  9
$DIMALTTD
 70
     2
  9
$DIMTXSTY
  7
STANDARD
  9
$DIMAUNIT
 70
     0
  9
$LUNITS
 70
     2
  9
$LUPREC
 70
     4
  9
$SKETCHINC
 40
0.1
  9
$FILLETRAD
 40
0.0
  9
$AUNITS
 70
     0
  9
$AUPREC
 70
     0
  9
$MENU
  1
.
  9
$ELEVATION
 40
0.0
  9
$PELEVATION
 40
0.0
  9
$THICKNESS
 40
0.0
  9
$LIMCHECK
 70
     0
  9
$BLIPMODE
 70
     0
  9
$CHAMFERA
 40
0.0
  9
$CHAMFERB
 40
0.0
  9
$CHAMFERC
 40
0.0
  9
$CHAMFERD
 40
0.0
  9
$SKPOLY
 70
     0
  9
$TDCREATE
 40
2453473.624512523
  9
$TDUPDATE
 40
2453473.629498599
  9
$TDINDWG
 40
0.0049862616
  9
$TDUSRTIMER
 40
0.0049862616
  9
$USRTIMER
 70
     1
  9
$ANGBASE
 50
0.0
  9
$ANGDIR
 70
     0
  9
$PDMODE
 70
     0
  9
$PDSIZE
 40
0.0
  9
$PLINEWID
 40
0.0
  9
$COORDS
 70
     1
  9
$SPLFRAME
 70
     0
  9
$SPLINETYPE
 70
     6
  9
$SPLINESEGS
 70
     8
  9
$ATTDIA
 70
     0
  9
$ATTREQ
 70
     1
  9
$HANDLING
 70
-16383
  9
$HANDSEED
  5
23A
  9
$SURFTAB1
 70
     6
  9
$SURFTAB2
 70
     6
  9
$SURFTYPE
 70
     6
  9
$SURFU
 70
     6
  9
$SURFV
 70
     6
  9
$UCSNAME
  2

  9
$UCSORG
 10
0.0
 20
0.0
 30
0.0
  9
$UCSXDIR
 10
1.0
 20
0.0
 30
0.0
  9
$UCSYDIR
 10
0.0
 20
1.0
 30
0.0
  9
$PUCSNAME
  2

  9
$PUCSORG
 10
0.0
 20
0.0
 30
0.0
  9
$PUCSXDIR
 10
1.0
 20
0.0
 30
0.0
  9
$PUCSYDIR
 10
0.0
 20
1.0
 30
0.0
  9
$USERI1
 70
     0
  9
$USERI2
 70
     0
  9
$USERI3
 70
     0
  9
$USERI4
 70
     0
  9
$USERI5
 70
     0
  9
$USERR1
 40
0.0
  9
$USERR2
 40
0.0
  9
$USERR3
 40
0.0
  9
$USERR4
 40
0.0
  9
$USERR5
 40
0.0
  9
$WORLDVIEW
 70
     1
  9
$SHADEDGE
 70
     3
  9
$SHADEDIF
 70
    70
  9
$TILEMODE
 70
     1
  9
$MAXACTVP
 70
    64
  9
$PINSBASE
 10
0.0
 20
0.0
 30
0.0
  9
$PLIMCHECK
 70
     0
  9
$PEXTMIN
 10
1.000000000000000E+20
 20
1.000000000000000E+20
 30
1.000000000000000E+20
  9
$PEXTMAX
 10
-1.000000000000000E+20
 20
-1.000000000000000E+20
 30
-1.000000000000000E+20
  9
$PLIMMIN
 10
0.0
 20
0.0
  9
$PLIMMAX
 10
12.0
 20
9.0
  9
$UNITMODE
 70
     0
  9
$VISRETAIN
 70
     1
  9
$PLINEGEN
 70
     0
  9
$PSLTSCALE
 70
     1
  9
$TREEDEPTH
 70
  3020
  9
$PICKSTYLE
 70
     1
  9
$CMLSTYLE
  2
STANDARD
  9
$CMLJUST
 70
     0
  9
$CMLSCALE
 40
1.0
  9
$PROXYGRAPHICS
 70
     1
  9
$MEASUREMENT
 70
     0
  0
ENDSEC
  0
SECTION
  2
CLASSES
  0
CLASS
  1
ACDBDICTIONARYWDFLT
  2
AcDbDictionaryWithDefault
  3
AutoCAD 2000
 90
        0
280
     0
281
     0
  0
CLASS
  1
ACDBPLACEHOLDER
  2
AcDbPlaceHolder
  3
AutoCAD 2000
 90
        0
280
     0
281
     0
  0
CLASS
  1
LAYOUT
  2
AcDbLayout
  3
AutoCAD 2000
 90
        0
280
     0
281
     0
  0
CLASS
  1
LONG_TRANSACTION
  2
AcDbLongTransaction
  3
AutoCAD 2000
 90
        0
280
     0
281
     0
  0
CLASS
  1
LWPOLYLINE
  2
AcDbPolyline
  3
AutoCAD 2000
 90
        0
280
     0
281
     1
  0
CLASS
  1
HATCH
  2
AcDbHatch
  3
AutoCAD 2000
 90
        0
280
     0
281
     1
  0
CLASS
  1
XRECORD
  2
AcDbXrecord
  3
AutoCAD 2000
 90
        0
280
     0
281
     0
  0
ENDSEC
  0
SECTION
  2
TABLES
  0
TABLE
  2
VPORT
  5
8
330
0
100
AcDbSymbolTable
 70
     2
  0
VPORT
  5
215
330
8
100
AcDbSymbolTableRecord
100
AcDbViewportTableRecord
  2
*ACTIVE
 70
     0
 10
0.0
 20
0.0
 11
1.0
 21
1.0
 12
17.18831557783684
 22
6.843796495235055
 13
0.0
 23
0.0
 14
1.0
 24
1.0
 15
0.0
 25
0.0
 16
0.0
 26
0.0
 36
1.0
 17
0.0
 27
0.0
 37
0.0
 40
17.17930751123994
 41
1.647569444444444
 42
50.0
 43
0.0
 44
0.0
 50
0.0
 51
0.0
 71
     0
 72
   100
 73
     1
 74
     1
 75
     0
 76
     0
 77
     0
 78
     0
  0
ENDTAB
  0
TABLE
  2
LTYPE
  5
5
330
0
100
AcDbSymbolTable
 70
    12
  0
LTYPE
  5
13
330
5
100
AcDbSymbolTableRecord
100
AcDbLinetypeTableRecord
  2
BYBLOCK
 70
     0
  3

 72
    65
 73
     0
 40
0.0
  0
LTYPE
  5
14
330
5
100
AcDbSymbolTableRecord
100
AcDbLinetypeTableRecord
  2
BYLAYER
 70
     0
  3

 72
    65
 73
     0
 40
0.0
  0
LTYPE
  5
15
330
5
100
AcDbSymbolTableRecord
100
AcDbLinetypeTableRecord
  2
CONTINUOUS
 70
     0
  3
Solid line
 72
    65
 73
     0
 40
0.0
  0
LTYPE
  5
22
330
5
100
AcDbSymbolTableRecord
100
AcDbLinetypeTableRecord
  2
DASHED
 70
     0
  3
__ __ __ __ __ __ __ __ __ __ __ __ __ __ __
 72
    65
 73
     2
 40
0.370667
 49
0.139
 74
     0
 49
-0.0695
 74
     0
  0
LTYPE
  5
23
330
5
100
AcDbSymbolTableRecord
100
AcDbLinetypeTableRecord
  2
DOT
 70
     0
  3
...............................................
 72
    65
 73
     2
 40
0.0695
 49
0.0
 74
     0
 49
-0.0695
 74
     0
  0
LTYPE
  5
24
330
5
100
AcDbSymbolTableRecord
100
AcDbLinetypeTableRecord
  2
DASHDOT
 70
     0
  3
__ . __ . __ . __ . __ . __ . __ . __ . __ . __
 72
    65
 73
     4
 40
0.278
 49
0.139
 74
     0
 49
-0.0695
 74
     0
 49
0.0
 74
     0
 49
-0.0695
 74
     0
  0
LTYPE
  5
25
330
5
100
AcDbSymbolTableRecord
100
AcDbLinetypeTableRecord
  2
CENTER
 70
     0
  3
____ _ ____ _ ____ _ ____ _ ____ _ ____ _ ____
 72
    65
 73
     4
 40
0.5560000000000001
 49
0.3475
 74
     0
 49
-0.0695
 74
     0
 49
0.0695
 74
     0
 49
-0.0695
 74
     0
  0
LTYPE
  5
26
330
5
100
AcDbSymbolTableRecord
100
AcDbLinetypeTableRecord
  2
PHANTOM
 70
     0
  3
_____ _ _ _____ _ _ _____ _ _ _____ _ _ ____
 72
    65
 73
     6
 40
0.695
 49
0.3475
 74
     0
 49
-0.0695
 74
     0
 49
0.0695
 74
     0
 49
-0.0695
 74
     0
 49
0.0695
 74
     0
 49
-0.0695
 74
     0
  0
LTYPE
  5
27
330
5
100
AcDbSymbolTableRecord
100
AcDbLinetypeTableRecord
  2
HIDDEN
 70
     0
  3
_ _ _ _ _ _ _ _ _ _ _ _ _ _ _ _ _ _ _ _ _ _ _
 72
    65
 73
     2
 40
0.278
 49
0.185333
 74
     0
 49
-0.092667
 74
     0
  0
LTYPE
  5
28
330
5
100
AcDbSymbolTableRecord
100
AcDbLinetypeTableRecord
  2
BORDER
 70
     0
  3
__ __ . __ __ . __ __ . __ __ . __ __ . __ __
 72
    65
 73
     6
 40
0.4865810000000001
 49
0.0695
 74
     0
 49
-0.0695
 74
     0
 49
0.139
 74
     0
 49
-0.0695
 74
     0
 49
0.0
 74
     0
 49
-0.0695
 74
     0
  0
LTYPE
  5
29
330
5
100
AcDbSymbolTableRecord
100
AcDbLinetypeTableRecord
  2
DIVIDE
 70
     0
  3
__ . . __ . . __ . . __ . . __ . . __ . . __
 72
    65
 73
     6
 40
-0.0695
 49
-0.0695
 74
     0
 49
-0.0695
 74
     0
 49
0.0
 74
     0
 49
-0.0695
 74
     0
 49
0.0
 74
     0
 49
-0.0695
 74
     0
  0
LTYPE
  5
2A
330
5
100
AcDbSymbolTableRecord
100
AcDbLinetypeTableRecord
  2
POINT31
 70
     0
  3
+                                          +
 72
    65
 73
     0
 40
0.0
  0
LTYPE
  5
2B
330
5
100
AcDbSymbolTableRecord
100
AcDbLinetypeTableRecord
  2
POINT63
 70
     0
  3
*                                          *
 72
    65
 73
     0
 40
0.0
  0
LTYPE
  5
2C
330
5
100
AcDbSymbolTableRecord
100
AcDbLinetypeTableRecord
  2
DBLDASH
 70
     0
  3
-- -- -- -- -- -- -- -- -- -- -- -- -- -- --
 72
    65
 73
     4
 40
0.243291
 49
0.0695
 74
     0
 49
-0.0695
 74
     0
 49
0.0695
 74
     0
 49
-0.0695
 74
     0
  0
ENDTAB
  0
TABLE
  2
LAYER
  5
2
330
0
100
AcDbSymbolTable
 70
     3
  0
LAYER
  5
10
330
2
100
AcDbSymbolTableRecord
100
AcDbLayerTableRecord
  2
0
 70
     0
 62
     5
  6
CONTINUOUS
  0
LAYER
  5
1A0
330
2
100
AcDbSymbolTableRecord
100
AcDbLayerTableRecord
  2
DAMAN
 70
     0
 62
     5
  6
CONTINUOUS
  0
LAYER
  5
1A1
330
2
100
AcDbSymbolTableRecord
100
AcDbLayerTableRecord
  2
CHIDDEN
 70
     0
 62
     3
  6
HIDDEN
  0
ENDTAB
  0
TABLE
  2
STYLE
  5
3
330
0
100
AcDbSymbolTable
 70
     1
  0
STYLE
  5
11
330
3
100
AcDbSymbolTableRecord
100
AcDbTextStyleTableRecord
  2
STANDARD
 70
     0
 40
0.0
 41
1.0
 50
0.0
 71
     0
 42
0.2
  3
txt
  4

  0
ENDTAB
  0
TABLE
  2
VIEW
  5
6
330
0
100
AcDbSymbolTable
 70
     0
  0
ENDTAB
  0
TABLE
  2
UCS
  5
7
330
0
100
AcDbSymbolTable
 70
     0
  0
ENDTAB
  0
TABLE
  2
APPID
  5
9
330
0
100
AcDbSymbolTable
 70
     1
  0
APPID
  5
12
330
9
100
AcDbSymbolTableRecord
100
AcDbRegAppTableRecord
  2
ACAD
 70
     0
  0
ENDTAB
  0
TABLE
  2
DIMSTYLE
  5
A
330
0
100
AcDbSymbolTable
 70
     1
  0
DIMSTYLE
105
15D
330
A
100
AcDbSymbolTableRecord
100
AcDbDimStyleTableRecord
  2
STANDARD
 70
     0
  3

  4

  5

  6

  7

 40
1.0
 41
0.18
 42
0.0625
 43
0.38
 44
0.18
 45
0.0
 46
0.0
 47
0.0
 48
0.0
140
0.18
141
0.09
142
0.0
143
25.4
144
1.0
145
0.0
146
1.0
147
0.09
 71
     0
 72
     0
 73
     1
 74
     1
 75
     0
 76
     0
 77
     0
 78
     0
170
     0
171
     2
172
     0
173
     0
174
     0
175
     0
176
     0
177
     0
178
     0
270
     2
271
     4
272
     4
273
     2
274
     2
340
11
275
     0
280
     0
281
     0
282
     0
283
     1
284
     0
285
     0
286
     0
287
     3
288
     0
  0
ENDTAB
  0
TABLE
  2
BLOCK_RECORD
  5
1
330
0
100
AcDbSymbolTable
 70
    12
  0
BLOCK_RECORD
  5
1E
102
{ACAD_XDICTIONARY
360
238
102
}
330
1
100
AcDbSymbolTableRecord
100
AcDbBlockTableRecord
  2
*MODEL_SPACE
  0
BLOCK_RECORD
  5
1A
102
{ACAD_XDICTIONARY
360
236
102
}
330
1
100
AcDbSymbolTableRecord
100
AcDbBlockTableRecord
  2
*PAPER_SPACE
  0
BLOCK_RECORD
  5
15F
330
1
100
AcDbSymbolTableRecord
100
AcDbBlockTableRecord
  2
500MKT
  0
BLOCK_RECORD
  5
193
330
1
100
AcDbSymbolTableRecord
100
AcDbBlockTableRecord
  2
100CROSS
  0
BLOCK_RECORD
  5
197
330
1
100
AcDbSymbolTableRecord
100
AcDbBlockTableRecord
  2
050CROSS
  0
BLOCK_RECORD
  5
1A2
330
1
100
AcDbSymbolTableRecord
100
AcDbBlockTableRecord
  2
A$C35B97E9B
  0
BLOCK_RECORD
  5
1A7
330
1
100
AcDbSymbolTableRecord
100
AcDbBlockTableRecord
  2
A$C07E61A62
  0
BLOCK_RECORD
  5
1AC
330
1
100
AcDbSymbolTableRecord
100
AcDbBlockTableRecord
  2
500MKCT
  0
BLOCK_RECORD
  5
1D4
330
1
100
AcDbSymbolTableRecord
100
AcDbBlockTableRecord
  2
A$C09467542
  0
BLOCK_RECORD
  5
1D9
330
1
100
AcDbSymbolTableRecord
100
AcDbBlockTableRecord
  2
A$C443F27A8
  0
BLOCK_RECORD
  5
1DE
330
1
100
AcDbSymbolTableRecord
100
AcDbBlockTableRecord
  2
A$C13D55162
  0
BLOCK_RECORD
  5
1E3
330
1
100
AcDbSymbolTableRecord
100
AcDbBlockTableRecord
  2
500MKS
  0
BLOCK_RECORD
  5
20B
330
1
100
AcDbSymbolTableRecord
100
AcDbBlockTableRecord
  2
A$C745A2248
  0
BLOCK_RECORD
  5
210
330
1
100
AcDbSymbolTableRecord
100
AcDbBlockTableRecord
  2
A$C16F234C8
  0
ENDTAB
  0
ENDSEC
  0
SECTION
  2
BLOCKS
  0
BLOCK
  5
1F
330
1E
100
AcDbEntity
  8
0
100
AcDbBlockBegin
  2
*MODEL_SPACE
 70
     0
 10
0.0
 20
0.0
 30
0.0
  3
*MODEL_SPACE
  1

  0
ENDBLK
  5
20
330
1E
100
AcDbEntity
  8
0
100
AcDbBlockEnd
  0
BLOCK
  5
1B
330
1A
100
AcDbEntity
 67
     1
  8
0
100
AcDbBlockBegin
  2
*PAPER_SPACE
 70
     0
 10
0.0
 20
0.0
 30
0.0
  3
*PAPER_SPACE
  1

  0
ENDBLK
  5
1C
330
1A
100
AcDbEntity
 67
     1
  8
0
100
AcDbBlockEnd
  0
BLOCK
  5
191
330
15F
100
AcDbEntity
  8
0
100
AcDbBlockBegin
  2
500MKT
 70
     0
 10
0.0
 20
0.0
 30
0.0
  3
500MKT
  1

  0
INSERT
  5
160
330
15F
100
AcDbEntity
  8
DAMAN
100
AcDbBlockReference
  2
100CROSS
 10
-0.937
 20
-0.4370000000000001
 30
0.0
 41
0.4220000000000001
 42
0.4220000000000001
  0
LINE
  5
161
330
15F
100
AcDbEntity
  8
DAMAN
100
AcDbLine
 10
-0.21825
 20
-0.03125
 30
0.0
 11
-0.21825
 21
-0.84325
 31
0.0
  0
LINE
  5
162
330
15F
100
AcDbEntity
  8
DAMAN
100
AcDbLine
 10
-0.156
 20
-5.0
 30
0.0
 11
-0.156
 21
0.0
 31
0.0
  0
LINE
  5
163
330
15F
100
AcDbEntity
  8
DAMAN
100
AcDbLine
 10
0.0
 20
-5.0
 30
0.0
 11
0.0
 21
0.0
 31
0.0
  0
LINE
  5
164
330
15F
100
AcDbEntity
  8
DAMAN
100
AcDbLine
 10
-0.21825
 20
-0.84325
 30
0.0
 11
-0.15575
 21
-0.84325
 31
0.0
  0
LINE
  5
165
330
15F
100
AcDbEntity
  8
DAMAN
100
AcDbLine
 10
-0.4372500000000001
 20
-0.26425
 30
0.0
 11
-0.46825
 21
-0.26425
 31
0.0
  0
LINE
  5
166
330
15F
100
AcDbEntity
  8
DAMAN
100
AcDbLine
 10
-0.46825
 20
-0.12425
 30
0.0
 11
-0.21825
 21
-0.12425
 31
0.0
  0
LINE
  5
167
330
15F
100
AcDbEntity
  8
DAMAN
  6
CENTER
100
AcDbLine
 10
-0.75
 20
-0.4370000000000001
 30
0.0
 11
1.0
 21
-0.4370000000000001
 31
0.0
  0
LINE
  5
168
330
15F
100
AcDbEntity
  8
DAMAN
100
AcDbLine
 10
-0.4372500000000001
 20
-0.60925
 30
0.0
 11
-0.46825
 21
-0.60925
 31
0.0
  0
LINE
  5
169
330
15F
100
AcDbEntity
  8
DAMAN
100
AcDbLine
 10
-0.21825
 20
-0.74925
 30
0.0
 11
-0.46825
 21
-0.74925
 31
0.0
  0
LINE
  5
16A
330
15F
100
AcDbEntity
  8
DAMAN
100
AcDbLine
 10
0.0
 20
0.0
 30
0.0
 11
-1.375
 21
0.0
 31
0.0
  0
LWPOLYLINE
  5
16B
330
15F
100
AcDbEntity
  8
DAMAN
100
AcDbPolyline
 90
        6
 70
     1
 43
0.0
 10
-1.2072
 20
-0.593
 10
-0.937
 20
-0.7490000000000001
 10
-0.6668
 20
-0.593
 10
-0.6668
 20
-0.281
 10
-0.937
 20
-0.125
 10
-1.2072
 20
-0.281
  0
CIRCLE
  5
16C
330
15F
100
AcDbEntity
  8
DAMAN
100
AcDbCircle
 10
-0.937
 20
-0.4370000000000001
 30
0.0
 40
0.265
  0
LINE
  5
16D
330
15F
100
AcDbEntity
  8
DAMAN
100
AcDbLine
 10
-0.46825
 20
-0.74925
 30
0.0
 11
-0.46825
 21
-0.12425
 31
0.0
  0
POINT
  5
16E
330
15F
100
AcDbEntity
  8
CHIDDEN
100
AcDbPoint
 10
-0.7342930000000001
 20
-0.4955720000000001
 30
0.0
  0
LINE
  5
16F
330
15F
100
AcDbEntity
  8
DAMAN
100
AcDbLine
 10
0.0
 20
-0.28025
 30
0.0
 11
0.8440000000000001
 21
-0.28025
 31
0.0
  0
LINE
  5
170
330
15F
100
AcDbEntity
  8
DAMAN
100
AcDbLine
 10
0.812
 20
-0.24925
 30
0.0
 11
0.0
 21
-0.24925
 31
0.0
  0
LINE
  5
171
330
15F
100
AcDbEntity
  8
DAMAN
100
AcDbLine
 10
0.0
 20
-0.5932500000000001
 30
0.0
 11
0.8440000000000001
 21
-0.5932500000000001
 31
0.0
  0
LINE
  5
172
330
15F
100
AcDbEntity
  8
DAMAN
100
AcDbLine
 10
0.0
 20
-0.62425
 30
0.0
 11
0.812
 21
-0.62425
 31
0.0
  0
LINE
  5
173
330
15F
100
AcDbEntity
  8
DAMAN
100
AcDbLine
 10
-0.21825
 20
-0.60925
 30
0.0
 11
-0.4372500000000001
 21
-0.60925
 31
0.0
  0
LINE
  5
174
330
15F
100
AcDbEntity
  8
DAMAN
100
AcDbLine
 10
-0.15625
 20
-0.03125
 30
0.0
 11
-0.21825
 21
-0.03125
 31
0.0
  0
LINE
  5
175
330
15F
100
AcDbEntity
  8
DAMAN
100
AcDbLine
 10
-0.21825
 20
-0.26425
 30
0.0
 11
-0.4372500000000001
 21
-0.26425
 31
0.0
  0
LINE
  5
176
330
15F
100
AcDbEntity
  8
DAMAN
100
AcDbLine
 10
0.875
 20
-0.56175
 30
0.0
 11
0.875
 21
-0.31225
 31
0.0
  0
LINE
  5
177
330
15F
100
AcDbEntity
  8
DAMAN
100
AcDbLine
 10
0.812
 20
-0.62425
 30
0.0
 11
0.875
 21
-0.56175
 31
0.0
  0
LINE
  5
178
330
15F
100
AcDbEntity
  8
DAMAN
100
AcDbLine
 10
0.875
 20
-0.31225
 30
0.0
 11
0.812
 21
-0.24925
 31
0.0
  0
LINE
  5
179
330
15F
100
AcDbEntity
  8
DAMAN
100
AcDbLine
 10
-0.46825
 20
-4.249249999999999
 30
0.0
 11
-0.21825
 21
-4.249249999999999
 31
0.0
  0
LINE
  5
17A
330
15F
100
AcDbEntity
  8
DAMAN
100
AcDbLine
 10
-0.4372500000000001
 20
-4.389249999999999
 30
0.0
 11
-0.46825
 21
-4.389249999999999
 31
0.0
  0
LINE
  5
17B
330
15F
100
AcDbEntity
  8
DAMAN
  6
CENTER
100
AcDbLine
 10
-0.75
 20
-4.562
 30
0.0
 11
1.0
 21
-4.562
 31
0.0
  0
LINE
  5
17C
330
15F
100
AcDbEntity
  8
DAMAN
100
AcDbLine
 10
-0.46825
 20
-4.874249999999999
 30
0.0
 11
-0.46825
 21
-4.249249999999999
 31
0.0
  0
INSERT
  5
17D
330
15F
100
AcDbEntity
  8
DAMAN
100
AcDbBlockReference
  2
100CROSS
 10
-0.937
 20
-4.562
 30
0.0
 41
0.4220000000000001
 42
0.4220000000000001
  0
LWPOLYLINE
  5
17E
330
15F
100
AcDbEntity
  8
DAMAN
100
AcDbPolyline
 90
        6
 70
     1
 43
0.0
 10
-1.2072
 20
-4.717999999999999
 10
-0.937
 20
-4.873999999999999
 10
-0.6668
 20
-4.717999999999999
 10
-0.6668
 20
-4.406
 10
-0.937
 20
-4.25
 10
-1.2072
 20
-4.406
  0
CIRCLE
  5
17F
330
15F
100
AcDbEntity
  8
DAMAN
100
AcDbCircle
 10
-0.937
 20
-4.562
 30
0.0
 40
0.265
  0
POINT
  5
180
330
15F
100
AcDbEntity
  8
CHIDDEN
100
AcDbPoint
 10
-0.7342930000000001
 20
-4.620572
 30
0.0
  0
LINE
  5
181
330
15F
100
AcDbEntity
  8
DAMAN
100
AcDbLine
 10
-0.21825
 20
-4.15625
 30
0.0
 11
-0.21825
 21
-4.96825
 31
0.0
  0
LINE
  5
182
330
15F
100
AcDbEntity
  8
DAMAN
100
AcDbLine
 10
0.812
 20
-4.374249999999999
 30
0.0
 11
0.0
 21
-4.374249999999999
 31
0.0
  0
LINE
  5
183
330
15F
100
AcDbEntity
  8
DAMAN
100
AcDbLine
 10
0.0
 20
-4.405249999999999
 30
0.0
 11
0.8440000000000001
 21
-4.405249999999999
 31
0.0
  0
LINE
  5
184
330
15F
100
AcDbEntity
  8
DAMAN
100
AcDbLine
 10
-0.21825
 20
-4.389249999999999
 30
0.0
 11
-0.4372500000000001
 21
-4.389249999999999
 31
0.0
  0
LINE
  5
185
330
15F
100
AcDbEntity
  8
DAMAN
100
AcDbLine
 10
0.875
 20
-4.686749999999999
 30
0.0
 11
0.875
 21
-4.437249999999999
 31
0.0
  0
LINE
  5
186
330
15F
100
AcDbEntity
  8
DAMAN
100
AcDbLine
 10
0.875
 20
-4.437249999999999
 30
0.0
 11
0.812
 21
-4.374249999999999
 31
0.0
  0
LINE
  5
187
330
15F
100
AcDbEntity
  8
DAMAN
100
AcDbLine
 10
-0.15625
 20
-4.15625
 30
0.0
 11
-0.21825
 21
-4.15625
 31
0.0
  0
LINE
  5
188
330
15F
100
AcDbEntity
  8
DAMAN
100
AcDbLine
 10
-0.4372500000000001
 20
-4.73425
 30
0.0
 11
-0.46825
 21
-4.73425
 31
0.0
  0
LINE
  5
189
330
15F
100
AcDbEntity
  8
DAMAN
100
AcDbLine
 10
0.0
 20
-4.749249999999999
 30
0.0
 11
0.812
 21
-4.749249999999999
 31
0.0
  0
LINE
  5
18A
330
15F
100
AcDbEntity
  8
DAMAN
100
AcDbLine
 10
0.0
 20
-4.71825
 30
0.0
 11
0.8440000000000001
 21
-4.71825
 31
0.0
  0
LINE
  5
18B
330
15F
100
AcDbEntity
  8
DAMAN
100
AcDbLine
 10
-0.21825
 20
-4.73425
 30
0.0
 11
-0.4372500000000001
 21
-4.73425
 31
0.0
  0
LINE
  5
18C
330
15F
100
AcDbEntity
  8
DAMAN
100
AcDbLine
 10
0.812
 20
-4.749249999999999
 30
0.0
 11
0.875
 21
-4.686749999999999
 31
0.0
  0
LINE
  5
18D
330
15F
100
AcDbEntity
  8
DAMAN
100
AcDbLine
 10
-0.21825
 20
-4.874249999999999
 30
0.0
 11
-0.46825
 21
-4.874249999999999
 31
0.0
  0
LINE
  5
18E
330
15F
100
AcDbEntity
  8
DAMAN
100
AcDbLine
 10
-1.375
 20
-5.0
 30
0.0
 11
0.0
 21
-5.0
 31
0.0
  0
LINE
  5
18F
330
15F
100
AcDbEntity
  8
DAMAN
100
AcDbLine
 10
-0.21825
 20
-4.96825
 30
0.0
 11
-0.15575
 21
-4.96825
 31
0.0
  0
LINE
  5
190
330
15F
100
AcDbEntity
  8
DAMAN
100
AcDbLine
 10
-1.375
 20
0.0
 30
0.0
 11
-1.375
 21
-5.0
 31
0.0
  0
ENDBLK
  5
192
330
15F
100
AcDbEntity
  8
0
100
AcDbBlockEnd
  0
BLOCK
  5
195
330
193
100
AcDbEntity
  8
0
100
AcDbBlockBegin
  2
100CROSS
 70
     0
 10
5.625
 20
4.59375
 30
0.0
  3
100CROSS
  1

  0
INSERT
  5
194
330
193
100
AcDbEntity
  8
0
100
AcDbBlockReference
  2
050CROSS
 10
5.625
 20
4.59375
 30
0.0
  0
ENDBLK
  5
196
330
193
100
AcDbEntity
  8
0
100
AcDbBlockEnd
  0
BLOCK
  5
19E
330
197
100
AcDbEntity
  8
0
100
AcDbBlockBegin
  2
050CROSS
 70
     0
 10
5.0
 20
5.0
 30
0.0
  3
050CROSS
  1

  0
LINE
  5
198
330
197
100
AcDbEntity
  8
0
100
AcDbLine
 10
5.0
 20
5.28125
 30
0.0
 11
5.0
 21
5.78125
 31
0.0
  0
LINE
  5
199
330
197
100
AcDbEntity
  8
0
100
AcDbLine
 10
5.0
 20
4.875
 30
0.0
 11
5.0
 21
5.125
 31
0.0
  0
LINE
  5
19A
330
197
100
AcDbEntity
  8
0
100
AcDbLine
 10
5.0
 20
4.15625
 30
0.0
 11
5.0
 21
4.71875
 31
0.0
  0
LINE
  5
19B
330
197
100
AcDbEntity
  8
0
100
AcDbLine
 10
5.25
 20
5.0
 30
0.0
 11
5.8125
 21
5.0
 31
0.0
  0
LINE
  5
19C
330
197
100
AcDbEntity
  8
0
100
AcDbLine
 10
4.90625
 20
5.0
 30
0.0
 11
5.09375
 21
5.0
 31
0.0
  0
LINE
  5
19D
330
197
100
AcDbEntity
  8
0
100
AcDbLine
 10
4.1875
 20
5.0
 30
0.0
 11
4.75
 21
5.0
 31
0.0
  0
ENDBLK
  5
19F
330
197
100
AcDbEntity
  8
0
100
AcDbBlockEnd
  0
BLOCK
  5
1A4
330
1A2
100
AcDbEntity
  8
0
100
AcDbBlockBegin
  2
A$C35B97E9B
 70
     0
 10
0.0
 20
0.0
 30
0.0
  3
A$C35B97E9B
  1

  0
INSERT
  5
1A3
330
1A2
100
AcDbEntity
  8
DAMAN
100
AcDbBlockReference
  2
500MKT
 10
-0.5620000000000001
 20
-5.0
 30
0.0
 50
180.0
  0
ENDBLK
  5
1A5
330
1A2
100
AcDbEntity
  8
0
100
AcDbBlockEnd
  0
BLOCK
  5
1A9
330
1A7
100
AcDbEntity
  8
0
100
AcDbBlockBegin
  2
A$C07E61A62
 70
     0
 10
0.0
 20
0.0
 30
0.0
  3
A$C07E61A62
  1

  0
INSERT
  5
1A8
330
1A7
100
AcDbEntity
  8
DAMAN
100
AcDbBlockReference
  2
500MKT
 10
0.5620000000000012
 20
0.0
 30
0.0
  0
ENDBLK
  5
1AA
330
1A7
100
AcDbEntity
  8
0
100
AcDbBlockEnd
  0
BLOCK
  5
1D2
330
1AC
100
AcDbEntity
  8
0
100
AcDbBlockBegin
  2
500MKCT
 70
     0
 10
0.0
 20
0.0
 30
0.0
  3
500MKCT
  1

  0
INSERT
  5
1AD
330
1AC
100
AcDbEntity
  8
DAMAN
100
AcDbBlockReference
  2
100CROSS
 10
-0.937
 20
-0.4370000000000001
 30
0.0
 41
0.4220000000000001
 42
0.4220000000000001
  0
LINE
  5
1AE
330
1AC
100
AcDbEntity
  8
DAMAN
100
AcDbLine
 10
-0.21825
 20
-0.03125
 30
0.0
 11
-0.21825
 21
-0.84325
 31
0.0
  0
LINE
  5
1AF
330
1AC
100
AcDbEntity
  8
DAMAN
100
AcDbLine
 10
-0.156
 20
-5.0
 30
0.0
 11
-0.156
 21
0.0
 31
0.0
  0
LINE
  5
1B0
330
1AC
100
AcDbEntity
  8
DAMAN
100
AcDbLine
 10
-1.375
 20
0.0
 30
0.0
 11
-1.375
 21
-5.0
 31
0.0
  0
LINE
  5
1B1
330
1AC
100
AcDbEntity
  8
DAMAN
100
AcDbLine
 10
0.0
 20
-5.0
 30
0.0
 11
0.0
 21
0.0
 31
0.0
  0
LINE
  5
1B2
330
1AC
100
AcDbEntity
  8
DAMAN
100
AcDbLine
 10
-0.21825
 20
-4.874249999999999
 30
0.0
 11
-0.46825
 21
-4.874249999999999
 31
0.0
  0
LINE
  5
1B3
330
1AC
100
AcDbEntity
  8
DAMAN
100
AcDbLine
 10
-0.4372500000000001
 20
-4.73425
 30
0.0
 11
-0.46825
 21
-4.73425
 31
0.0
  0
LINE
  5
1B4
330
1AC
100
AcDbEntity
  8
DAMAN
100
AcDbLine
 10
-0.46825
 20
-4.249249999999999
 30
0.0
 11
-0.21825
 21
-4.249249999999999
 31
0.0
  0
LINE
  5
1B5
330
1AC
100
AcDbEntity
  8
DAMAN
100
AcDbLine
 10
-0.4372500000000001
 20
-4.389249999999999
 30
0.0
 11
-0.46825
 21
-4.389249999999999
 31
0.0
  0
LINE
  5
1B6
330
1AC
100
AcDbEntity
  8
DAMAN
100
AcDbLine
 10
-1.375
 20
-5.0
 30
0.0
 11
0.0
 21
-5.0
 31
0.0
  0
LINE
  5
1B7
330
1AC
100
AcDbEntity
  8
DAMAN
100
AcDbLine
 10
-0.46825
 20
-4.874249999999999
 30
0.0
 11
-0.46825
 21
-4.249249999999999
 31
0.0
  0
INSERT
  5
1B8
330
1AC
100
AcDbEntity
  8
DAMAN
100
AcDbBlockReference
  2
100CROSS
 10
-0.937
 20
-4.562
 30
0.0
 41
0.4220000000000001
 42
0.4220000000000001
  0
LWPOLYLINE
  5
1B9
330
1AC
100
AcDbEntity
  8
DAMAN
100
AcDbPolyline
 90
        6
 70
     1
 43
0.0
 10
-1.2072
 20
-4.717999999999999
 10
-0.937
 20
-4.873999999999999
 10
-0.6668
 20
-4.717999999999999
 10
-0.6668
 20
-4.406
 10
-0.937
 20
-4.25
 10
-1.2072
 20
-4.406
  0
CIRCLE
  5
1BA
330
1AC
100
AcDbEntity
  8
DAMAN
100
AcDbCircle
 10
-0.937
 20
-4.562
 30
0.0
 40
0.265
  0
POINT
  5
1BB
330
1AC
100
AcDbEntity
  8
CHIDDEN
100
AcDbPoint
 10
-1.074716999999999
 20
-4.721859999999999
 30
0.0
  0
POINT
  5
1BC
330
1AC
100
AcDbEntity
  8
CHIDDEN
100
AcDbPoint
 10
-1.024928
 20
-4.370194
 30
0.0
  0
POINT
  5
1BD
330
1AC
100
AcDbEntity
  8
CHIDDEN
100
AcDbPoint
 10
-0.7342930000000001
 20
-4.620572
 30
0.0
  0
LINE
  5
1BE
330
1AC
100
AcDbEntity
  8
DAMAN
100
AcDbLine
 10
-0.21825
 20
-4.15625
 30
0.0
 11
-0.21825
 21
-4.96825
 31
0.0
  0
LINE
  5
1BF
330
1AC
100
AcDbEntity
  8
DAMAN
100
AcDbLine
 10
-0.21825
 20
-4.96825
 30
0.0
 11
-0.15575
 21
-4.96825
 31
0.0
  0
LINE
  5
1C0
330
1AC
100
AcDbEntity
  8
DAMAN
100
AcDbLine
 10
-0.21825
 20
-4.73425
 30
0.0
 11
-0.4372500000000001
 21
-4.73425
 31
0.0
  0
LINE
  5
1C1
330
1AC
100
AcDbEntity
  8
DAMAN
100
AcDbLine
 10
-0.21825
 20
-4.389249999999999
 30
0.0
 11
-0.4372500000000001
 21
-4.389249999999999
 31
0.0
  0
LINE
  5
1C2
330
1AC
100
AcDbEntity
  8
DAMAN
100
AcDbLine
 10
-0.15625
 20
-4.15625
 30
0.0
 11
-0.21825
 21
-4.15625
 31
0.0
  0
LINE
  5
1C3
330
1AC
100
AcDbEntity
  8
DAMAN
100
AcDbLine
 10
-0.21825
 20
-0.84325
 30
0.0
 11
-0.15575
 21
-0.84325
 31
0.0
  0
LINE
  5
1C4
330
1AC
100
AcDbEntity
  8
DAMAN
100
AcDbLine
 10
-0.4372500000000001
 20
-0.26425
 30
0.0
 11
-0.46825
 21
-0.26425
 31
0.0
  0
LINE
  5
1C5
330
1AC
100
AcDbEntity
  8
DAMAN
100
AcDbLine
 10
-0.46825
 20
-0.12425
 30
0.0
 11
-0.21825
 21
-0.12425
 31
0.0
  0
LINE
  5
1C6
330
1AC
100
AcDbEntity
  8
DAMAN
100
AcDbLine
 10
-0.4372500000000001
 20
-0.60925
 30
0.0
 11
-0.46825
 21
-0.60925
 31
0.0
  0
LINE
  5
1C7
330
1AC
100
AcDbEntity
  8
DAMAN
100
AcDbLine
 10
-0.21825
 20
-0.74925
 30
0.0
 11
-0.46825
 21
-0.74925
 31
0.0
  0
LINE
  5
1C8
330
1AC
100
AcDbEntity
  8
DAMAN
100
AcDbLine
 10
0.0
 20
0.0
 30
0.0
 11
-1.375
 21
0.0
 31
0.0
  0
LWPOLYLINE
  5
1C9
330
1AC
100
AcDbEntity
  8
DAMAN
100
AcDbPolyline
 90
        6
 70
     1
 43
0.0
 10
-1.2072
 20
-0.593
 10
-0.937
 20
-0.7490000000000001
 10
-0.6668
 20
-0.593
 10
-0.6668
 20
-0.281
 10
-0.937
 20
-0.125
 10
-1.2072
 20
-0.281
  0
CIRCLE
  5
1CA
330
1AC
100
AcDbEntity
  8
DAMAN
100
AcDbCircle
 10
-0.937
 20
-0.4370000000000001
 30
0.0
 40
0.265
  0
POINT
  5
1CB
330
1AC
100
AcDbEntity
  8
CHIDDEN
100
AcDbPoint
 10
-1.074716999999999
 20
-0.5968600000000001
 30
0.0
  0
POINT
  5
1CC
330
1AC
100
AcDbEntity
  8
CHIDDEN
100
AcDbPoint
 10
-1.024928
 20
-0.245194
 30
0.0
  0
LINE
  5
1CD
330
1AC
100
AcDbEntity
  8
DAMAN
100
AcDbLine
 10
-0.46825
 20
-0.74925
 30
0.0
 11
-0.46825
 21
-0.12425
 31
0.0
  0
POINT
  5
1CE
330
1AC
100
AcDbEntity
  8
CHIDDEN
100
AcDbPoint
 10
-0.7342930000000001
 20
-0.4955720000000001
 30
0.0
  0
LINE
  5
1CF
330
1AC
100
AcDbEntity
  8
DAMAN
100
AcDbLine
 10
-0.21825
 20
-0.60925
 30
0.0
 11
-0.4372500000000001
 21
-0.60925
 31
0.0
  0
LINE
  5
1D0
330
1AC
100
AcDbEntity
  8
DAMAN
100
AcDbLine
 10
-0.15625
 20
-0.03125
 30
0.0
 11
-0.21825
 21
-0.03125
 31
0.0
  0
LINE
  5
1D1
330
1AC
100
AcDbEntity
  8
DAMAN
100
AcDbLine
 10
-0.21825
 20
-0.26425
 30
0.0
 11
-0.4372500000000001
 21
-0.26425
 31
0.0
  0
ENDBLK
  5
1D3
330
1AC
100
AcDbEntity
  8
0
100
AcDbBlockEnd
  0
BLOCK
  5
1D7
330
1D4
100
AcDbEntity
  8
0
100
AcDbBlockBegin
  2
A$C09467542
 70
     0
 10
0.0
 20
0.0
 30
0.0
  3
A$C09467542
  1

  0
INSERT
  5
1D5
330
1D4
100
AcDbEntity
  8
DAMAN
100
AcDbBlockReference
  2
500MKT
 10
11.312
 20
0.0
 30
0.0
  0
INSERT
  5
1D6
330
1D4
100
AcDbEntity
  8
DAMAN
100
AcDbBlockReference
  2
500MKCT
 10
0.0
 20
0.0
 30
0.0
  0
ENDBLK
  5
1D8
330
1D4
100
AcDbEntity
  8
0
100
AcDbBlockEnd
  0
BLOCK
  5
1DB
330
1D9
100
AcDbEntity
  8
0
100
AcDbBlockBegin
  2
A$C443F27A8
 70
     0
 10
0.0
 20
0.0
 30
0.0
  3
A$C443F27A8
  1

  0
INSERT
  5
1DA
330
1D9
100
AcDbEntity
  8
DAMAN
100
AcDbBlockReference
  2
500MKCT
 10
0.0
 20
0.0
 30
0.0
  0
ENDBLK
  5
1DC
330
1D9
100
AcDbEntity
  8
0
100
AcDbBlockEnd
  0
BLOCK
  5
1E0
330
1DE
100
AcDbEntity
  8
0
100
AcDbBlockBegin
  2
A$C13D55162
 70
     0
 10
0.0
 20
0.0
 30
0.0
  3
A$C13D55162
  1

  0
INSERT
  5
1DF
330
1DE
100
AcDbEntity
  8
DAMAN
100
AcDbBlockReference
  2
500MKCT
 10
0.0
 20
-5.0
 30
0.0
 50
180.0
  0
ENDBLK
  5
1E1
330
1DE
100
AcDbEntity
  8
0
100
AcDbBlockEnd
  0
BLOCK
  5
209
330
1E3
100
AcDbEntity
  8
0
100
AcDbBlockBegin
  2
500MKS
 70
     0
 10
0.0
 20
0.0
 30
0.0
  3
500MKS
  1

  0
LINE
  5
1E4
330
1E3
100
AcDbEntity
  8
DAMAN
100
AcDbLine
 10
-0.313
 20
-0.71875
 30
0.0
 11
-1.125
 21
-0.71875
 31
0.0
  0
LINE
  5
1E5
330
1E3
100
AcDbEntity
  8
DAMAN
100
AcDbLine
 10
-1.030999999999999
 20
-0.46875
 30
0.0
 11
-0.4060000000000001
 21
-0.46875
 31
0.0
  0
LINE
  5
1E6
330
1E3
100
AcDbEntity
  8
DAMAN
100
AcDbLine
 10
-0.18775
 20
-0.7809999999999999
 30
0.0
 11
-1.156749999999999
 21
-0.7809999999999999
 31
0.0
  0
LINE
  5
1E7
330
1E3
100
AcDbEntity
  8
DAMAN
100
AcDbLine
 10
-1.156749999999999
 20
-0.937
 30
0.0
 11
-0.18775
 21
-0.937
 31
0.0
  0
LINE
  5
1E8
330
1E3
100
AcDbEntity
  8
DAMAN
  6
CENTER
100
AcDbLine
 10
-0.71875
 20
-0.187
 30
0.0
 11
-0.71875
 21
-1.936999999999999
 31
0.0
  0
LINE
  5
1E9
330
1E3
100
AcDbEntity
  8
DAMAN
100
AcDbLine
 10
-0.875
 20
-0.937
 30
0.0
 11
-0.875
 21
-1.780999999999999
 31
0.0
  0
LINE
  5
1EA
330
1E3
100
AcDbEntity
  8
DAMAN
100
AcDbLine
 10
-0.5620000000000001
 20
-0.937
 30
0.0
 11
-0.5620000000000001
 21
-1.780999999999999
 31
0.0
  0
LINE
  5
1EB
330
1E3
100
AcDbEntity
  8
DAMAN
100
AcDbLine
 10
-0.5310000000000001
 20
-1.749
 30
0.0
 11
-0.5310000000000001
 21
-0.937
 31
0.0
  0
LINE
  5
1EC
330
1E3
100
AcDbEntity
  8
DAMAN
100
AcDbLine
 10
-0.9059999999999998
 20
-0.937
 30
0.0
 11
-0.9059999999999998
 21
-1.749
 31
0.0
  0
LINE
  5
1ED
330
1E3
100
AcDbEntity
  8
DAMAN
100
AcDbLine
 10
-0.9059999999999998
 20
-1.749
 30
0.0
 11
-0.8435
 21
-1.811999999999999
 31
0.0
  0
LINE
  5
1EE
330
1E3
100
AcDbEntity
  8
DAMAN
100
AcDbLine
 10
-0.594
 20
-1.811999999999999
 30
0.0
 11
-0.5310000000000001
 21
-1.749
 31
0.0
  0
LINE
  5
1EF
330
1E3
100
AcDbEntity
  8
DAMAN
100
AcDbLine
 10
-0.8435
 20
-1.811999999999999
 30
0.0
 11
-0.594
 21
-1.811999999999999
 31
0.0
  0
LINE
  5
1F0
330
1E3
100
AcDbEntity
  8
DAMAN
100
AcDbLine
 10
-1.156749999999999
 20
-0.7809999999999999
 30
0.0
 11
-1.156749999999999
 21
-0.937
 31
0.0
  0
LINE
  5
1F1
330
1E3
100
AcDbEntity
  8
DAMAN
100
AcDbLine
 10
-1.030999999999999
 20
-0.71875
 30
0.0
 11
-1.030999999999999
 21
-0.46875
 31
0.0
  0
LINE
  5
1F2
330
1E3
100
AcDbEntity
  8
DAMAN
100
AcDbLine
 10
-0.8909999999999998
 20
-0.71875
 30
0.0
 11
-0.8909999999999998
 21
-0.4997500000000001
 31
0.0
  0
LINE
  5
1F3
330
1E3
100
AcDbEntity
  8
DAMAN
100
AcDbLine
 10
-1.125
 20
-0.71875
 30
0.0
 11
-1.125
 21
-0.78125
 31
0.0
  0
LINE
  5
1F4
330
1E3
100
AcDbEntity
  8
DAMAN
100
AcDbLine
 10
-0.8909999999999998
 20
-0.4997500000000001
 30
0.0
 11
-0.8909999999999998
 21
-0.46875
 31
0.0
  0
LINE
  5
1F5
330
1E3
100
AcDbEntity
  8
DAMAN
100
AcDbLine
 10
-0.5460000000000001
 20
-0.71875
 30
0.0
 11
-0.5460000000000001
 21
-0.4997500000000001
 31
0.0
  0
LINE
  5
1F6
330
1E3
100
AcDbEntity
  8
DAMAN
100
AcDbLine
 10
-0.5460000000000001
 20
-0.4997500000000001
 30
0.0
 11
-0.5460000000000001
 21
-0.46875
 31
0.0
  0
LINE
  5
1F7
330
1E3
100
AcDbEntity
  8
DAMAN
100
AcDbLine
 10
-0.25
 20
-0.312
 30
0.0
 11
-0.25
 21
0.313
 31
0.0
  0
LINE
  5
1F8
330
1E3
100
AcDbEntity
  8
DAMAN
100
AcDbLine
 10
0.0
 20
0.4060000000000001
 30
0.0
 11
0.0
 21
-0.4060000000000001
 31
0.0
  0
LINE
  5
1F9
330
1E3
100
AcDbEntity
  8
DAMAN
100
AcDbLine
 10
0.0625
 20
-0.4060000000000001
 30
0.0
 11
0.062
 21
0.4060000000000001
 31
0.0
  0
LINE
  5
1FA
330
1E3
100
AcDbEntity
  8
DAMAN
100
AcDbLine
 10
0.06225
 20
0.4379999999999999
 30
0.0
 11
0.06225
 21
-0.5310000000000001
 31
0.0
  0
LINE
  5
1FB
330
1E3
100
AcDbEntity
  8
DAMAN
100
AcDbLine
 10
0.21825
 20
-0.5310000000000001
 30
0.0
 11
0.21825
 21
0.4379999999999999
 31
0.0
  0
ARC
  5
1FC
330
1E3
100
AcDbEntity
  8
DAMAN
100
AcDbCircle
 10
-0.18775
 20
-0.5310000000000001
 30
0.0
 40
0.4060000000000001
100
AcDbArc
 50
270.0
 51
0.0
  0
LINE
  5
1FD
330
1E3
100
AcDbEntity
  8
DAMAN
100
AcDbLine
 10
0.0
 20
-0.4060000000000001
 30
0.0
 11
0.0625
 21
-0.4060000000000001
 31
0.0
  0
ARC
  5
1FE
330
1E3
100
AcDbEntity
  8
DAMAN
100
AcDbCircle
 10
-0.18775
 20
-0.5310000000000001
 30
0.0
 40
0.25
100
AcDbArc
 50
270.0
 51
0.0
  0
LINE
  5
1FF
330
1E3
100
AcDbEntity
  8
DAMAN
100
AcDbLine
 10
-0.4060000000000001
 20
-0.46875
 30
0.0
 11
-0.4060000000000001
 21
-0.71875
 31
0.0
  0
LINE
  5
200
330
1E3
100
AcDbEntity
  8
DAMAN
100
AcDbLine
 10
-0.313
 20
-0.7807500000000001
 30
0.0
 11
-0.313
 21
-0.71875
 31
0.0
  0
LINE
  5
201
330
1E3
100
AcDbEntity
  8
DAMAN
100
AcDbLine
 10
0.0
 20
-0.312
 30
0.0
 11
-0.25
 21
-0.312
 31
0.0
  0
LINE
  5
202
330
1E3
100
AcDbEntity
  8
DAMAN
100
AcDbLine
 10
-0.2189999999999999
 20
-0.172
 30
0.0
 11
-0.25
 21
-0.172
 31
0.0
  0
LINE
  5
203
330
1E3
100
AcDbEntity
  8
DAMAN
100
AcDbLine
 10
0.0
 20
-0.172
 30
0.0
 11
-0.2189999999999999
 21
-0.172
 31
0.0
  0
LINE
  5
204
330
1E3
100
AcDbEntity
  8
DAMAN
100
AcDbLine
 10
-0.2189999999999999
 20
0.173
 30
0.0
 11
-0.25
 21
0.173
 31
0.0
  0
LINE
  5
205
330
1E3
100
AcDbEntity
  8
DAMAN
100
AcDbLine
 10
0.0
 20
0.173
 30
0.0
 11
-0.2189999999999999
 21
0.173
 31
0.0
  0
LINE
  5
206
330
1E3
100
AcDbEntity
  8
DAMAN
100
AcDbLine
 10
0.062
 20
0.4060000000000001
 30
0.0
 11
0.0
 21
0.4060000000000001
 31
0.0
  0
LINE
  5
207
330
1E3
100
AcDbEntity
  8
DAMAN
100
AcDbLine
 10
-0.25
 20
0.313
 30
0.0
 11
0.0
 21
0.313
 31
0.0
  0
LINE
  5
208
330
1E3
100
AcDbEntity
  8
DAMAN
100
AcDbLine
 10
0.21825
 20
0.4379999999999999
 30
0.0
 11
0.06225
 21
0.4379999999999999
 31
0.0
  0
ENDBLK
  5
20A
330
1E3
100
AcDbEntity
  8
0
100
AcDbBlockEnd
  0
BLOCK
  5
20D
330
20B
100
AcDbEntity
  8
0
100
AcDbBlockBegin
  2
A$C745A2248
 70
     0
 10
0.0
 20
0.0
 30
0.0
  3
A$C745A2248
  1

  0
INSERT
  5
20C
330
20B
100
AcDbEntity
  8
DAMAN
100
AcDbBlockReference
  2
500MKS
 10
-0.2182500000000003
 20
0.375
 30
0.0
  0
ENDBLK
  5
20E
330
20B
100
AcDbEntity
  8
0
100
AcDbBlockEnd
  0
BLOCK
  5
212
330
210
100
AcDbEntity
  8
0
100
AcDbBlockBegin
  2
A$C16F234C8
 70
     0
 10
0.0
 20
0.0
 30
0.0
  3
A$C16F234C8
  1

  0
INSERT
  5
211
330
210
100
AcDbEntity
  8
DAMAN
100
AcDbBlockReference
  2
500MKS
 10
0.2182499999999994
 20
0.375
 30
0.0
 41
-1.0
  0
ENDBLK
  5
213
330
210
100
AcDbEntity
  8
0
100
AcDbBlockEnd
  0
ENDSEC
  0
SECTION
  2
ENTITIES
  0
LINE
  5
34
330
1E
100
AcDbEntity
  8
0
  6
CONTINUOUS
 62
     5
100
AcDbLine
 10
28.21849999999999
 20
12.915
 30
0.0
 11
28.21849999999999
 21
13.365
 31
0.0
  0
LINE
  5
35
330
1E
100
AcDbEntity
  8
0
  6
CONTINUOUS
 62
     5
100
AcDbLine
 10
27.9935
 20
13.14
 30
0.0
 11
28.4435
 21
13.14
 31
0.0
  0
ARC
  5
36
330
1E
100
AcDbEntity
  8
0
  6
CONTINUOUS
 62
     5
100
AcDbCircle
 10
28.21849999999999
 20
13.14
 30
0.0
 40
0.183
100
AcDbArc
 50
85.00000099999999
 51
5.0
  0
CIRCLE
  5
37
330
1E
100
AcDbEntity
  8
0
  6
CONTINUOUS
 62
     5
100
AcDbCircle
 10
28.21849999999999
 20
13.14
 30
0.0
 40
0.156
  0
CIRCLE
  5
38
330
1E
100
AcDbEntity
  8
0
  6
CONTINUOUS
 62
     5
100
AcDbCircle
 10
28.21849999999999
 20
13.14
 30
0.0
 40
0.188
  0
LINE
  5
39
330
1E
100
AcDbEntity
  8
0
  6
CONTINUOUS
 62
     5
100
AcDbLine
 10
28.21849999999999
 20
11.885
 30
0.0
 11
28.21849999999999
 21
12.335
 31
0.0
  0
LINE
  5
3A
330
1E
100
AcDbEntity
  8
0
  6
CONTINUOUS
 62
     5
100
AcDbLine
 10
27.9935
 20
12.11
 30
0.0
 11
28.4435
 21
12.11
 31
0.0
  0
ARC
  5
3B
330
1E
100
AcDbEntity
  8
0
  6
CONTINUOUS
 62
     5
100
AcDbCircle
 10
28.21849999999999
 20
12.11
 30
0.0
 40
0.183
100
AcDbArc
 50
85.00000099999999
 51
5.0
  0
CIRCLE
  5
3C
330
1E
100
AcDbEntity
  8
0
  6
CONTINUOUS
 62
     5
100
AcDbCircle
 10
28.21849999999999
 20
12.11
 30
0.0
 40
0.156
  0
CIRCLE
  5
3D
330
1E
100
AcDbEntity
  8
0
  6
CONTINUOUS
 62
     5
100
AcDbCircle
 10
28.21849999999999
 20
12.11
 30
0.0
 40
0.188
  0
LINE
  5
3E
330
1E
100
AcDbEntity
  8
0
  6
CONTINUOUS
 62
     5
100
AcDbLine
 10
26.1565
 20
12.915
 30
0.0
 11
26.1565
 21
13.365
 31
0.0
  0
CIRCLE
  5
3F
330
1E
100
AcDbEntity
  8
0
  6
CONTINUOUS
 62
     5
100
AcDbCircle
 10
26.1565
 20
13.14
 30
0.0
 40
0.156
  0
ARC
  5
40
330
1E
100
AcDbEntity
  8
0
  6
CONTINUOUS
 62
     5
100
AcDbCircle
 10
26.1565
 20
13.14
 30
0.0
 40
0.183
100
AcDbArc
 50
85.00000099999999
 51
5.0
  0
CIRCLE
  5
41
330
1E
100
AcDbEntity
  8
0
  6
CONTINUOUS
 62
     5
100
AcDbCircle
 10
26.1565
 20
13.14
 30
0.0
 40
0.188
  0
LINE
  5
42
330
1E
100
AcDbEntity
  8
0
  6
CONTINUOUS
 62
     5
100
AcDbLine
 10
25.9315
 20
13.14
 30
0.0
 11
26.38149999999999
 21
13.14
 31
0.0
  0
LINE
  5
43
330
1E
100
AcDbEntity
  8
0
  6
CONTINUOUS
 62
     5
100
AcDbLine
 10
26.58749999999999
 20
12.625
 30
0.0
 11
27.7875
 21
12.625
 31
0.0
  0
LINE
  5
44
330
1E
100
AcDbEntity
  8
0
  6
CONTINUOUS
 62
     5
100
AcDbLine
 10
26.1565
 20
11.885
 30
0.0
 11
26.1565
 21
12.335
 31
0.0
  0
CIRCLE
  5
45
330
1E
100
AcDbEntity
  8
0
  6
CONTINUOUS
 62
     5
100
AcDbCircle
 10
26.1565
 20
12.11
 30
0.0
 40
0.156
  0
ARC
  5
46
330
1E
100
AcDbEntity
  8
0
  6
CONTINUOUS
 62
     5
100
AcDbCircle
 10
26.1565
 20
12.11
 30
0.0
 40
0.183
100
AcDbArc
 50
85.00000099999999
 51
5.0
  0
CIRCLE
  5
47
330
1E
100
AcDbEntity
  8
0
  6
CONTINUOUS
 62
     5
100
AcDbCircle
 10
26.1565
 20
12.11
 30
0.0
 40
0.188
  0
LINE
  5
48
330
1E
100
AcDbEntity
  8
0
  6
CONTINUOUS
 62
     5
100
AcDbLine
 10
25.9315
 20
12.11
 30
0.0
 11
26.38149999999999
 21
12.11
 31
0.0
  0
LINE
  5
49
330
1E
100
AcDbEntity
  8
0
  6
CONTINUOUS
 62
     5
100
AcDbLine
 10
27.1875
 20
12.025
 30
0.0
 11
27.1875
 21
13.225
 31
0.0
  0
CIRCLE
  5
4A
330
1E
100
AcDbEntity
  8
0
  6
CONTINUOUS
 62
     5
100
AcDbCircle
 10
27.1875
 20
12.625
 30
0.0
 40
0.5
  0
TEXT
  5
4B
330
1E
100
AcDbEntity
  8
0
 62
     5
100
AcDbText
 10
25.42125
 20
13.46239549999999
 30
0.0
 40
0.2125
  1
T
 50
90.0
 41
0.825
 72
     4
 11
25.315
 21
13.52083299999999
 31
0.0
100
AcDbText
  0
LINE
  5
4C
330
1E
100
AcDbEntity
  8
0
  6
CONTINUOUS
 62
     5
100
AcDbLine
 10
20.71849999999999
 20
12.101
 30
0.0
 11
20.71849999999999
 21
12.40099999999999
 31
0.0
  0
CIRCLE
  5
4D
330
1E
100
AcDbEntity
  8
0
  6
CONTINUOUS
 62
     5
100
AcDbCircle
 10
20.71849999999999
 20
12.25
 30
0.0
 40
0.101
  0
LINE
  5
4E
330
1E
100
AcDbEntity
  8
0
  6
CONTINUOUS
 62
     5
100
AcDbLine
 10
20.5695
 20
12.25
 30
0.0
 11
20.8685
 21
12.25
 31
0.0
  0
ARC
  5
4F
330
1E
100
AcDbEntity
  8
0
  6
CONTINUOUS
 62
     5
100
AcDbCircle
 10
20.71849999999999
 20
12.25
 30
0.0
 40
0.118
100
AcDbArc
 50
85.00000099999999
 51
5.0
  0
CIRCLE
  5
50
330
1E
100
AcDbEntity
  8
0
  6
CONTINUOUS
 62
     5
100
AcDbCircle
 10
20.71849999999999
 20
12.25
 30
0.0
 40
0.125
  0
LINE
  5
51
330
1E
100
AcDbEntity
  8
0
  6
CONTINUOUS
 62
     5
100
AcDbLine
 10
19.4375
 20
11.86299999999999
 30
0.0
 11
19.4375
 21
12.388
 31
0.0
  0
LINE
  5
52
330
1E
100
AcDbEntity
  8
0
  6
CONTINUOUS
 62
     5
100
AcDbLine
 10
19.6125
 20
11.59399999999999
 30
0.0
 11
20.13749999999999
 21
11.59399999999999
 31
0.0
  0
LINE
  5
53
330
1E
100
AcDbEntity
  8
0
  6
CONTINUOUS
 62
     5
100
AcDbLine
 10
18.9065
 20
12.101
 30
0.0
 11
18.9065
 21
12.40099999999999
 31
0.0
  0
CIRCLE
  5
54
330
1E
100
AcDbEntity
  8
0
  6
CONTINUOUS
 62
     5
100
AcDbCircle
 10
18.9065
 20
12.251
 30
0.0
 40
0.101
  0
LINE
  5
55
330
1E
100
AcDbEntity
  8
0
  6
CONTINUOUS
 62
     5
100
AcDbLine
 10
18.7555
 20
12.251
 30
0.0
 11
19.05549999999999
 21
12.251
 31
0.0
  0
ARC
  5
56
330
1E
100
AcDbEntity
  8
0
  6
CONTINUOUS
 62
     5
100
AcDbCircle
 10
18.9065
 20
12.251
 30
0.0
 40
0.118
100
AcDbArc
 50
85.00000099999999
 51
5.0
  0
CIRCLE
  5
57
330
1E
100
AcDbEntity
  8
0
  6
CONTINUOUS
 62
     5
100
AcDbCircle
 10
18.9065
 20
12.251
 30
0.0
 40
0.125
  0
LINE
  5
58
330
1E
100
AcDbEntity
  8
0
  6
CONTINUOUS
 62
     5
100
AcDbLine
 10
19.17449999999999
 20
12.125
 30
0.0
 11
19.7005
 21
12.125
 31
0.0
  0
CIRCLE
  5
59
330
1E
100
AcDbEntity
  8
0
  6
CONTINUOUS
 62
     5
100
AcDbCircle
 10
19.4375
 20
12.125
 30
0.0
 40
0.219
  0
LINE
  5
5A
330
1E
100
AcDbEntity
  8
0
  6
CONTINUOUS
 62
     5
100
AcDbLine
 10
29.6875
 20
13.875
 30
0.0
 11
24.6875
 21
13.875
 31
0.0
  0
LINE
  5
5B
330
1E
100
AcDbEntity
  8
0
  6
CONTINUOUS
 62
     5
100
AcDbLine
 10
28.1245
 20
10.52499999999999
 30
0.0
 11
28.1245
 21
10.97499999999999
 31
0.0
  0
CIRCLE
  5
5C
330
1E
100
AcDbEntity
  8
0
  6
CONTINUOUS
 62
     5
100
AcDbCircle
 10
28.1245
 20
10.74999999999999
 30
0.0
 40
0.156
  0
LINE
  5
62
330
1E
100
AcDbEntity
  8
0
  6
CONTINUOUS
 62
     5
100
AcDbLine
 10
28.1245
 20
9.650999999999999
 30
0.0
 11
28.1245
 21
10.101
 31
0.0
  0
CIRCLE
  5
63
330
1E
100
AcDbEntity
  8
0
  6
CONTINUOUS
 62
     5
100
AcDbCircle
 10
28.1245
 20
9.875999999999999
 30
0.0
 40
0.156
  0
LINE
  5
64
330
1E
100
AcDbEntity
  8
0
  6
CONTINUOUS
 62
     5
100
AcDbLine
 10
26.7375
 20
10.313
 30
0.0
 11
27.63749999999999
 21
10.313
 31
0.0
  0
LINE
  5
65
330
1E
100
AcDbEntity
  8
0
  6
CONTINUOUS
 62
     5
100
AcDbLine
 10
26.25049999999999
 20
10.52499999999999
 30
0.0
 11
26.25049999999999
 21
10.97499999999999
 31
0.0
  0
LINE
  5
66
330
1E
100
AcDbEntity
  8
0
  6
CONTINUOUS
 62
     5
100
AcDbLine
 10
26.0255
 20
10.74999999999999
 30
0.0
 11
26.4755
 21
10.74999999999999
 31
0.0
  0
ARC
  5
67
330
1E
100
AcDbEntity
  8
0
  6
CONTINUOUS
 62
     5
100
AcDbCircle
 10
26.25049999999999
 20
10.74999999999999
 30
0.0
 40
0.183
100
AcDbArc
 50
85.00000099999999
 51
5.0
  0
CIRCLE
  5
68
330
1E
100
AcDbEntity
  8
0
  6
CONTINUOUS
 62
     5
100
AcDbCircle
 10
26.25049999999999
 20
10.74999999999999
 30
0.0
 40
0.156
  0
CIRCLE
  5
69
330
1E
100
AcDbEntity
  8
0
  6
CONTINUOUS
 62
     5
100
AcDbCircle
 10
26.25049999999999
 20
10.74999999999999
 30
0.0
 40
0.188
  0
LINE
  5
6A
330
1E
100
AcDbEntity
  8
0
  6
CONTINUOUS
 62
     5
100
AcDbLine
 10
26.0255
 20
9.875999999999999
 30
0.0
 11
26.4755
 21
9.875999999999999
 31
0.0
  0
LINE
  5
6B
330
1E
100
AcDbEntity
  8
0
  6
CONTINUOUS
 62
     5
100
AcDbLine
 10
27.1875
 20
9.862999999999999
 30
0.0
 11
27.1875
 21
10.763
 31
0.0
  0
CIRCLE
  5
6C
330
1E
100
AcDbEntity
  8
0
  6
CONTINUOUS
 62
     5
100
AcDbCircle
 10
27.1875
 20
10.313
 30
0.0
 40
0.375
  0
LINE
  5
6D
330
1E
100
AcDbEntity
  8
0
  6
CONTINUOUS
 62
     5
100
AcDbLine
 10
26.25049999999999
 20
9.650999999999999
 30
0.0
 11
26.25049999999999
 21
10.101
 31
0.0
  0
ARC
  5
6E
330
1E
100
AcDbEntity
  8
0
  6
CONTINUOUS
 62
     5
100
AcDbCircle
 10
26.25049999999999
 20
9.875999999999999
 30
0.0
 40
0.183
100
AcDbArc
 50
85.00000099999999
 51
5.0
  0
CIRCLE
  5
6F
330
1E
100
AcDbEntity
  8
0
  6
CONTINUOUS
 62
     5
100
AcDbCircle
 10
26.25049999999999
 20
9.875999999999999
 30
0.0
 40
0.156
  0
CIRCLE
  5
70
330
1E
100
AcDbEntity
  8
0
  6
CONTINUOUS
 62
     5
100
AcDbCircle
 10
26.25049999999999
 20
9.875999999999999
 30
0.0
 40
0.188
  0
LINE
  5
71
330
1E
100
AcDbEntity
  8
0
  6
CONTINUOUS
 62
     5
100
AcDbLine
 10
27.8995
 20
10.74999999999999
 30
0.0
 11
28.3495
 21
10.74999999999999
 31
0.0
  0
ARC
  5
72
330
1E
100
AcDbEntity
  8
0
  6
CONTINUOUS
 62
     5
100
AcDbCircle
 10
28.1245
 20
10.74999999999999
 30
0.0
 40
0.183
100
AcDbArc
 50
85.00000099999999
 51
5.0
  0
CIRCLE
  5
73
330
1E
100
AcDbEntity
  8
0
  6
CONTINUOUS
 62
     5
100
AcDbCircle
 10
28.1245
 20
10.74999999999999
 30
0.0
 40
0.188
  0
LINE
  5
74
330
1E
100
AcDbEntity
  8
0
  6
CONTINUOUS
 62
     5
100
AcDbLine
 10
27.8995
 20
9.875999999999999
 30
0.0
 11
28.3495
 21
9.875999999999999
 31
0.0
  0
ARC
  5
75
330
1E
100
AcDbEntity
  8
0
  6
CONTINUOUS
 62
     5
100
AcDbCircle
 10
28.1245
 20
9.875999999999999
 30
0.0
 40
0.183
100
AcDbArc
 50
85.00000099999999
 51
5.0
  0
CIRCLE
  5
76
330
1E
100
AcDbEntity
  8
0
  6
CONTINUOUS
 62
     5
100
AcDbCircle
 10
28.1245
 20
9.875999999999999
 30
0.0
 40
0.188
  0
TEXT
  5
77
330
1E
100
AcDbEntity
  8
0
 62
     5
100
AcDbText
 10
25.62174999999999
 20
9.337395499999999
 30
0.0
 40
0.2125
  1
P
 50
90.0
 41
0.825
 72
     4
 11
25.5155
 21
9.395832999999999
 31
0.0
100
AcDbText
  0
CIRCLE
  5
78
330
1E
100
AcDbEntity
  8
0
  6
CONTINUOUS
 62
     5
100
AcDbCircle
 10
20.71849999999999
 20
10.12499999999999
 30
0.0
 40
0.101
  0
LINE
  5
79
330
1E
100
AcDbEntity
  8
0
  6
CONTINUOUS
 62
     5
100
AcDbLine
 10
19.87549999999999
 20
10.519
 30
0.0
 11
19.87549999999999
 21
11.045
 31
0.0
  0
CIRCLE
  5
7A
330
1E
100
AcDbEntity
  8
0
  6
CONTINUOUS
 62
     5
100
AcDbCircle
 10
19.87549999999999
 20
10.782
 30
0.0
 40
0.219
  0
LINE
  5
7B
330
1E
100
AcDbEntity
  8
0
  6
CONTINUOUS
 62
     5
100
AcDbLine
 10
20.20649999999999
 20
11.188
 30
0.0
 11
20.7315
 21
11.188
 31
0.0
  0
LINE
  5
7C
330
1E
100
AcDbEntity
  8
0
  6
CONTINUOUS
 62
     5
100
AcDbLine
 10
20.5695
 20
10.12499999999999
 30
0.0
 11
20.8685
 21
10.12499999999999
 31
0.0
  0
LINE
  5
7D
330
1E
100
AcDbEntity
  8
0
  6
CONTINUOUS
 62
     5
100
AcDbLine
 10
20.71849999999999
 20
9.976
 30
0.0
 11
20.71849999999999
 21
10.276
 31
0.0
  0
ARC
  5
7E
330
1E
100
AcDbEntity
  8
0
  6
CONTINUOUS
 62
     5
100
AcDbCircle
 10
20.71849999999999
 20
10.12499999999999
 30
0.0
 40
0.118
100
AcDbArc
 50
85.00000099999999
 51
5.0
  0
CIRCLE
  5
7F
330
1E
100
AcDbEntity
  8
0
  6
CONTINUOUS
 62
     5
100
AcDbCircle
 10
20.71849999999999
 20
10.12499999999999
 30
0.0
 40
0.125
  0
LINE
  5
80
330
1E
100
AcDbEntity
  8
0
  6
CONTINUOUS
 62
     5
100
AcDbLine
 10
19.6125
 20
10.782
 30
0.0
 11
20.1385
 21
10.782
 31
0.0
  0
CIRCLE
  5
81
330
1E
100
AcDbEntity
  8
0
  6
CONTINUOUS
 62
     5
100
AcDbCircle
 10
18.9065
 20
10.12499999999999
 30
0.0
 40
0.101
  0
LINE
  5
82
330
1E
100
AcDbEntity
  8
0
  6
CONTINUOUS
 62
     5
100
AcDbLine
 10
18.7565
 20
10.12499999999999
 30
0.0
 11
19.05649999999999
 21
10.12499999999999
 31
0.0
  0
LINE
  5
83
330
1E
100
AcDbEntity
  8
0
  6
CONTINUOUS
 62
     5
100
AcDbLine
 10
18.9065
 20
9.976
 30
0.0
 11
18.9065
 21
10.275
 31
0.0
  0
ARC
  5
84
330
1E
100
AcDbEntity
  8
0
  6
CONTINUOUS
 62
     5
100
AcDbCircle
 10
18.9065
 20
10.12499999999999
 30
0.0
 40
0.118
100
AcDbArc
 50
85.00000099999999
 51
5.0
  0
CIRCLE
  5
85
330
1E
100
AcDbEntity
  8
0
  6
CONTINUOUS
 62
     5
100
AcDbCircle
 10
18.9065
 20
10.12499999999999
 30
0.0
 40
0.125
  0
TEXT
  5
86
330
1E
100
AcDbEntity
  8
0
 62
     5
100
AcDbText
 10
21.1580805
 20
5.917570999999999
 30
0.0
 40
0.2125
  1
B
 41
0.825
 72
     4
 11
21.21651799999999
 21
6.023820999999999
 31
0.0
100
AcDbText
  0
LINE
  5
87
330
1E
100
AcDbEntity
  8
0
  6
CONTINUOUS
 62
     5
100
AcDbLine
 10
20.27449999999999
 20
5.437
 30
0.0
 11
20.7255
 21
5.437
 31
0.0
  0
CIRCLE
  5
88
330
1E
100
AcDbEntity
  8
0
  6
CONTINUOUS
 62
     5
100
AcDbCircle
 10
20.5005
 20
5.437
 30
0.0
 40
0.156
  0
ARC
  5
89
330
1E
100
AcDbEntity
  8
0
  6
CONTINUOUS
 62
     5
100
AcDbCircle
 10
20.5005
 20
5.437
 30
0.0
 40
0.183
100
AcDbArc
 50
85.00000099999999
 51
5.0
  0
CIRCLE
  5
8A
330
1E
100
AcDbEntity
  8
0
  6
CONTINUOUS
 62
     5
100
AcDbCircle
 10
20.5005
 20
5.437
 30
0.0
 40
0.188
  0
LINE
  5
8B
330
1E
100
AcDbEntity
  8
0
  6
CONTINUOUS
 62
     5
100
AcDbLine
 10
20.5005
 20
4.338
 30
0.0
 11
20.5005
 21
4.788
 31
0.0
  0
LINE
  5
8C
330
1E
100
AcDbEntity
  8
0
  6
CONTINUOUS
 62
     5
100
AcDbLine
 10
20.27449999999999
 20
4.562999999999999
 30
0.0
 11
20.7255
 21
4.562999999999999
 31
0.0
  0
ARC
  5
8D
330
1E
100
AcDbEntity
  8
0
  6
CONTINUOUS
 62
     5
100
AcDbCircle
 10
20.5005
 20
4.562999999999999
 30
0.0
 40
0.183
100
AcDbArc
 50
85.00000099999999
 51
5.0
  0
CIRCLE
  5
8E
330
1E
100
AcDbEntity
  8
0
  6
CONTINUOUS
 62
     5
100
AcDbCircle
 10
20.5005
 20
4.562999999999999
 30
0.0
 40
0.156
  0
CIRCLE
  5
8F
330
1E
100
AcDbEntity
  8
0
  6
CONTINUOUS
 62
     5
100
AcDbCircle
 10
20.5005
 20
4.562999999999999
 30
0.0
 40
0.188
  0
LINE
  5
90
330
1E
100
AcDbEntity
  8
0
  6
CONTINUOUS
 62
     5
100
AcDbLine
 10
19.5625
 20
4.549999999999999
 30
0.0
 11
19.5625
 21
5.45
 31
0.0
  0
TEXT
  5
91
330
1E
100
AcDbEntity
  8
0
 62
     5
100
AcDbText
 10
21.1580805
 20
3.039098999999999
 30
0.0
 40
0.2125
  1
A
 41
0.825
 72
     4
 11
21.21651799999999
 21
3.145348999999999
 31
0.0
100
AcDbText
  0
LINE
  5
92
330
1E
100
AcDbEntity
  8
0
  6
CONTINUOUS
 62
     5
100
AcDbLine
 10
20.27449999999999
 20
2.936999999999999
 30
0.0
 11
20.7255
 21
2.936999999999999
 31
0.0
  0
CIRCLE
  5
93
330
1E
100
AcDbEntity
  8
0
  6
CONTINUOUS
 62
     5
100
AcDbCircle
 10
18.62549999999999
 20
5.437
 30
0.0
 40
0.156
  0
ARC
  5
94
330
1E
100
AcDbEntity
  8
0
  6
CONTINUOUS
 62
     5
100
AcDbCircle
 10
18.62549999999999
 20
5.437
 30
0.0
 40
0.183
100
AcDbArc
 50
85.00000099999999
 51
5.0
  0
CIRCLE
  5
95
330
1E
100
AcDbEntity
  8
0
  6
CONTINUOUS
 62
     5
100
AcDbCircle
 10
18.62549999999999
 20
5.437
 30
0.0
 40
0.188
  0
LINE
  5
96
330
1E
100
AcDbEntity
  8
0
  6
CONTINUOUS
 62
     5
100
AcDbLine
 10
18.4005
 20
5.437
 30
0.0
 11
18.8505
 21
5.437
 31
0.0
  0
LINE
  5
97
330
1E
100
AcDbEntity
  8
0
  6
CONTINUOUS
 62
     5
100
AcDbLine
 10
18.62549999999999
 20
4.338
 30
0.0
 11
18.62549999999999
 21
4.788
 31
0.0
  0
ARC
  5
98
330
1E
100
AcDbEntity
  8
0
  6
CONTINUOUS
 62
     5
100
AcDbCircle
 10
18.62549999999999
 20
4.562999999999999
 30
0.0
 40
0.183
100
AcDbArc
 50
85.00000099999999
 51
5.0
  0
CIRCLE
  5
99
330
1E
100
AcDbEntity
  8
0
  6
CONTINUOUS
 62
     5
100
AcDbCircle
 10
18.62549999999999
 20
4.562999999999999
 30
0.0
 40
0.156
  0
CIRCLE
  5
9A
330
1E
100
AcDbEntity
  8
0
  6
CONTINUOUS
 62
     5
100
AcDbCircle
 10
18.62549999999999
 20
4.562999999999999
 30
0.0
 40
0.188
  0
LINE
  5
9B
330
1E
100
AcDbEntity
  8
0
  6
CONTINUOUS
 62
     5
100
AcDbLine
 10
18.40149999999999
 20
4.562999999999999
 30
0.0
 11
18.8505
 21
4.562999999999999
 31
0.0
  0
LINE
  5
9C
330
1E
100
AcDbEntity
  8
0
  6
CONTINUOUS
 62
     5
100
AcDbLine
 10
18.4005
 20
2.936999999999999
 30
0.0
 11
18.8505
 21
2.936999999999999
 31
0.0
  0
TEXT
  5
9D
330
1E
100
AcDbEntity
  8
0
 62
     5
100
AcDbText
 10
17.25365425
 20
3.768749999999999
 30
0.0
 40
0.2125
  1
GA
 41
0.825
 72
     4
 11
17.399748
 21
3.875
 31
0.0
100
AcDbText
  0
LINE
  5
9E
330
1E
100
AcDbEntity
  8
0
  6
CONTINUOUS
 62
     5
100
AcDbLine
 10
19.1125
 20
5.0
 30
0.0
 11
20.0125
 21
5.0
 31
0.0
  0
CIRCLE
  5
9F
330
1E
100
AcDbEntity
  8
0
  6
CONTINUOUS
 62
     5
100
AcDbCircle
 10
19.5625
 20
5.0
 30
0.0
 40
0.375
  0
LINE
  5
A0
330
1E
100
AcDbEntity
  8
0
  6
CONTINUOUS
 62
     5
100
AcDbLine
 10
20.5005
 20
1.838
 30
0.0
 11
20.5005
 21
2.287999999999999
 31
0.0
  0
LINE
  5
A1
330
1E
100
AcDbEntity
  8
0
  6
CONTINUOUS
 62
     5
100
AcDbLine
 10
20.27449999999999
 20
2.063
 30
0.0
 11
20.7255
 21
2.063
 31
0.0
  0
ARC
  5
A2
330
1E
100
AcDbEntity
  8
0
  6
CONTINUOUS
 62
     5
100
AcDbCircle
 10
20.5005
 20
2.063
 30
0.0
 40
0.183
100
AcDbArc
 50
85.00000099999999
 51
5.0
  0
CIRCLE
  5
A3
330
1E
100
AcDbEntity
  8
0
  6
CONTINUOUS
 62
     5
100
AcDbCircle
 10
20.5005
 20
2.063
 30
0.0
 40
0.156
  0
CIRCLE
  5
A4
330
1E
100
AcDbEntity
  8
0
  6
CONTINUOUS
 62
     5
100
AcDbCircle
 10
20.5005
 20
2.063
 30
0.0
 40
0.188
  0
LINE
  5
A5
330
1E
100
AcDbEntity
  8
0
  6
CONTINUOUS
 62
     5
100
AcDbLine
 10
18.62549999999999
 20
1.838
 30
0.0
 11
18.62549999999999
 21
2.287999999999999
 31
0.0
  0
ARC
  5
A6
330
1E
100
AcDbEntity
  8
0
  6
CONTINUOUS
 62
     5
100
AcDbCircle
 10
18.62549999999999
 20
2.063
 30
0.0
 40
0.183
100
AcDbArc
 50
85.00000099999999
 51
5.0
  0
CIRCLE
  5
A7
330
1E
100
AcDbEntity
  8
0
  6
CONTINUOUS
 62
     5
100
AcDbCircle
 10
18.62549999999999
 20
2.063
 30
0.0
 40
0.156
  0
CIRCLE
  5
A8
330
1E
100
AcDbEntity
  8
0
  6
CONTINUOUS
 62
     5
100
AcDbCircle
 10
18.62549999999999
 20
2.063
 30
0.0
 40
0.188
  0
LINE
  5
A9
330
1E
100
AcDbEntity
  8
0
  6
CONTINUOUS
 62
     5
100
AcDbLine
 10
18.4005
 20
2.063
 30
0.0
 11
18.8505
 21
2.063
 31
0.0
  0
LINE
  5
AA
330
1E
100
AcDbEntity
  8
0
  6
CONTINUOUS
 62
     5
100
AcDbLine
 10
19.1125
 20
2.5
 30
0.0
 11
20.0125
 21
2.5
 31
0.0
  0
ARC
  5
AB
330
1E
100
AcDbEntity
  8
0
  6
CONTINUOUS
 62
     5
100
AcDbCircle
 10
18.62549999999999
 20
2.936999999999999
 30
0.0
 40
0.183
100
AcDbArc
 50
85.00000099999999
 51
5.0
  0
CIRCLE
  5
AC
330
1E
100
AcDbEntity
  8
0
  6
CONTINUOUS
 62
     5
100
AcDbCircle
 10
18.62549999999999
 20
2.936999999999999
 30
0.0
 40
0.156
  0
LINE
  5
AD
330
1E
100
AcDbEntity
  8
0
  6
CONTINUOUS
 62
     5
100
AcDbLine
 10
20.5005
 20
2.712
 30
0.0
 11
20.5005
 21
3.161999999999999
 31
0.0
  0
LINE
  5
AE
330
1E
100
AcDbEntity
  8
0
  6
CONTINUOUS
 62
     5
100
AcDbLine
 10
18.62549999999999
 20
2.712
 30
0.0
 11
18.62549999999999
 21
3.161999999999999
 31
0.0
  0
CIRCLE
  5
AF
330
1E
100
AcDbEntity
  8
0
  6
CONTINUOUS
 62
     5
100
AcDbCircle
 10
18.62549999999999
 20
2.936999999999999
 30
0.0
 40
0.188
  0
LINE
  5
B0
330
1E
100
AcDbEntity
  8
0
  6
CONTINUOUS
 62
     5
100
AcDbLine
 10
19.5625
 20
2.049999999999999
 30
0.0
 11
19.5625
 21
2.95
 31
0.0
  0
CIRCLE
  5
B1
330
1E
100
AcDbEntity
  8
0
  6
CONTINUOUS
 62
     5
100
AcDbCircle
 10
19.5625
 20
2.5
 30
0.0
 40
0.375
  0
ARC
  5
B2
330
1E
100
AcDbEntity
  8
0
  6
CONTINUOUS
 62
     5
100
AcDbCircle
 10
20.5005
 20
2.936999999999999
 30
0.0
 40
0.183
100
AcDbArc
 50
85.00000099999999
 51
5.0
  0
CIRCLE
  5
B3
330
1E
100
AcDbEntity
  8
0
  6
CONTINUOUS
 62
     5
100
AcDbCircle
 10
20.5005
 20
2.936999999999999
 30
0.0
 40
0.156
  0
CIRCLE
  5
B4
330
1E
100
AcDbEntity
  8
0
  6
CONTINUOUS
 62
     5
100
AcDbCircle
 10
20.5005
 20
2.936999999999999
 30
0.0
 40
0.188
  0
LINE
  5
B5
330
1E
100
AcDbEntity
  8
0
  6
CONTINUOUS
 62
     5
100
AcDbLine
 10
22.1875
 20
6.375
 30
0.0
 11
22.1875
 21
1.375
 31
0.0
  0
LINE
  5
B6
330
1E
100
AcDbEntity
  8
0
  6
CONTINUOUS
 62
     5
100
AcDbLine
 10
20.5005
 20
5.211999999999999
 30
0.0
 11
20.5005
 21
5.661999999999999
 31
0.0
  0
LINE
  5
B7
330
1E
100
AcDbEntity
  8
0
  6
CONTINUOUS
 62
     5
100
AcDbLine
 10
18.62549999999999
 20
5.211999999999999
 30
0.0
 11
18.62549999999999
 21
5.661999999999999
 31
0.0
  0
LINE
  5
B8
330
1E
100
AcDbEntity
  8
0
  6
CONTINUOUS
 62
     5
100
AcDbLine
 10
24.6875
 20
8.875
 30
0.0
 11
29.6875
 21
8.875
 31
0.0
  0
LINE
  5
B9
330
1E
100
AcDbEntity
  8
0
  6
HIDDEN
 62
     5
100
AcDbLine
 10
29.6875
 20
8.875
 30
0.0
 11
29.6875
 21
13.875
 31
0.0
  0
LINE
  5
BA
330
1E
100
AcDbEntity
  8
0
  6
CONTINUOUS
 62
     5
100
AcDbLine
 10
19.87549999999999
 20
11.33099999999999
 30
0.0
 11
19.87549999999999
 21
11.85699999999999
 31
0.0
  0
CIRCLE
  5
BB
330
1E
100
AcDbEntity
  8
0
  6
CONTINUOUS
 62
     5
100
AcDbCircle
 10
19.87549999999999
 20
11.59399999999999
 30
0.0
 40
0.219
  0
LINE
  5
BC
330
1E
100
AcDbEntity
  8
0
  6
CONTINUOUS
 62
     5
100
AcDbLine
 10
20.4685
 20
10.925
 30
0.0
 11
20.4685
 21
11.451
 31
0.0
  0
CIRCLE
  5
BD
330
1E
100
AcDbEntity
  8
0
  6
CONTINUOUS
 62
     5
100
AcDbCircle
 10
20.4685
 20
11.188
 30
0.0
 40
0.219
  0
LINE
  5
BE
330
1E
100
AcDbEntity
  8
0
  6
CONTINUOUS
 62
     5
100
AcDbLine
 10
24.6875
 20
13.875
 30
0.0
 11
24.6875
 21
8.875
 31
0.0
  0
LINE
  5
BF
330
1E
100
AcDbEntity
  8
0
  6
CONTINUOUS
 62
     5
100
AcDbLine
 10
22.1875
 20
8.875
 30
0.0
 11
22.1875
 21
13.875
 31
0.0
  0
LINE
  5
C0
330
1E
100
AcDbEntity
  8
0
  6
CONTINUOUS
 62
     5
100
AcDbLine
 10
15.5695
 20
12.25
 30
0.0
 11
15.8685
 21
12.25
 31
0.0
  0
LINE
  5
C1
330
1E
100
AcDbEntity
  8
0
  6
CONTINUOUS
 62
     5
100
AcDbLine
 10
15.7185
 20
12.101
 30
0.0
 11
15.7185
 21
12.40099999999999
 31
0.0
  0
ARC
  5
C2
330
1E
100
AcDbEntity
  8
0
  6
CONTINUOUS
 62
     5
100
AcDbCircle
 10
15.7185
 20
12.25
 30
0.0
 40
0.118
100
AcDbArc
 50
85.00000099999999
 51
5.0
  0
CIRCLE
  5
C3
330
1E
100
AcDbEntity
  8
0
  6
CONTINUOUS
 62
     5
100
AcDbCircle
 10
15.7185
 20
12.25
 30
0.0
 40
0.101
  0
CIRCLE
  5
C4
330
1E
100
AcDbEntity
  8
0
  6
CONTINUOUS
 62
     5
100
AcDbCircle
 10
15.7185
 20
12.25
 30
0.0
 40
0.125
  0
LINE
  5
C5
330
1E
100
AcDbEntity
  8
0
  6
CONTINUOUS
 62
     5
100
AcDbLine
 10
14.4375
 20
11.86299999999999
 30
0.0
 11
14.4375
 21
12.388
 31
0.0
  0
CIRCLE
  5
C6
330
1E
100
AcDbEntity
  8
0
  6
CONTINUOUS
 62
     5
100
AcDbCircle
 10
14.4375
 20
12.125
 30
0.0
 40
0.219
  0
LINE
  5
C7
330
1E
100
AcDbEntity
  8
0
  6
CONTINUOUS
 62
     5
100
AcDbLine
 10
13.9055
 20
12.101
 30
0.0
 11
13.9055
 21
12.40099999999999
 31
0.0
  0
CIRCLE
  5
C8
330
1E
100
AcDbEntity
  8
0
  6
CONTINUOUS
 62
     5
100
AcDbCircle
 10
13.9055
 20
12.251
 30
0.0
 40
0.101
  0
LINE
  5
C9
330
1E
100
AcDbEntity
  8
0
  6
CONTINUOUS
 62
     5
100
AcDbLine
 10
13.7555
 20
12.251
 30
0.0
 11
14.0555
 21
12.251
 31
0.0
  0
ARC
  5
CA
330
1E
100
AcDbEntity
  8
0
  6
CONTINUOUS
 62
     5
100
AcDbCircle
 10
13.9055
 20
12.251
 30
0.0
 40
0.118
100
AcDbArc
 50
85.00000099999999
 51
5.0
  0
CIRCLE
  5
CB
330
1E
100
AcDbEntity
  8
0
  6
CONTINUOUS
 62
     5
100
AcDbCircle
 10
13.9055
 20
12.251
 30
0.0
 40
0.125
  0
LINE
  5
CC
330
1E
100
AcDbEntity
  8
0
  6
CONTINUOUS
 62
     5
100
AcDbLine
 10
14.1745
 20
12.125
 30
0.0
 11
14.7005
 21
12.125
 31
0.0
  0
LINE
  5
CD
330
1E
100
AcDbEntity
  8
0
  6
CONTINUOUS
 62
     5
100
AcDbLine
 10
14.6125
 20
11.59399999999999
 30
0.0
 11
15.13749999999999
 21
11.59399999999999
 31
0.0
  0
TEXT
  5
CE
330
1E
100
AcDbEntity
  8
0
 62
     5
100
AcDbText
 10
8.953750000000001
 20
13.57927049999999
 30
0.0
 40
0.2125
  1
T
 50
270.0
 41
0.825
 72
     4
 11
9.06
 21
13.52083299999999
 31
0.0
100
AcDbText
  0
LINE
  5
CF
330
1E
100
AcDbEntity
  8
0
  6
CONTINUOUS
 62
     5
100
AcDbLine
 10
7.9945
 20
13.14
 30
0.0
 11
8.444499999999999
 21
13.14
 31
0.0
  0
LINE
  5
D0
330
1E
100
AcDbEntity
  8
0
  6
CONTINUOUS
 62
     5
100
AcDbLine
 10
8.2195
 20
12.915
 30
0.0
 11
8.2195
 21
13.365
 31
0.0
  0
ARC
  5
D1
330
1E
100
AcDbEntity
  8
0
  6
CONTINUOUS
 62
     5
100
AcDbCircle
 10
8.2195
 20
13.14
 30
0.0
 40
0.183
100
AcDbArc
 50
85.00000099999999
 51
5.0
  0
CIRCLE
  5
D2
330
1E
100
AcDbEntity
  8
0
  6
CONTINUOUS
 62
     5
100
AcDbCircle
 10
8.2195
 20
13.14
 30
0.0
 40
0.156
  0
CIRCLE
  5
D3
330
1E
100
AcDbEntity
  8
0
  6
CONTINUOUS
 62
     5
100
AcDbCircle
 10
8.2195
 20
13.14
 30
0.0
 40
0.188
  0
LINE
  5
D4
330
1E
100
AcDbEntity
  8
0
  6
CONTINUOUS
 62
     5
100
AcDbLine
 10
7.9935
 20
12.11
 30
0.0
 11
8.4435
 21
12.11
 31
0.0
  0
LINE
  5
D5
330
1E
100
AcDbEntity
  8
0
  6
CONTINUOUS
 62
     5
100
AcDbLine
 10
8.2185
 20
11.885
 30
0.0
 11
8.2185
 21
12.335
 31
0.0
  0
ARC
  5
D6
330
1E
100
AcDbEntity
  8
0
  6
CONTINUOUS
 62
     5
100
AcDbCircle
 10
8.2185
 20
12.11
 30
0.0
 40
0.183
100
AcDbArc
 50
85.00000099999999
 51
5.0
  0
CIRCLE
  5
D7
330
1E
100
AcDbEntity
  8
0
  6
CONTINUOUS
 62
     5
100
AcDbCircle
 10
8.2185
 20
12.11
 30
0.0
 40
0.156
  0
CIRCLE
  5
D8
330
1E
100
AcDbEntity
  8
0
  6
CONTINUOUS
 62
     5
100
AcDbCircle
 10
8.2185
 20
12.11
 30
0.0
 40
0.188
  0
LINE
  5
D9
330
1E
100
AcDbEntity
  8
0
  6
CONTINUOUS
 62
     5
100
AcDbLine
 10
6.5875
 20
12.625
 30
0.0
 11
7.787499999999999
 21
12.625
 31
0.0
  0
LINE
  5
DA
330
1E
100
AcDbEntity
  8
0
  6
CONTINUOUS
 62
     5
100
AcDbLine
 10
7.1875
 20
12.025
 30
0.0
 11
7.1875
 21
13.225
 31
0.0
  0
CIRCLE
  5
DB
330
1E
100
AcDbEntity
  8
0
  6
CONTINUOUS
 62
     5
100
AcDbCircle
 10
7.1875
 20
12.625
 30
0.0
 40
0.5
  0
LINE
  5
DC
330
1E
100
AcDbEntity
  8
0
  6
CONTINUOUS
 62
     5
100
AcDbLine
 10
6.1565
 20
12.915
 30
0.0
 11
6.1565
 21
13.365
 31
0.0
  0
ARC
  5
DD
330
1E
100
AcDbEntity
  8
0
  6
CONTINUOUS
 62
     5
100
AcDbCircle
 10
6.1565
 20
13.14
 30
0.0
 40
0.183
100
AcDbArc
 50
85.00000099999999
 51
5.0
  0
CIRCLE
  5
DE
330
1E
100
AcDbEntity
  8
0
  6
CONTINUOUS
 62
     5
100
AcDbCircle
 10
6.1565
 20
13.14
 30
0.0
 40
0.156
  0
CIRCLE
  5
DF
330
1E
100
AcDbEntity
  8
0
  6
CONTINUOUS
 62
     5
100
AcDbCircle
 10
6.1565
 20
13.14
 30
0.0
 40
0.188
  0
LINE
  5
E0
330
1E
100
AcDbEntity
  8
0
  6
CONTINUOUS
 62
     5
100
AcDbLine
 10
5.931499999999999
 20
13.14
 30
0.0
 11
6.381499999999999
 21
13.14
 31
0.0
  0
LINE
  5
E6
330
1E
100
AcDbEntity
  8
0
  6
CONTINUOUS
 62
     5
100
AcDbLine
 10
6.1565
 20
11.885
 30
0.0
 11
6.1565
 21
12.335
 31
0.0
  0
ARC
  5
E7
330
1E
100
AcDbEntity
  8
0
  6
CONTINUOUS
 62
     5
100
AcDbCircle
 10
6.1565
 20
12.11
 30
0.0
 40
0.183
100
AcDbArc
 50
85.00000099999999
 51
5.0
  0
CIRCLE
  5
E8
330
1E
100
AcDbEntity
  8
0
  6
CONTINUOUS
 62
     5
100
AcDbCircle
 10
6.1565
 20
12.11
 30
0.0
 40
0.156
  0
CIRCLE
  5
E9
330
1E
100
AcDbEntity
  8
0
  6
CONTINUOUS
 62
     5
100
AcDbCircle
 10
6.1565
 20
12.11
 30
0.0
 40
0.188
  0
LINE
  5
EA
330
1E
100
AcDbEntity
  8
0
  6
CONTINUOUS
 62
     5
100
AcDbLine
 10
5.931499999999999
 20
12.11
 30
0.0
 11
6.381499999999999
 21
12.11
 31
0.0
  0
LINE
  5
EB
330
1E
100
AcDbEntity
  8
0
  6
CONTINUOUS
 62
     5
100
AcDbLine
 10
4.6875
 20
13.875
 30
0.0
 11
9.6875
 21
13.875
 31
0.0
  0
LINE
  5
EC
330
1E
100
AcDbEntity
  8
0
  6
CONTINUOUS
 62
     5
100
AcDbLine
 10
15.5695
 20
10.12499999999999
 30
0.0
 11
15.8685
 21
10.12499999999999
 31
0.0
  0
CIRCLE
  5
ED
330
1E
100
AcDbEntity
  8
0
  6
CONTINUOUS
 62
     5
100
AcDbCircle
 10
15.7185
 20
10.12499999999999
 30
0.0
 40
0.101
  0
LINE
  5
EE
330
1E
100
AcDbEntity
  8
0
  6
CONTINUOUS
 62
     5
100
AcDbLine
 10
15.7185
 20
9.976
 30
0.0
 11
15.7185
 21
10.276
 31
0.0
  0
ARC
  5
EF
330
1E
100
AcDbEntity
  8
0
  6
CONTINUOUS
 62
     5
100
AcDbCircle
 10
15.7185
 20
10.12499999999999
 30
0.0
 40
0.118
100
AcDbArc
 50
85.00000099999999
 51
5.0
  0
CIRCLE
  5
F0
330
1E
100
AcDbEntity
  8
0
  6
CONTINUOUS
 62
     5
100
AcDbCircle
 10
15.7185
 20
10.12499999999999
 30
0.0
 40
0.125
  0
LINE
  5
F1
330
1E
100
AcDbEntity
  8
0
  6
CONTINUOUS
 62
     5
100
AcDbLine
 10
15.2065
 20
11.188
 30
0.0
 11
15.7315
 21
11.188
 31
0.0
  0
LINE
  5
F2
330
1E
100
AcDbEntity
  8
0
  6
CONTINUOUS
 62
     5
100
AcDbLine
 10
14.8755
 20
10.519
 30
0.0
 11
14.8755
 21
11.045
 31
0.0
  0
CIRCLE
  5
F3
330
1E
100
AcDbEntity
  8
0
  6
CONTINUOUS
 62
     5
100
AcDbCircle
 10
13.90649999999999
 20
10.12499999999999
 30
0.0
 40
0.101
  0
LINE
  5
F4
330
1E
100
AcDbEntity
  8
0
  6
CONTINUOUS
 62
     5
100
AcDbLine
 10
13.7565
 20
10.12499999999999
 30
0.0
 11
14.0565
 21
10.12499999999999
 31
0.0
  0
LINE
  5
F5
330
1E
100
AcDbEntity
  8
0
  6
CONTINUOUS
 62
     5
100
AcDbLine
 10
13.90649999999999
 20
9.976
 30
0.0
 11
13.90649999999999
 21
10.275
 31
0.0
  0
ARC
  5
F6
330
1E
100
AcDbEntity
  8
0
  6
CONTINUOUS
 62
     5
100
AcDbCircle
 10
13.90649999999999
 20
10.12499999999999
 30
0.0
 40
0.118
100
AcDbArc
 50
85.00000099999999
 51
5.0
  0
CIRCLE
  5
F7
330
1E
100
AcDbEntity
  8
0
  6
CONTINUOUS
 62
     5
100
AcDbCircle
 10
13.90649999999999
 20
10.12499999999999
 30
0.0
 40
0.125
  0
LINE
  5
F8
330
1E
100
AcDbEntity
  8
0
  6
CONTINUOUS
 62
     5
100
AcDbLine
 10
14.6125
 20
10.782
 30
0.0
 11
15.1385
 21
10.782
 31
0.0
  0
CIRCLE
  5
F9
330
1E
100
AcDbEntity
  8
0
  6
CONTINUOUS
 62
     5
100
AcDbCircle
 10
14.8755
 20
10.782
 30
0.0
 40
0.219
  0
TEXT
  5
FA
330
1E
100
AcDbEntity
  8
0
 62
     5
100
AcDbText
 10
16.1580805
 20
5.917570999999999
 30
0.0
 40
0.2125
  1
B
 41
0.825
 72
     4
 11
16.216518
 21
6.023820999999999
 31
0.0
100
AcDbText
  0
TEXT
  5
FB
330
1E
100
AcDbEntity
  8
0
 62
     5
100
AcDbText
 10
8.753250000000001
 20
9.454270499999999
 30
0.0
 40
0.2125
  1
P
 50
270.0
 41
0.825
 72
     4
 11
8.8595
 21
9.395832999999999
 31
0.0
100
AcDbText
  0
CIRCLE
  5
FC
330
1E
100
AcDbEntity
  8
0
  6
CONTINUOUS
 62
     5
100
AcDbCircle
 10
15.5005
 20
5.437
 30
0.0
 40
0.156
  0
ARC
  5
FD
330
1E
100
AcDbEntity
  8
0
  6
CONTINUOUS
 62
     5
100
AcDbCircle
 10
15.5005
 20
5.437
 30
0.0
 40
0.183
100
AcDbArc
 50
85.00000099999999
 51
5.0
  0
CIRCLE
  5
FE
330
1E
100
AcDbEntity
  8
0
  6
CONTINUOUS
 62
     5
100
AcDbCircle
 10
15.5005
 20
5.437
 30
0.0
 40
0.188
  0
LINE
  5
FF
330
1E
100
AcDbEntity
  8
0
  6
CONTINUOUS
 62
     5
100
AcDbLine
 10
15.5005
 20
4.338
 30
0.0
 11
15.5005
 21
4.788
 31
0.0
  0
ARC
  5
100
330
1E
100
AcDbEntity
  8
0
  6
CONTINUOUS
 62
     5
100
AcDbCircle
 10
15.5005
 20
4.562999999999999
 30
0.0
 40
0.183
100
AcDbArc
 50
85.00000099999999
 51
5.0
  0
CIRCLE
  5
101
330
1E
100
AcDbEntity
  8
0
  6
CONTINUOUS
 62
     5
100
AcDbCircle
 10
15.5005
 20
4.562999999999999
 30
0.0
 40
0.156
  0
CIRCLE
  5
102
330
1E
100
AcDbEntity
  8
0
  6
CONTINUOUS
 62
     5
100
AcDbCircle
 10
15.5005
 20
4.562999999999999
 30
0.0
 40
0.188
  0
LINE
  5
103
330
1E
100
AcDbEntity
  8
0
  6
CONTINUOUS
 62
     5
100
AcDbLine
 10
15.27449999999999
 20
5.437
 30
0.0
 11
15.7245
 21
5.437
 31
0.0
  0
LINE
  5
104
330
1E
100
AcDbEntity
  8
0
  6
CONTINUOUS
 62
     5
100
AcDbLine
 10
15.27449999999999
 20
4.562999999999999
 30
0.0
 11
15.7255
 21
4.562999999999999
 31
0.0
  0
TEXT
  5
105
330
1E
100
AcDbEntity
  8
0
 62
     5
100
AcDbText
 10
16.1580805
 20
3.039098999999999
 30
0.0
 40
0.2125
  1
A
 41
0.825
 72
     4
 11
16.216518
 21
3.145348999999999
 31
0.0
100
AcDbText
  0
ARC
  5
106
330
1E
100
AcDbEntity
  8
0
  6
CONTINUOUS
 62
     5
100
AcDbCircle
 10
16.5625
 20
3.875
 30
0.0
 40
0.283
100
AcDbArc
 50
85.00000099999999
 51
5.0
  0
CIRCLE
  5
107
330
1E
100
AcDbEntity
  8
0
  6
CONTINUOUS
 62
     5
100
AcDbCircle
 10
16.5625
 20
3.875
 30
0.0
 40
0.242
  0
CIRCLE
  5
108
330
1E
100
AcDbEntity
  8
0
  6
CONTINUOUS
 62
     5
100
AcDbCircle
 10
16.5625
 20
3.875
 30
0.0
 40
0.254
  0
CIRCLE
  5
109
330
1E
100
AcDbEntity
  8
0
  6
CONTINUOUS
 62
     5
100
AcDbCircle
 10
16.5625
 20
3.875
 30
0.0
 40
0.281
  0
CIRCLE
  5
10A
330
1E
100
AcDbEntity
  8
0
  6
CONTINUOUS
 62
     5
100
AcDbCircle
 10
16.5625
 20
3.875
 30
0.0
 40
0.307
  0
LINE
  5
10B
330
1E
100
AcDbEntity
  8
0
  6
CONTINUOUS
 62
     5
100
AcDbLine
 10
15.9725
 20
3.875
 30
0.0
 11
17.1535
 21
3.875
 31
0.0
  0
LINE
  5
10C
330
1E
100
AcDbEntity
  8
0
  6
CONTINUOUS
 62
     5
100
AcDbLine
 10
15.27449999999999
 20
2.936999999999999
 30
0.0
 11
15.7245
 21
2.936999999999999
 31
0.0
  0
LINE
  5
10D
330
1E
100
AcDbEntity
  8
0
  6
CONTINUOUS
 62
     5
100
AcDbLine
 10
16.5625
 20
3.285
 30
0.0
 11
16.5625
 21
4.464999999999999
 31
0.0
  0
CIRCLE
  5
10E
330
1E
100
AcDbEntity
  8
0
  6
CONTINUOUS
 62
     5
100
AcDbCircle
 10
16.5625
 20
3.875
 30
0.0
 40
0.492
  0
LINE
  5
10F
330
1E
100
AcDbEntity
  8
0
  6
CONTINUOUS
 62
     5
100
AcDbLine
 10
14.5625
 20
4.549999999999999
 30
0.0
 11
14.5625
 21
5.45
 31
0.0
  0
LINE
  5
110
330
1E
100
AcDbEntity
  8
0
  6
CONTINUOUS
 62
     5
100
AcDbLine
 10
13.40049999999999
 20
5.437
 30
0.0
 11
13.8505
 21
5.437
 31
0.0
  0
CIRCLE
  5
111
330
1E
100
AcDbEntity
  8
0
  6
CONTINUOUS
 62
     5
100
AcDbCircle
 10
13.6255
 20
5.437
 30
0.0
 40
0.156
  0
ARC
  5
112
330
1E
100
AcDbEntity
  8
0
  6
CONTINUOUS
 62
     5
100
AcDbCircle
 10
13.6255
 20
5.437
 30
0.0
 40
0.183
100
AcDbArc
 50
85.00000099999999
 51
5.0
  0
CIRCLE
  5
113
330
1E
100
AcDbEntity
  8
0
  6
CONTINUOUS
 62
     5
100
AcDbCircle
 10
13.6255
 20
5.437
 30
0.0
 40
0.188
  0
LINE
  5
114
330
1E
100
AcDbEntity
  8
0
  6
CONTINUOUS
 62
     5
100
AcDbLine
 10
13.4015
 20
4.562999999999999
 30
0.0
 11
13.8505
 21
4.562999999999999
 31
0.0
  0
LINE
  5
115
330
1E
100
AcDbEntity
  8
0
  6
CONTINUOUS
 62
     5
100
AcDbLine
 10
13.6255
 20
4.338
 30
0.0
 11
13.6255
 21
4.788
 31
0.0
  0
ARC
  5
116
330
1E
100
AcDbEntity
  8
0
  6
CONTINUOUS
 62
     5
100
AcDbCircle
 10
13.6255
 20
4.562999999999999
 30
0.0
 40
0.183
100
AcDbArc
 50
85.00000099999999
 51
5.0
  0
CIRCLE
  5
117
330
1E
100
AcDbEntity
  8
0
  6
CONTINUOUS
 62
     5
100
AcDbCircle
 10
13.6255
 20
4.562999999999999
 30
0.0
 40
0.156
  0
CIRCLE
  5
118
330
1E
100
AcDbEntity
  8
0
  6
CONTINUOUS
 62
     5
100
AcDbCircle
 10
13.6255
 20
4.562999999999999
 30
0.0
 40
0.188
  0
CIRCLE
  5
119
330
1E
100
AcDbEntity
  8
0
  6
CONTINUOUS
 62
     5
100
AcDbCircle
 10
14.5625
 20
5.0
 30
0.0
 40
0.375
  0
LINE
  5
11A
330
1E
100
AcDbEntity
  8
0
  6
CONTINUOUS
 62
     5
100
AcDbLine
 10
13.40049999999999
 20
2.936999999999999
 30
0.0
 11
13.8505
 21
2.936999999999999
 31
0.0
  0
LINE
  5
11B
330
1E
100
AcDbEntity
  8
0
  6
CONTINUOUS
 62
     5
100
AcDbLine
 10
14.1125
 20
5.0
 30
0.0
 11
15.01249999999999
 21
5.0
 31
0.0
  0
LINE
  5
11C
330
1E
100
AcDbEntity
  8
0
  6
CONTINUOUS
 62
     5
100
AcDbLine
 10
15.49949999999999
 20
1.838
 30
0.0
 11
15.49949999999999
 21
2.287999999999999
 31
0.0
  0
ARC
  5
11D
330
1E
100
AcDbEntity
  8
0
  6
CONTINUOUS
 62
     5
100
AcDbCircle
 10
15.49949999999999
 20
2.063
 30
0.0
 40
0.183
100
AcDbArc
 50
85.00000099999999
 51
5.0
  0
CIRCLE
  5
11E
330
1E
100
AcDbEntity
  8
0
  6
CONTINUOUS
 62
     5
100
AcDbCircle
 10
15.49949999999999
 20
2.063
 30
0.0
 40
0.156
  0
CIRCLE
  5
11F
330
1E
100
AcDbEntity
  8
0
  6
CONTINUOUS
 62
     5
100
AcDbCircle
 10
15.49949999999999
 20
2.063
 30
0.0
 40
0.188
  0
LINE
  5
120
330
1E
100
AcDbEntity
  8
0
  6
CONTINUOUS
 62
     5
100
AcDbLine
 10
15.27449999999999
 20
2.063
 30
0.0
 11
15.7245
 21
2.063
 31
0.0
  0
LINE
  5
121
330
1E
100
AcDbEntity
  8
0
  6
CONTINUOUS
 62
     5
100
AcDbLine
 10
13.40049999999999
 20
2.063
 30
0.0
 11
13.8505
 21
2.063
 31
0.0
  0
LINE
  5
122
330
1E
100
AcDbEntity
  8
0
  6
CONTINUOUS
 62
     5
100
AcDbLine
 10
13.6255
 20
1.838
 30
0.0
 11
13.6255
 21
2.287999999999999
 31
0.0
  0
ARC
  5
123
330
1E
100
AcDbEntity
  8
0
  6
CONTINUOUS
 62
     5
100
AcDbCircle
 10
13.6255
 20
2.063
 30
0.0
 40
0.183
100
AcDbArc
 50
85.00000099999999
 51
5.0
  0
CIRCLE
  5
124
330
1E
100
AcDbEntity
  8
0
  6
CONTINUOUS
 62
     5
100
AcDbCircle
 10
13.6255
 20
2.063
 30
0.0
 40
0.156
  0
CIRCLE
  5
125
330
1E
100
AcDbEntity
  8
0
  6
CONTINUOUS
 62
     5
100
AcDbCircle
 10
13.6255
 20
2.063
 30
0.0
 40
0.188
  0
LINE
  5
126
330
1E
100
AcDbEntity
  8
0
  6
CONTINUOUS
 62
     5
100
AcDbLine
 10
14.1125
 20
2.5
 30
0.0
 11
15.01249999999999
 21
2.5
 31
0.0
  0
ARC
  5
127
330
1E
100
AcDbEntity
  8
0
  6
CONTINUOUS
 62
     5
100
AcDbCircle
 10
15.49949999999999
 20
2.936999999999999
 30
0.0
 40
0.183
100
AcDbArc
 50
85.00000099999999
 51
5.0
  0
CIRCLE
  5
128
330
1E
100
AcDbEntity
  8
0
  6
CONTINUOUS
 62
     5
100
AcDbCircle
 10
15.49949999999999
 20
2.936999999999999
 30
0.0
 40
0.156
  0
LINE
  5
129
330
1E
100
AcDbEntity
  8
0
  6
CONTINUOUS
 62
     5
100
AcDbLine
 10
15.49949999999999
 20
2.712
 30
0.0
 11
15.49949999999999
 21
3.161999999999999
 31
0.0
  0
CIRCLE
  5
12A
330
1E
100
AcDbEntity
  8
0
  6
CONTINUOUS
 62
     5
100
AcDbCircle
 10
15.49949999999999
 20
2.936999999999999
 30
0.0
 40
0.188
  0
LINE
  5
12B
330
1E
100
AcDbEntity
  8
0
  6
CONTINUOUS
 62
     5
100
AcDbLine
 10
14.5625
 20
2.049999999999999
 30
0.0
 11
14.5625
 21
2.95
 31
0.0
  0
ARC
  5
12C
330
1E
100
AcDbEntity
  8
0
  6
CONTINUOUS
 62
     5
100
AcDbCircle
 10
13.6255
 20
2.936999999999999
 30
0.0
 40
0.183
100
AcDbArc
 50
85.00000099999999
 51
5.0
  0
CIRCLE
  5
12D
330
1E
100
AcDbEntity
  8
0
  6
CONTINUOUS
 62
     5
100
AcDbCircle
 10
13.6255
 20
2.936999999999999
 30
0.0
 40
0.156
  0
LINE
  5
12E
330
1E
100
AcDbEntity
  8
0
  6
CONTINUOUS
 62
     5
100
AcDbLine
 10
13.6255
 20
2.712
 30
0.0
 11
13.6255
 21
3.161999999999999
 31
0.0
  0
CIRCLE
  5
12F
330
1E
100
AcDbEntity
  8
0
  6
CONTINUOUS
 62
     5
100
AcDbCircle
 10
13.6255
 20
2.936999999999999
 30
0.0
 40
0.188
  0
CIRCLE
  5
130
330
1E
100
AcDbEntity
  8
0
  6
CONTINUOUS
 62
     5
100
AcDbCircle
 10
14.5625
 20
2.5
 30
0.0
 40
0.375
  0
TEXT
  5
131
330
1E
100
AcDbEntity
  8
0
 62
     5
100
AcDbText
 10
12.6561
 20
3.027915
 30
0.0
 40
0.1872
  1
DAMAN ****
 50
90.0
 41
0.825
 72
     4
 11
12.5625
 21
3.774375
 31
0.0
100
AcDbText
  0
LINE
  5
132
330
1E
100
AcDbEntity
  8
0
  6
CONTINUOUS
 62
     5
100
AcDbLine
 10
15.5005
 20
5.211999999999999
 30
0.0
 11
15.5005
 21
5.661999999999999
 31
0.0
  0
LINE
  5
133
330
1E
100
AcDbEntity
  8
0
  6
CONTINUOUS
 62
     5
100
AcDbLine
 10
13.6255
 20
5.211999999999999
 30
0.0
 11
13.6255
 21
5.661999999999999
 31
0.0
  0
LINE
  5
134
330
1E
100
AcDbEntity
  8
0
  6
CONTINUOUS
 62
     5
100
AcDbLine
 10
12.1875
 20
1.375
 30
0.0
 11
12.1875
 21
6.375
 31
0.0
  0
LINE
  5
135
330
1E
100
AcDbEntity
  8
0
  6
CONTINUOUS
 62
     5
100
AcDbLine
 10
8.124499999999999
 20
10.52499999999999
 30
0.0
 11
8.124499999999999
 21
10.97499999999999
 31
0.0
  0
CIRCLE
  5
136
330
1E
100
AcDbEntity
  8
0
  6
CONTINUOUS
 62
     5
100
AcDbCircle
 10
8.124499999999999
 20
10.74999999999999
 30
0.0
 40
0.156
  0
LINE
  5
137
330
1E
100
AcDbEntity
  8
0
  6
CONTINUOUS
 62
     5
100
AcDbLine
 10
7.899499999999999
 20
10.74999999999999
 30
0.0
 11
8.3495
 21
10.74999999999999
 31
0.0
  0
ARC
  5
138
330
1E
100
AcDbEntity
  8
0
  6
CONTINUOUS
 62
     5
100
AcDbCircle
 10
8.124499999999999
 20
10.74999999999999
 30
0.0
 40
0.183
100
AcDbArc
 50
85.00000099999999
 51
5.0
  0
CIRCLE
  5
139
330
1E
100
AcDbEntity
  8
0
  6
CONTINUOUS
 62
     5
100
AcDbCircle
 10
8.124499999999999
 20
10.74999999999999
 30
0.0
 40
0.188
  0
LINE
  5
13A
330
1E
100
AcDbEntity
  8
0
  6
CONTINUOUS
 62
     5
100
AcDbLine
 10
6.737499999999999
 20
10.313
 30
0.0
 11
7.6375
 21
10.313
 31
0.0
  0
LINE
  5
13B
330
1E
100
AcDbEntity
  8
0
  6
CONTINUOUS
 62
     5
100
AcDbLine
 10
7.899499999999999
 20
9.875999999999999
 30
0.0
 11
8.3495
 21
9.875999999999999
 31
0.0
  0
LINE
  5
13C
330
1E
100
AcDbEntity
  8
0
  6
CONTINUOUS
 62
     5
100
AcDbLine
 10
8.124499999999999
 20
9.650999999999999
 30
0.0
 11
8.124499999999999
 21
10.101
 31
0.0
  0
CIRCLE
  5
13D
330
1E
100
AcDbEntity
  8
0
  6
CONTINUOUS
 62
     5
100
AcDbCircle
 10
8.124499999999999
 20
9.875999999999999
 30
0.0
 40
0.156
  0
ARC
  5
13E
330
1E
100
AcDbEntity
  8
0
  6
CONTINUOUS
 62
     5
100
AcDbCircle
 10
8.124499999999999
 20
9.875999999999999
 30
0.0
 40
0.183
100
AcDbArc
 50
85.00000099999999
 51
5.0
  0
CIRCLE
  5
13F
330
1E
100
AcDbEntity
  8
0
  6
CONTINUOUS
 62
     5
100
AcDbCircle
 10
8.124499999999999
 20
9.875999999999999
 30
0.0
 40
0.188
  0
LINE
  5
140
330
1E
100
AcDbEntity
  8
0
  6
CONTINUOUS
 62
     5
100
AcDbLine
 10
7.1875
 20
9.862999999999999
 30
0.0
 11
7.1875
 21
10.763
 31
0.0
  0
CIRCLE
  5
141
330
1E
100
AcDbEntity
  8
0
  6
CONTINUOUS
 62
     5
100
AcDbCircle
 10
7.1875
 20
10.313
 30
0.0
 40
0.375
  0
LINE
  5
142
330
1E
100
AcDbEntity
  8
0
  6
CONTINUOUS
 62
     5
100
AcDbLine
 10
6.250499999999999
 20
10.52499999999999
 30
0.0
 11
6.250499999999999
 21
10.97499999999999
 31
0.0
  0
CIRCLE
  5
143
330
1E
100
AcDbEntity
  8
0
  6
CONTINUOUS
 62
     5
100
AcDbCircle
 10
6.250499999999999
 20
10.74999999999999
 30
0.0
 40
0.156
  0
LINE
  5
149
330
1E
100
AcDbEntity
  8
0
  6
CONTINUOUS
 62
     5
100
AcDbLine
 10
6.250499999999999
 20
9.650999999999999
 30
0.0
 11
6.250499999999999
 21
10.101
 31
0.0
  0
CIRCLE
  5
14A
330
1E
100
AcDbEntity
  8
0
  6
CONTINUOUS
 62
     5
100
AcDbCircle
 10
6.250499999999999
 20
9.875999999999999
 30
0.0
 40
0.156
  0
ARC
  5
14B
330
1E
100
AcDbEntity
  8
0
  6
CONTINUOUS
 62
     5
100
AcDbCircle
 10
6.250499999999999
 20
10.74999999999999
 30
0.0
 40
0.183
100
AcDbArc
 50
85.00000099999999
 51
5.0
  0
CIRCLE
  5
14C
330
1E
100
AcDbEntity
  8
0
  6
CONTINUOUS
 62
     5
100
AcDbCircle
 10
6.250499999999999
 20
10.74999999999999
 30
0.0
 40
0.188
  0
LINE
  5
14D
330
1E
100
AcDbEntity
  8
0
  6
CONTINUOUS
 62
     5
100
AcDbLine
 10
6.0255
 20
10.74999999999999
 30
0.0
 11
6.4755
 21
10.74999999999999
 31
0.0
  0
LINE
  5
14E
330
1E
100
AcDbEntity
  8
0
  6
CONTINUOUS
 62
     5
100
AcDbLine
 10
6.0265
 20
9.875999999999999
 30
0.0
 11
6.4755
 21
9.875999999999999
 31
0.0
  0
ARC
  5
14F
330
1E
100
AcDbEntity
  8
0
  6
CONTINUOUS
 62
     5
100
AcDbCircle
 10
6.250499999999999
 20
9.875999999999999
 30
0.0
 40
0.183
100
AcDbArc
 50
85.00000099999999
 51
5.0
  0
CIRCLE
  5
150
330
1E
100
AcDbEntity
  8
0
  6
CONTINUOUS
 62
     5
100
AcDbCircle
 10
6.250499999999999
 20
9.875999999999999
 30
0.0
 40
0.188
  0
LINE
  5
151
330
1E
100
AcDbEntity
  8
0
  6
CONTINUOUS
 62
     5
100
AcDbLine
 10
9.6875
 20
8.875
 30
0.0
 11
4.6875
 21
8.875
 31
0.0
  0
LINE
  5
152
330
1E
100
AcDbEntity
  8
0
  6
CONTINUOUS
 62
     5
100
AcDbLine
 10
14.87449999999999
 20
11.33099999999999
 30
0.0
 11
14.87449999999999
 21
11.85699999999999
 31
0.0
  0
CIRCLE
  5
153
330
1E
100
AcDbEntity
  8
0
  6
CONTINUOUS
 62
     5
100
AcDbCircle
 10
14.87449999999999
 20
11.59399999999999
 30
0.0
 40
0.219
  0
LINE
  5
154
330
1E
100
AcDbEntity
  8
0
  6
CONTINUOUS
 62
     5
100
AcDbLine
 10
15.4685
 20
10.925
 30
0.0
 11
15.4685
 21
11.451
 31
0.0
  0
CIRCLE
  5
155
330
1E
100
AcDbEntity
  8
0
  6
CONTINUOUS
 62
     5
100
AcDbCircle
 10
15.4685
 20
11.188
 30
0.0
 40
0.219
  0
LINE
  5
156
330
1E
100
AcDbEntity
  8
0
  6
CONTINUOUS
 62
     5
100
AcDbLine
 10
9.6875
 20
13.875
 30
0.0
 11
9.6875
 21
8.875
 31
0.0
  0
LINE
  5
157
330
1E
100
AcDbEntity
  8
0
  6
HIDDEN
 62
     5
100
AcDbLine
 10
4.6875
 20
8.875
 30
0.0
 11
4.6875
 21
13.875
 31
0.0
  0
LINE
  5
158
330
1E
100
AcDbEntity
  8
0
  6
CONTINUOUS
 62
     5
100
AcDbLine
 10
12.1875
 20
13.875
 30
0.0
 11
12.1875
 21
8.875
 31
0.0
  0
LINE
  5
159
330
1E
100
AcDbEntity
  8
0
  6
CONTINUOUS
 62
     5
100
AcDbLine
 10
12.1875
 20
6.375
 30
0.0
 11
22.1875
 21
6.375
 31
0.0
  0
LINE
  5
15A
330
1E
100
AcDbEntity
  8
0
  6
CONTINUOUS
 62
     5
100
AcDbLine
 10
22.1875
 20
1.375
 30
0.0
 11
12.1875
 21
1.375
 31
0.0
  0
LINE
  5
15B
330
1E
100
AcDbEntity
  8
0
  6
CONTINUOUS
 62
     5
100
AcDbLine
 10
22.1875
 20
13.875
 30
0.0
 11
12.1875
 21
13.875
 31
0.0
  0
LINE
  5
15C
330
1E
100
AcDbEntity
  8
0
  6
CONTINUOUS
 62
     5
100
AcDbLine
 10
12.1875
 20
8.875
 30
0.0
 11
22.1875
 21
8.875
 31
0.0
  0
INSERT
  5
1A6
330
1E
100
AcDbEntity
  8
0
  6
CONTINUOUS
100
AcDbBlockReference
  2
A$C35B97E9B
 10
4.6875
 20
13.875
 30
0.0
  0
INSERT
  5
1AB
330
1E
100
AcDbEntity
  8
0
  6
CONTINUOUS
100
AcDbBlockReference
  2
A$C07E61A62
 10
29.6875
 20
13.875
 30
0.0
  0
INSERT
  5
1DD
330
1E
100
AcDbEntity
  8
0
  6
CONTINUOUS
100
AcDbBlockReference
  2
A$C443F27A8
 10
12.1875
 20
13.875
 30
0.0
  0
INSERT
  5
1E2
330
1E
100
AcDbEntity
  8
0
  6
CONTINUOUS
100
AcDbBlockReference
  2
A$C13D55162
 10
22.1875
 20
13.875
 30
0.0
  0
INSERT
  5
20F
330
1E
100
AcDbEntity
  8
0
  6
CONTINUOUS
100
AcDbBlockReference
  2
A$C745A2248
 10
12.1875
 20
1.375
 30
0.0
  0
INSERT
  5
214
330
1E
100
AcDbEntity
  8
0
  6
CONTINUOUS
100
AcDbBlockReference
  2
A$C16F234C8
 10
22.1875
 20
1.375
 30
0.0
  0
ENDSEC
  0
SECTION
  2
OBJECTS
  0
DICTIONARY
  5
C
330
0
100
AcDbDictionary
  3
ACAD_GROUP
350
D
  3
ACAD_LAYOUT
350
19
  3
ACAD_MLINESTYLE
350
16
  3
ACAD_PLOTSETTINGS
350
18
  3
ACAD_PLOTSTYLENAME
350
E
  3
ACDBHEADERROUNDTRIPXREC
350
216
  0
DICTIONARY
  5
238
330
1E
100
AcDbDictionary
280
     1
  3
ACAD_LAYOUTSELFREF
360
239
  0
DICTIONARY
  5
236
330
1A
100
AcDbDictionary
280
     1
  3
ACAD_LAYOUTSELFREF
360
237
  0
DICTIONARY
  5
D
102
{ACAD_REACTORS
330
C
102
}
330
C
100
AcDbDictionary
  0
DICTIONARY
  5
19
102
{ACAD_REACTORS
330
C
102
}
330
C
100
AcDbDictionary
  0
DICTIONARY
  5
16
102
{ACAD_REACTORS
330
C
102
}
330
C
100
AcDbDictionary
  3
STANDARD
350
17
  0
DICTIONARY
  5
18
102
{ACAD_REACTORS
330
C
102
}
330
C
100
AcDbDictionary
  0
ACDBDICTIONARYWDFLT
  5
E
102
{ACAD_REACTORS
330
C
102
}
330
C
100
AcDbDictionary
281
     1
  3
Normal
350
F
100
AcDbDictionaryWithDefault
340
F
  0
DICTIONARY
  5
216
102
{ACAD_REACTORS
330
C
102
}
330
C
100
AcDbDictionary
  3
CEPSNTYPE
350
220
  3
FINGERPRINTGUID
350
221
  3
HYPERLINKBASE
350
219
  3
INSUNITS
350
21F
  3
LAYOUTDICT
350
21B
  3
LWETCUNION
350
21E
  3
PLOTSETDICT
350
21C
  3
PLOTSTYLNAMDICT
350
21D
  3
PSVPSCALE
350
223
  3
PUCSBASE
350
226
  3
PUCSORGBACK
350
22C
  3
PUCSORGBOTTOM
350
228
  3
PUCSORGFRONT
350
22B
  3
PUCSORGLEFT
350
229
  3
PUCSORGRIGHT
350
22A
  3
PUCSORGTOP
350
227
  3
PUCSORTHOREF
350
224
  3
PUCSORTHOVIEW
350
225
  3
STYLESHEET
350
21A
  3
TSTACKALIGN
350
217
  3
TSTACKSIZE
350
218
  3
UCSBASE
350
22F
  3
UCSORGBACK
350
235
  3
UCSORGBOTTOM
350
231
  3
UCSORGFRONT
350
234
  3
UCSORGLEFT
350
232
  3
UCSORGRIGHT
350
233
  3
UCSORGTOP
350
230
  3
UCSORTHOREF
350
22D
  3
UCSORTHOVIEW
350
22E
  3
VERSIONGUID
350
222
  0
XRECORD
  5
239
102
{ACAD_REACTORS
330
238
102
}
330
238
100
AcDbXrecord
340
1E
  0
XRECORD
  5
237
102
{ACAD_REACTORS
330
236
102
}
330
236
100
AcDbXrecord
340
1A
  0
MLINESTYLE
  5
17
102
{ACAD_REACTORS
330
16
102
}
330
16
100
AcDbMlineStyle
  2
STANDARD
 70
     0
  3

 62
   256
 51
90.0
 52
90.0
 71
     2
 49
0.5
 62
   256
  6
BYLAYER
 49
-0.5
 62
   256
  6
BYLAYER
  0
ACDBPLACEHOLDER
  5
F
102
{ACAD_REACTORS
330
E
102
}
330
E
100
AcDbPlaceHolder
280
     0
  0
XRECORD
  5
220
102
{ACAD_REACTORS
330
216
102
}
330
216
100
AcDbXrecord
 90
        0
  0
XRECORD
  5
221
102
{ACAD_REACTORS
330
216
102
}
330
216
100
AcDbXrecord
  1
{1FF7A2E8-995D-4686-8F3F-9E2044118B8C}
  0
XRECORD
  5
219
102
{ACAD_REACTORS
330
216
102
}
330
216
100
AcDbXrecord
  1

  0
XRECORD
  5
21F
102
{ACAD_REACTORS
330
216
102
}
330
216
100
AcDbXrecord
 90
        0
  0
XRECORD
  5
21B
102
{ACAD_REACTORS
330
216
102
}
330
216
100
AcDbXrecord
340
19
  0
XRECORD
  5
21E
102
{ACAD_REACTORS
330
216
102
}
330
216
100
AcDbXrecord
 90
    10781
  0
XRECORD
  5
21C
102
{ACAD_REACTORS
330
216
102
}
330
216
100
AcDbXrecord
340
18
  0
XRECORD
  5
21D
102
{ACAD_REACTORS
330
216
102
}
330
216
100
AcDbXrecord
340
E
  0
XRECORD
  5
223
102
{ACAD_REACTORS
330
216
102
}
330
216
100
AcDbXrecord
 40
0.0
  0
XRECORD
  5
226
102
{ACAD_REACTORS
330
216
102
}
330
216
100
AcDbXrecord
340
0
  0
XRECORD
  5
22C
102
{ACAD_REACTORS
330
216
102
}
330
216
100
AcDbXrecord
 10
0.0
 20
0.0
 30
0.0
  0
XRECORD
  5
228
102
{ACAD_REACTORS
330
216
102
}
330
216
100
AcDbXrecord
 10
0.0
 20
0.0
 30
0.0
  0
XRECORD
  5
22B
102
{ACAD_REACTORS
330
216
102
}
330
216
100
AcDbXrecord
 10
0.0
 20
0.0
 30
0.0
  0
XRECORD
  5
229
102
{ACAD_REACTORS
330
216
102
}
330
216
100
AcDbXrecord
 10
0.0
 20
0.0
 30
0.0
  0
XRECORD
  5
22A
102
{ACAD_REACTORS
330
216
102
}
330
216
100
AcDbXrecord
 10
0.0
 20
0.0
 30
0.0
  0
XRECORD
  5
227
102
{ACAD_REACTORS
330
216
102
}
330
216
100
AcDbXrecord
 10
0.0
 20
0.0
 30
0.0
  0
XRECORD
  5
224
102
{ACAD_REACTORS
330
216
102
}
330
216
100
AcDbXrecord
340
0
  0
XRECORD
  5
225
102
{ACAD_REACTORS
330
216
102
}
330
216
100
AcDbXrecord
 70
     0
  0
XRECORD
  5
21A
102
{ACAD_REACTORS
330
216
102
}
330
216
100
AcDbXrecord
  1

  0
XRECORD
  5
217
102
{ACAD_REACTORS
330
216
102
}
330
216
100
AcDbXrecord
 90
        1
  0
XRECORD
  5
218
102
{ACAD_REACTORS
330
216
102
}
330
216
100
AcDbXrecord
 90
       70
  0
XRECORD
  5
22F
102
{ACAD_REACTORS
330
216
102
}
330
216
100
AcDbXrecord
340
0
  0
XRECORD
  5
235
102
{ACAD_REACTORS
330
216
102
}
330
216
100
AcDbXrecord
 10
0.0
 20
0.0
 30
0.0
  0
XRECORD
  5
231
102
{ACAD_REACTORS
330
216
102
}
330
216
100
AcDbXrecord
 10
0.0
 20
0.0
 30
0.0
  0
XRECORD
  5
234
102
{ACAD_REACTORS
330
216
102
}
330
216
100
AcDbXrecord
 10
0.0
 20
0.0
 30
0.0
  0
XRECORD
  5
232
102
{ACAD_REACTORS
330
216
102
}
330
216
100
AcDbXrecord
 10
0.0
 20
0.0
 30
0.0
  0
XRECORD
  5
233
102
{ACAD_REACTORS
330
216
102
}
330
216
100
AcDbXrecord
 10
0.0
 20
0.0
 30
0.0
  0
XRECORD
  5
230
102
{ACAD_REACTORS
330
216
102
}
330
216
100
AcDbXrecord
 10
0.0
 20
0.0
 30
0.0
  0
XRECORD
  5
22D
102
{ACAD_REACTORS
330
216
102
}
330
216
100
AcDbXrecord
340
0
  0
XRECORD
  5
22E
102
{ACAD_REACTORS
330
216
102
}
330
216
100
AcDbXrecord
 70
     0
  0
XRECORD
  5
222
102
{ACAD_REACTORS
330
216
102
}
330
216
100
AcDbXrecord
  1
{32F3B3F4-88B2-4F54-8894-8A1AED75D7A7}
  0
ENDSEC
  0
EOF
