  0
SECTION
  2
HEADER
  9
$ACADVER
  1
AC1014
  9
$ACADMAINTVER
 70
     9
  9
$DWGCODEPAGE
  3
ANSI_1252
  9
$INSBASE
 10
0.0
 20
0.0
 30
0.0
  9
$EXTMIN
 10
-0.562659861762846
 20
-0.5625530583883532
 30
-0.0015258207003583
  9
$EXTMAX
 10
17.81259282000198
 20
17.5625531427848
 30
0.0000000349246037
  9
$LIMMIN
 10
0.0
 20
0.0
  9
$LIMMAX
 10
12.0
 20
9.0
  9
$ORTHOMODE
 70
     0
  9
$REGENMODE
 70
     1
  9
$FILLMODE
 70
     1
  9
$QTEXTMODE
 70
     0
  9
$MIRRTEXT
 70
     1
  9
$DRAGMODE
 70
     2
  9
$LTSCALE
 40
1.0
  9
$OSMODE
 70
    37
  9
$ATTMODE
 70
     1
  9
$TEXTSIZE
 40
0.2
  9
$TRACEWID
 40
0.05
  9
$TEXTSTYLE
  7
STANDARD
  9
$CLAYER
  8
DAMAN
  9
$CELTYPE
  6
BYLAYER
  9
$CECOLOR
 62
   256
  9
$CELTSCALE
 40
1.0
  9
$DELOBJ
 70
     1
  9
$DISPSILH
 70
     0
  9
$DIMSCALE
 40
1.0
  9
$DIMASZ
 40
0.18
  9
$DIMEXO
 40
0.0625
  9
$DIMDLI
 40
0.38
  9
$DIMRND
 40
0.0
  9
$DIMDLE
 40
0.0
  9
$DIMEXE
 40
0.18
  9
$DIMTP
 40
0.0
  9
$DIMTM
 40
0.0
  9
$DIMTXT
 40
0.18
  9
$DIMCEN
 40
0.09
  9
$DIMTSZ
 40
0.0
  9
$DIMTOL
 70
     0
  9
$DIMLIM
 70
     0
  9
$DIMTIH
 70
     1
  9
$DIMTOH
 70
     1
  9
$DIMSE1
 70
     0
  9
$DIMSE2
 70
     0
  9
$DIMTAD
 70
     0
  9
$DIMZIN
 70
     0
  9
$DIMBLK
  1

  9
$DIMASO
 70
     1
  9
$DIMSHO
 70
     1
  9
$DIMPOST
  1

  9
$DIMAPOST
  1

  9
$DIMALT
 70
     0
  9
$DIMALTD
 70
     2
  9
$DIMALTF
 40
25.4
  9
$DIMLFAC
 40
1.0
  9
$DIMTOFL
 70
     0
  9
$DIMTVP
 40
0.0
  9
$DIMTIX
 70
     0
  9
$DIMSOXD
 70
     0
  9
$DIMSAH
 70
     0
  9
$DIMBLK1
  1

  9
$DIMBLK2
  1

  9
$DIMSTYLE
  2
STANDARD
  9
$DIMCLRD
 70
     0
  9
$DIMCLRE
 70
     0
  9
$DIMCLRT
 70
     0
  9
$DIMTFAC
 40
1.0
  9
$DIMGAP
 40
0.09
  9
$DIMJUST
 70
     0
  9
$DIMSD1
 70
     0
  9
$DIMSD2
 70
     0
  9
$DIMTOLJ
 70
     1
  9
$DIMTZIN
 70
     0
  9
$DIMALTZ
 70
     0
  9
$DIMALTTZ
 70
     0
  9
$DIMFIT
 70
     3
  9
$DIMUPT
 70
     0
  9
$DIMUNIT
 70
     2
  9
$DIMDEC
 70
     4
  9
$DIMTDEC
 70
     4
  9
$DIMALTU
 70
     2
  9
$DIMALTTD
 70
     2
  9
$DIMTXSTY
  7
STANDARD
  9
$DIMAUNIT
 70
     0
  9
$LUNITS
 70
     2
  9
$LUPREC
 70
     4
  9
$SKETCHINC
 40
0.1
  9
$FILLETRAD
 40
0.0
  9
$AUNITS
 70
     0
  9
$AUPREC
 70
     0
  9
$MENU
  1
tom
  9
$ELEVATION
 40
0.0
  9
$PELEVATION
 40
0.0
  9
$THICKNESS
 40
0.0
  9
$LIMCHECK
 70
     0
  9
$BLIPMODE
 70
     0
  9
$CHAMFERA
 40
0.0
  9
$CHAMFERB
 40
0.0
  9
$CHAMFERC
 40
0.0
  9
$CHAMFERD
 40
0.0
  9
$SKPOLY
 70
     0
  9
$TDCREATE
 40
2449805.113356955
  9
$TDUPDATE
 40
2453416.366422581
  9
$TDINDWG
 40
0.0003949653
  9
$TDUSRTIMER
 40
0.0003949653
  9
$USRTIMER
 70
     1
  9
$ANGBASE
 50
0.0
  9
$ANGDIR
 70
     0
  9
$PDMODE
 70
     0
  9
$PDSIZE
 40
0.0
  9
$PLINEWID
 40
0.0
  9
$COORDS
 70
     1
  9
$SPLFRAME
 70
     0
  9
$SPLINETYPE
 70
     6
  9
$SPLINESEGS
 70
     8
  9
$ATTDIA
 70
     0
  9
$ATTREQ
 70
     1
  9
$HANDLING
 70
-16383
  9
$HANDSEED
  5
425
  9
$SURFTAB1
 70
     6
  9
$SURFTAB2
 70
     6
  9
$SURFTYPE
 70
     6
  9
$SURFU
 70
     6
  9
$SURFV
 70
     6
  9
$UCSNAME
  2

  9
$UCSORG
 10
0.0
 20
0.0
 30
0.0
  9
$UCSXDIR
 10
1.0
 20
0.0
 30
0.0
  9
$UCSYDIR
 10
0.0
 20
1.0
 30
0.0
  9
$PUCSNAME
  2

  9
$PUCSORG
 10
0.0
 20
0.0
 30
0.0
  9
$PUCSXDIR
 10
1.0
 20
0.0
 30
0.0
  9
$PUCSYDIR
 10
0.0
 20
1.0
 30
0.0
  9
$USERI1
 70
     0
  9
$USERI2
 70
     0
  9
$USERI3
 70
     0
  9
$USERI4
 70
     0
  9
$USERI5
 70
     0
  9
$USERR1
 40
0.0
  9
$USERR2
 40
0.0
  9
$USERR3
 40
0.0
  9
$USERR4
 40
0.0
  9
$USERR5
 40
0.0
  9
$WORLDVIEW
 70
     1
  9
$SHADEDGE
 70
     3
  9
$SHADEDIF
 70
    70
  9
$TILEMODE
 70
     1
  9
$MAXACTVP
 70
    16
  9
$PINSBASE
 10
0.0
 20
0.0
 30
0.0
  9
$PLIMCHECK
 70
     0
  9
$PEXTMIN
 10
1.000000000000000E+20
 20
1.000000000000000E+20
 30
1.000000000000000E+20
  9
$PEXTMAX
 10
-1.000000000000000E+20
 20
-1.000000000000000E+20
 30
-1.000000000000000E+20
  9
$PLIMMIN
 10
0.0
 20
0.0
  9
$PLIMMAX
 10
12.0
 20
9.0
  9
$UNITMODE
 70
     0
  9
$VISRETAIN
 70
     0
  9
$PLINEGEN
 70
     0
  9
$PSLTSCALE
 70
     1
  9
$TREEDEPTH
 70
  3020
  9
$PICKSTYLE
 70
     1
  9
$CMLSTYLE
  2
STANDARD
  9
$CMLJUST
 70
     0
  9
$CMLSCALE
 40
1.0
  9
$PROXYGRAPHICS
 70
     1
  9
$MEASUREMENT
 70
     0
  0
ENDSEC
  0
SECTION
  2
CLASSES
  0
CLASS
  1
ACDBDICTIONARYWDFLT
  2
AcDbDictionaryWithDefault
  3
AutoCAD 2000
 90
        0
280
     0
281
     0
  0
CLASS
  1
ACDBPLACEHOLDER
  2
AcDbPlaceHolder
  3
AutoCAD 2000
 90
        0
280
     0
281
     0
  0
CLASS
  1
LAYOUT
  2
AcDbLayout
  3
AutoCAD 2000
 90
        0
280
     0
281
     0
  0
CLASS
  1
LONG_TRANSACTION
  2
AcDbLongTransaction
  3
AutoCAD 2000
 90
        0
280
     0
281
     0
  0
CLASS
  1
LWPOLYLINE
  2
AcDbPolyline
  3
AutoCAD 2000
 90
        0
280
     0
281
     1
  0
CLASS
  1
HATCH
  2
AcDbHatch
  3
AutoCAD 2000
 90
        0
280
     0
281
     1
  0
CLASS
  1
XRECORD
  2
AcDbXrecord
  3
AutoCAD 2000
 90
        0
280
     0
281
     0
  0
ENDSEC
  0
SECTION
  2
TABLES
  0
TABLE
  2
VPORT
  5
219
330
0
100
AcDbSymbolTable
 70
     4
  0
VPORT
  5
400
330
219
100
AcDbSymbolTableRecord
100
AcDbViewportTableRecord
  2
*ACTIVE
 70
     0
 10
0.0
 20
0.0
 11
1.0
 21
1.0
 12
8.624966479119567
 22
8.500000042198225
 13
0.0
 23
0.0
 14
0.03125
 24
0.03125
 15
0.0
 25
0.0
 16
0.0
 26
0.0
 36
1.0
 17
0.0
 27
0.0
 37
0.0
 40
18.31358217553544
 41
1.647569444444444
 42
50.0
 43
0.0
 44
0.0
 50
0.0
 51
0.0
 71
     0
 72
   100
 73
     1
 74
     1
 75
     1
 76
     0
 77
     0
 78
     0
  0
ENDTAB
  0
TABLE
  2
LTYPE
  5
216
330
0
100
AcDbSymbolTable
 70
     5
  0
LTYPE
  5
224
330
216
100
AcDbSymbolTableRecord
100
AcDbLinetypeTableRecord
  2
BYBLOCK
 70
     0
  3

 72
    65
 73
     0
 40
0.0
  0
LTYPE
  5
225
330
216
100
AcDbSymbolTableRecord
100
AcDbLinetypeTableRecord
  2
BYLAYER
 70
     0
  3

 72
    65
 73
     0
 40
0.0
  0
LTYPE
  5
226
330
216
100
AcDbSymbolTableRecord
100
AcDbLinetypeTableRecord
  2
CONTINUOUS
 70
     0
  3
Solid line
 72
    65
 73
     0
 40
0.0
  0
LTYPE
  5
235
330
216
100
AcDbSymbolTableRecord
100
AcDbLinetypeTableRecord
  2
HIDDEN
 70
     0
  3
_ _ _ _ _ _ _ _ _ _ _ _ _ _ _ _ _ _ _ _ _ _ _
 72
    65
 73
     2
 40
0.375
 49
0.25
 74
     0
 49
-0.125
 74
     0
  0
LTYPE
  5
236
330
216
100
AcDbSymbolTableRecord
100
AcDbLinetypeTableRecord
  2
CENTER
 70
     0
  3
____ _ ____ _ ____ _ ____ _ ____ _ ____ _ ____
 72
    65
 73
     4
 40
2.0
 49
1.25
 74
     0
 49
-0.25
 74
     0
 49
0.25
 74
     0
 49
-0.25
 74
     0
  0
LTYPE
  5
237
330
216
100
AcDbSymbolTableRecord
100
AcDbLinetypeTableRecord
  2
PHANTOM
 70
     0
  3
_____ _ _ _____ _ _ _____ _ _ _____ _ _ ____
 72
    65
 73
     6
 40
2.5
 49
1.25
 74
     0
 49
-0.25
 74
     0
 49
0.25
 74
     0
 49
-0.25
 74
     0
 49
0.25
 74
     0
 49
-0.25
 74
     0
  0
LTYPE
  5
238
330
216
100
AcDbSymbolTableRecord
100
AcDbLinetypeTableRecord
  2
DASHED
 70
     0
  3
__ __ __ __ __ __ __ __ __ __ __ __ __ __ __ __
 72
    65
 73
     2
 40
0.75
 49
0.5
 74
     0
 49
-0.25
 74
     0
  0
ENDTAB
  0
TABLE
  2
LAYER
  5
213
330
0
100
AcDbSymbolTable
 70
     8
  0
LAYER
  5
221
330
213
100
AcDbSymbolTableRecord
100
AcDbLayerTableRecord
  2
0
 70
     0
 62
     7
  6
CONTINUOUS
  0
LAYER
  5
233
330
213
100
AcDbSymbolTableRecord
100
AcDbLayerTableRecord
  2
DAMAN
 70
     0
 62
     5
  6
CONTINUOUS
  0
LAYER
  5
239
330
213
100
AcDbSymbolTableRecord
100
AcDbLayerTableRecord
  2
CHIDDEN
 70
     0
 62
     3
  6
HIDDEN
  0
LAYER
  5
23A
330
213
100
AcDbSymbolTableRecord
100
AcDbLayerTableRecord
  2
CSOLID
 70
     0
 62
     3
  6
CONTINUOUS
  0
LAYER
  5
23B
330
213
100
AcDbSymbolTableRecord
100
AcDbLayerTableRecord
  2
CCENTER
 70
     0
 62
     4
  6
CENTER
  0
LAYER
  5
23C
330
213
100
AcDbSymbolTableRecord
100
AcDbLayerTableRecord
  2
PHANTOM
 70
     0
 62
     1
  6
PHANTOM
  0
LAYER
  5
23D
330
213
100
AcDbSymbolTableRecord
100
AcDbLayerTableRecord
  2
BORDER
 70
     0
 62
     7
  6
CONTINUOUS
  0
LAYER
  5
23E
330
213
100
AcDbSymbolTableRecord
100
AcDbLayerTableRecord
  2
CDIM
 70
     0
 62
     2
  6
CONTINUOUS
  0
ENDTAB
  0
TABLE
  2
STYLE
  5
214
330
0
100
AcDbSymbolTable
 70
     2
  0
STYLE
  5
222
330
214
100
AcDbSymbolTableRecord
100
AcDbTextStyleTableRecord
  2
STANDARD
 70
     0
 40
0.0
 41
1.0
 50
0.0
 71
     0
 42
0.2
  3
txt
  4

  0
STYLE
  5
23F
330
214
100
AcDbSymbolTableRecord
100
AcDbTextStyleTableRecord
  2
STR
 70
     0
 40
0.0
 41
1.0
 50
0.0
 71
     0
 42
0.25
  3
SIMPLEX
  4

  0
ENDTAB
  0
TABLE
  2
VIEW
  5
217
330
0
100
AcDbSymbolTable
 70
     0
  0
ENDTAB
  0
TABLE
  2
UCS
  5
218
330
0
100
AcDbSymbolTable
 70
     0
  0
ENDTAB
  0
TABLE
  2
APPID
  5
21A
330
0
100
AcDbSymbolTable
 70
     1
  0
APPID
  5
223
330
21A
100
AcDbSymbolTableRecord
100
AcDbRegAppTableRecord
  2
ACAD
 70
     0
  0
ENDTAB
  0
TABLE
  2
DIMSTYLE
  5
21B
330
0
100
AcDbSymbolTable
 70
     1
  0
DIMSTYLE
105
3FD
330
21B
100
AcDbSymbolTableRecord
100
AcDbDimStyleTableRecord
  2
STANDARD
 70
     0
  3

  4

  5

  6

  7

 40
1.0
 41
0.18
 42
0.0625
 43
0.38
 44
0.18
 45
0.0
 46
0.0
 47
0.0
 48
0.0
140
0.18
141
0.09
142
0.0
143
25.4
144
1.0
145
0.0
146
1.0
147
0.09
 71
     0
 72
     0
 73
     1
 74
     1
 75
     0
 76
     0
 77
     0
 78
     0
170
     0
171
     2
172
     0
173
     0
174
     0
175
     0
176
     0
177
     0
178
     0
270
     2
271
     4
272
     4
273
     2
274
     2
340
222
275
     0
280
     0
281
     0
282
     0
283
     1
284
     0
285
     0
286
     0
287
     3
288
     0
  0
ENDTAB
  0
TABLE
  2
BLOCK_RECORD
  5
212
330
0
100
AcDbSymbolTable
 70
    22
  0
BLOCK_RECORD
  5
22F
102
{ACAD_XDICTIONARY
360
423
102
}
330
212
100
AcDbSymbolTableRecord
100
AcDbBlockTableRecord
  2
*MODEL_SPACE
  0
BLOCK_RECORD
  5
22B
102
{ACAD_XDICTIONARY
360
421
102
}
330
212
100
AcDbSymbolTableRecord
100
AcDbBlockTableRecord
  2
*PAPER_SPACE
  0
BLOCK_RECORD
  5
242
330
212
100
AcDbSymbolTableRecord
100
AcDbBlockTableRecord
  2
500MKT
  0
BLOCK_RECORD
  5
244
330
212
100
AcDbSymbolTableRecord
100
AcDbBlockTableRecord
  2
100CROSS
  0
BLOCK_RECORD
  5
286
330
212
100
AcDbSymbolTableRecord
100
AcDbBlockTableRecord
  2
050CROSS
  0
BLOCK_RECORD
  5
291
330
212
100
AcDbSymbolTableRecord
100
AcDbBlockTableRecord
  2
500MKCT
  0
BLOCK_RECORD
  5
2C7
330
212
100
AcDbSymbolTableRecord
100
AcDbBlockTableRecord
  2
500MKS
  0
BLOCK_RECORD
  5
2EF
330
212
100
AcDbSymbolTableRecord
100
AcDbBlockTableRecord
  2
D05H
  0
BLOCK_RECORD
  5
2F1
330
212
100
AcDbSymbolTableRecord
100
AcDbBlockTableRecord
  2
D05
  0
BLOCK_RECORD
  5
30E
330
212
100
AcDbSymbolTableRecord
100
AcDbBlockTableRecord
  2
075NPTFT
  0
BLOCK_RECORD
  5
310
330
212
100
AcDbSymbolTableRecord
100
AcDbBlockTableRecord
  2
750NPTFT
  0
BLOCK_RECORD
  5
319
330
212
100
AcDbSymbolTableRecord
100
AcDbBlockTableRecord
  2
100NPTFT
  0
BLOCK_RECORD
  5
320
330
212
100
AcDbSymbolTableRecord
100
AcDbBlockTableRecord
  2
025NPTFT
  0
BLOCK_RECORD
  5
322
330
212
100
AcDbSymbolTableRecord
100
AcDbBlockTableRecord
  2
250NPTFT
  0
BLOCK_RECORD
  5
32E
330
212
100
AcDbSymbolTableRecord
100
AcDbBlockTableRecord
  2
038NPTFT
  0
BLOCK_RECORD
  5
330
330
212
100
AcDbSymbolTableRecord
100
AcDbBlockTableRecord
  2
375NPTFT
  0
BLOCK_RECORD
  5
339
330
212
100
AcDbSymbolTableRecord
100
AcDbBlockTableRecord
  2
C102T
  0
BLOCK_RECORD
  5
342
330
212
100
AcDbSymbolTableRecord
100
AcDbBlockTableRecord
  2
T3AT
  0
BLOCK_RECORD
  5
34C
330
212
100
AcDbSymbolTableRecord
100
AcDbBlockTableRecord
  2
D05HE
  0
BLOCK_RECORD
  5
369
330
212
100
AcDbSymbolTableRecord
100
AcDbBlockTableRecord
  2
16SAET
  0
BLOCK_RECORD
  5
371
330
212
100
AcDbSymbolTableRecord
100
AcDbBlockTableRecord
  2
12SAET
  0
BLOCK_RECORD
  5
379
330
212
100
AcDbSymbolTableRecord
100
AcDbBlockTableRecord
  2
06SAET
  0
BLOCK_RECORD
  5
380
330
212
100
AcDbSymbolTableRecord
100
AcDbBlockTableRecord
  2
C162T
  0
BLOCK_RECORD
  5
38A
330
212
100
AcDbSymbolTableRecord
100
AcDbBlockTableRecord
  2
MGBFCJ
  0
ENDTAB
  0
ENDSEC
  0
SECTION
  2
BLOCKS
  0
BLOCK
  5
230
330
22F
100
AcDbEntity
  8
0
100
AcDbBlockBegin
  2
*MODEL_SPACE
 70
     0
 10
0.0
 20
0.0
 30
0.0
  3
*MODEL_SPACE
  1

  0
ENDBLK
  5
231
330
22F
100
AcDbEntity
  8
0
100
AcDbBlockEnd
  0
BLOCK
  5
22C
330
22B
100
AcDbEntity
 67
     1
  8
0
100
AcDbBlockBegin
  2
*PAPER_SPACE
 70
     0
 10
0.0
 20
0.0
 30
0.0
  3
*PAPER_SPACE
  1

  0
ENDBLK
  5
22D
330
22B
100
AcDbEntity
 67
     1
  8
0
100
AcDbBlockEnd
  0
BLOCK
  5
243
330
242
100
AcDbEntity
  8
0
100
AcDbBlockBegin
  2
500MKT
 70
     0
 10
0.0
 20
0.0
 30
0.0
  3
500MKT
  1

  0
INSERT
  5
245
330
242
100
AcDbEntity
  8
DAMAN
100
AcDbBlockReference
  2
100CROSS
 10
-0.937
 20
-0.4370000000000001
 30
0.0
 41
0.4220000000000001
 42
0.4220000000000001
  0
LINE
  5
246
330
242
100
AcDbEntity
  8
DAMAN
100
AcDbLine
 10
-0.21825
 20
-0.03125
 30
0.0
 11
-0.21825
 21
-0.84325
 31
0.0
  0
LINE
  5
247
330
242
100
AcDbEntity
  8
DAMAN
100
AcDbLine
 10
-0.156
 20
-5.0
 30
0.0
 11
-0.156
 21
0.0
 31
0.0
  0
LINE
  5
248
330
242
100
AcDbEntity
  8
DAMAN
100
AcDbLine
 10
0.0
 20
-5.0
 30
0.0
 11
0.0
 21
0.0
 31
0.0
  0
LINE
  5
249
330
242
100
AcDbEntity
  8
DAMAN
100
AcDbLine
 10
-0.21825
 20
-0.84325
 30
0.0
 11
-0.15575
 21
-0.84325
 31
0.0
  0
LINE
  5
24A
330
242
100
AcDbEntity
  8
DAMAN
100
AcDbLine
 10
-0.4372500000000001
 20
-0.26425
 30
0.0
 11
-0.46825
 21
-0.26425
 31
0.0
  0
LINE
  5
24B
330
242
100
AcDbEntity
  8
DAMAN
100
AcDbLine
 10
-0.46825
 20
-0.12425
 30
0.0
 11
-0.21825
 21
-0.12425
 31
0.0
  0
LINE
  5
24C
330
242
100
AcDbEntity
  8
DAMAN
  6
CENTER
100
AcDbLine
 10
-0.75
 20
-0.4370000000000001
 30
0.0
 11
1.0
 21
-0.4370000000000001
 31
0.0
  0
LINE
  5
24D
330
242
100
AcDbEntity
  8
DAMAN
100
AcDbLine
 10
-0.4372500000000001
 20
-0.60925
 30
0.0
 11
-0.46825
 21
-0.60925
 31
0.0
  0
LINE
  5
24E
330
242
100
AcDbEntity
  8
DAMAN
100
AcDbLine
 10
-0.21825
 20
-0.74925
 30
0.0
 11
-0.46825
 21
-0.74925
 31
0.0
  0
LINE
  5
24F
330
242
100
AcDbEntity
  8
DAMAN
100
AcDbLine
 10
0.0
 20
0.0
 30
0.0
 11
-1.375
 21
0.0
 31
0.0
  0
LWPOLYLINE
  5
250
330
242
100
AcDbEntity
  8
DAMAN
100
AcDbPolyline
 90
        6
 70
     1
 43
0.0
 10
-1.2072
 20
-0.593
 10
-0.937
 20
-0.7490000000000001
 10
-0.6668
 20
-0.593
 10
-0.6668
 20
-0.281
 10
-0.937
 20
-0.125
 10
-1.2072
 20
-0.281
  0
CIRCLE
  5
258
330
242
100
AcDbEntity
  8
DAMAN
100
AcDbCircle
 10
-0.937
 20
-0.4370000000000001
 30
0.0
 40
0.265
  0
LINE
  5
259
330
242
100
AcDbEntity
  8
DAMAN
100
AcDbLine
 10
-0.46825
 20
-0.74925
 30
0.0
 11
-0.46825
 21
-0.12425
 31
0.0
  0
POINT
  5
25A
330
242
100
AcDbEntity
  8
CHIDDEN
100
AcDbPoint
 10
-0.7342930000000001
 20
-0.4955720000000001
 30
0.0
  0
LINE
  5
25B
330
242
100
AcDbEntity
  8
DAMAN
100
AcDbLine
 10
0.0
 20
-0.28025
 30
0.0
 11
0.8440000000000001
 21
-0.28025
 31
0.0
  0
LINE
  5
25C
330
242
100
AcDbEntity
  8
DAMAN
100
AcDbLine
 10
0.812
 20
-0.24925
 30
0.0
 11
0.0
 21
-0.24925
 31
0.0
  0
LINE
  5
25D
330
242
100
AcDbEntity
  8
DAMAN
100
AcDbLine
 10
0.0
 20
-0.5932500000000001
 30
0.0
 11
0.8440000000000001
 21
-0.5932500000000001
 31
0.0
  0
LINE
  5
25E
330
242
100
AcDbEntity
  8
DAMAN
100
AcDbLine
 10
0.0
 20
-0.62425
 30
0.0
 11
0.812
 21
-0.62425
 31
0.0
  0
LINE
  5
25F
330
242
100
AcDbEntity
  8
DAMAN
100
AcDbLine
 10
-0.21825
 20
-0.60925
 30
0.0
 11
-0.4372500000000001
 21
-0.60925
 31
0.0
  0
LINE
  5
260
330
242
100
AcDbEntity
  8
DAMAN
100
AcDbLine
 10
-0.15625
 20
-0.03125
 30
0.0
 11
-0.21825
 21
-0.03125
 31
0.0
  0
LINE
  5
261
330
242
100
AcDbEntity
  8
DAMAN
100
AcDbLine
 10
-0.21825
 20
-0.26425
 30
0.0
 11
-0.4372500000000001
 21
-0.26425
 31
0.0
  0
LINE
  5
262
330
242
100
AcDbEntity
  8
DAMAN
100
AcDbLine
 10
0.875
 20
-0.56175
 30
0.0
 11
0.875
 21
-0.31225
 31
0.0
  0
LINE
  5
263
330
242
100
AcDbEntity
  8
DAMAN
100
AcDbLine
 10
0.812
 20
-0.62425
 30
0.0
 11
0.875
 21
-0.56175
 31
0.0
  0
LINE
  5
264
330
242
100
AcDbEntity
  8
DAMAN
100
AcDbLine
 10
0.875
 20
-0.31225
 30
0.0
 11
0.812
 21
-0.24925
 31
0.0
  0
LINE
  5
265
330
242
100
AcDbEntity
  8
DAMAN
100
AcDbLine
 10
-0.46825
 20
-4.249249999999999
 30
0.0
 11
-0.21825
 21
-4.249249999999999
 31
0.0
  0
LINE
  5
266
330
242
100
AcDbEntity
  8
DAMAN
100
AcDbLine
 10
-0.4372500000000001
 20
-4.389249999999999
 30
0.0
 11
-0.46825
 21
-4.389249999999999
 31
0.0
  0
LINE
  5
267
330
242
100
AcDbEntity
  8
DAMAN
  6
CENTER
100
AcDbLine
 10
-0.75
 20
-4.562
 30
0.0
 11
1.0
 21
-4.562
 31
0.0
  0
LINE
  5
268
330
242
100
AcDbEntity
  8
DAMAN
100
AcDbLine
 10
-0.46825
 20
-4.874249999999999
 30
0.0
 11
-0.46825
 21
-4.249249999999999
 31
0.0
  0
INSERT
  5
269
330
242
100
AcDbEntity
  8
DAMAN
100
AcDbBlockReference
  2
100CROSS
 10
-0.937
 20
-4.562
 30
0.0
 41
0.4220000000000001
 42
0.4220000000000001
  0
LWPOLYLINE
  5
26A
330
242
100
AcDbEntity
  8
DAMAN
100
AcDbPolyline
 90
        6
 70
     1
 43
0.0
 10
-1.2072
 20
-4.717999999999999
 10
-0.937
 20
-4.873999999999999
 10
-0.6668
 20
-4.717999999999999
 10
-0.6668
 20
-4.406
 10
-0.937
 20
-4.25
 10
-1.2072
 20
-4.406
  0
CIRCLE
  5
272
330
242
100
AcDbEntity
  8
DAMAN
100
AcDbCircle
 10
-0.937
 20
-4.562
 30
0.0
 40
0.265
  0
POINT
  5
273
330
242
100
AcDbEntity
  8
CHIDDEN
100
AcDbPoint
 10
-0.7342930000000001
 20
-4.620572
 30
0.0
  0
LINE
  5
274
330
242
100
AcDbEntity
  8
DAMAN
100
AcDbLine
 10
-0.21825
 20
-4.15625
 30
0.0
 11
-0.21825
 21
-4.96825
 31
0.0
  0
LINE
  5
275
330
242
100
AcDbEntity
  8
DAMAN
100
AcDbLine
 10
0.812
 20
-4.374249999999999
 30
0.0
 11
0.0
 21
-4.374249999999999
 31
0.0
  0
LINE
  5
276
330
242
100
AcDbEntity
  8
DAMAN
100
AcDbLine
 10
0.0
 20
-4.405249999999999
 30
0.0
 11
0.8440000000000001
 21
-4.405249999999999
 31
0.0
  0
LINE
  5
277
330
242
100
AcDbEntity
  8
DAMAN
100
AcDbLine
 10
-0.21825
 20
-4.389249999999999
 30
0.0
 11
-0.4372500000000001
 21
-4.389249999999999
 31
0.0
  0
LINE
  5
278
330
242
100
AcDbEntity
  8
DAMAN
100
AcDbLine
 10
0.875
 20
-4.686749999999999
 30
0.0
 11
0.875
 21
-4.437249999999999
 31
0.0
  0
LINE
  5
279
330
242
100
AcDbEntity
  8
DAMAN
100
AcDbLine
 10
0.875
 20
-4.437249999999999
 30
0.0
 11
0.812
 21
-4.374249999999999
 31
0.0
  0
LINE
  5
27A
330
242
100
AcDbEntity
  8
DAMAN
100
AcDbLine
 10
-0.15625
 20
-4.15625
 30
0.0
 11
-0.21825
 21
-4.15625
 31
0.0
  0
LINE
  5
27B
330
242
100
AcDbEntity
  8
DAMAN
100
AcDbLine
 10
-0.4372500000000001
 20
-4.73425
 30
0.0
 11
-0.46825
 21
-4.73425
 31
0.0
  0
LINE
  5
27C
330
242
100
AcDbEntity
  8
DAMAN
100
AcDbLine
 10
0.0
 20
-4.749249999999999
 30
0.0
 11
0.812
 21
-4.749249999999999
 31
0.0
  0
LINE
  5
27D
330
242
100
AcDbEntity
  8
DAMAN
100
AcDbLine
 10
0.0
 20
-4.71825
 30
0.0
 11
0.8440000000000001
 21
-4.71825
 31
0.0
  0
LINE
  5
27E
330
242
100
AcDbEntity
  8
DAMAN
100
AcDbLine
 10
-0.21825
 20
-4.73425
 30
0.0
 11
-0.4372500000000001
 21
-4.73425
 31
0.0
  0
LINE
  5
27F
330
242
100
AcDbEntity
  8
DAMAN
100
AcDbLine
 10
0.812
 20
-4.749249999999999
 30
0.0
 11
0.875
 21
-4.686749999999999
 31
0.0
  0
LINE
  5
280
330
242
100
AcDbEntity
  8
DAMAN
100
AcDbLine
 10
-0.21825
 20
-4.874249999999999
 30
0.0
 11
-0.46825
 21
-4.874249999999999
 31
0.0
  0
LINE
  5
281
330
242
100
AcDbEntity
  8
DAMAN
100
AcDbLine
 10
-1.375
 20
-5.0
 30
0.0
 11
0.0
 21
-5.0
 31
0.0
  0
LINE
  5
282
330
242
100
AcDbEntity
  8
DAMAN
100
AcDbLine
 10
-0.21825
 20
-4.96825
 30
0.0
 11
-0.15575
 21
-4.96825
 31
0.0
  0
LINE
  5
283
330
242
100
AcDbEntity
  8
DAMAN
100
AcDbLine
 10
-1.375
 20
0.0
 30
0.0
 11
-1.375
 21
-5.0
 31
0.0
  0
ENDBLK
  5
284
330
242
100
AcDbEntity
  8
0
100
AcDbBlockEnd
  0
BLOCK
  5
285
330
244
100
AcDbEntity
  8
0
100
AcDbBlockBegin
  2
100CROSS
 70
     0
 10
5.625
 20
4.59375
 30
0.0
  3
100CROSS
  1

  0
INSERT
  5
287
330
244
100
AcDbEntity
  8
0
100
AcDbBlockReference
  2
050CROSS
 10
5.625
 20
4.59375
 30
0.0
  0
ENDBLK
  5
288
330
244
100
AcDbEntity
  8
0
100
AcDbBlockEnd
  0
BLOCK
  5
289
330
286
100
AcDbEntity
  8
0
100
AcDbBlockBegin
  2
050CROSS
 70
     0
 10
5.0
 20
5.0
 30
0.0
  3
050CROSS
  1

  0
LINE
  5
28A
330
286
100
AcDbEntity
  8
0
100
AcDbLine
 10
5.0
 20
5.28125
 30
0.0
 11
5.0
 21
5.78125
 31
0.0
  0
LINE
  5
28B
330
286
100
AcDbEntity
  8
0
100
AcDbLine
 10
5.0
 20
4.875
 30
0.0
 11
5.0
 21
5.125
 31
0.0
  0
LINE
  5
28C
330
286
100
AcDbEntity
  8
0
100
AcDbLine
 10
5.0
 20
4.15625
 30
0.0
 11
5.0
 21
4.71875
 31
0.0
  0
LINE
  5
28D
330
286
100
AcDbEntity
  8
0
100
AcDbLine
 10
5.25
 20
5.0
 30
0.0
 11
5.8125
 21
5.0
 31
0.0
  0
LINE
  5
28E
330
286
100
AcDbEntity
  8
0
100
AcDbLine
 10
4.90625
 20
5.0
 30
0.0
 11
5.09375
 21
5.0
 31
0.0
  0
LINE
  5
28F
330
286
100
AcDbEntity
  8
0
100
AcDbLine
 10
4.1875
 20
5.0
 30
0.0
 11
4.75
 21
5.0
 31
0.0
  0
ENDBLK
  5
290
330
286
100
AcDbEntity
  8
0
100
AcDbBlockEnd
  0
BLOCK
  5
292
330
291
100
AcDbEntity
  8
0
100
AcDbBlockBegin
  2
500MKCT
 70
     0
 10
0.0
 20
0.0
 30
0.0
  3
500MKCT
  1

  0
INSERT
  5
293
330
291
100
AcDbEntity
  8
DAMAN
100
AcDbBlockReference
  2
100CROSS
 10
-0.937
 20
-0.4370000000000001
 30
0.0
 41
0.4220000000000001
 42
0.4220000000000001
  0
LINE
  5
294
330
291
100
AcDbEntity
  8
DAMAN
100
AcDbLine
 10
-0.21825
 20
-0.03125
 30
0.0
 11
-0.21825
 21
-0.84325
 31
0.0
  0
LINE
  5
295
330
291
100
AcDbEntity
  8
DAMAN
100
AcDbLine
 10
-0.156
 20
-5.0
 30
0.0
 11
-0.156
 21
0.0
 31
0.0
  0
LINE
  5
296
330
291
100
AcDbEntity
  8
DAMAN
100
AcDbLine
 10
-1.375
 20
0.0
 30
0.0
 11
-1.375
 21
-5.0
 31
0.0
  0
LINE
  5
297
330
291
100
AcDbEntity
  8
DAMAN
100
AcDbLine
 10
0.0
 20
-5.0
 30
0.0
 11
0.0
 21
0.0
 31
0.0
  0
LINE
  5
298
330
291
100
AcDbEntity
  8
DAMAN
100
AcDbLine
 10
-0.21825
 20
-4.874249999999999
 30
0.0
 11
-0.46825
 21
-4.874249999999999
 31
0.0
  0
LINE
  5
299
330
291
100
AcDbEntity
  8
DAMAN
100
AcDbLine
 10
-0.4372500000000001
 20
-4.73425
 30
0.0
 11
-0.46825
 21
-4.73425
 31
0.0
  0
LINE
  5
29A
330
291
100
AcDbEntity
  8
DAMAN
100
AcDbLine
 10
-0.46825
 20
-4.249249999999999
 30
0.0
 11
-0.21825
 21
-4.249249999999999
 31
0.0
  0
LINE
  5
29B
330
291
100
AcDbEntity
  8
DAMAN
100
AcDbLine
 10
-0.4372500000000001
 20
-4.389249999999999
 30
0.0
 11
-0.46825
 21
-4.389249999999999
 31
0.0
  0
LINE
  5
29C
330
291
100
AcDbEntity
  8
DAMAN
100
AcDbLine
 10
-1.375
 20
-5.0
 30
0.0
 11
0.0
 21
-5.0
 31
0.0
  0
LINE
  5
29D
330
291
100
AcDbEntity
  8
DAMAN
100
AcDbLine
 10
-0.46825
 20
-4.874249999999999
 30
0.0
 11
-0.46825
 21
-4.249249999999999
 31
0.0
  0
INSERT
  5
29E
330
291
100
AcDbEntity
  8
DAMAN
100
AcDbBlockReference
  2
100CROSS
 10
-0.937
 20
-4.562
 30
0.0
 41
0.4220000000000001
 42
0.4220000000000001
  0
LWPOLYLINE
  5
29F
330
291
100
AcDbEntity
  8
DAMAN
100
AcDbPolyline
 90
        6
 70
     1
 43
0.0
 10
-1.2072
 20
-4.717999999999999
 10
-0.937
 20
-4.873999999999999
 10
-0.6668
 20
-4.717999999999999
 10
-0.6668
 20
-4.406
 10
-0.937
 20
-4.25
 10
-1.2072
 20
-4.406
  0
CIRCLE
  5
2A7
330
291
100
AcDbEntity
  8
DAMAN
100
AcDbCircle
 10
-0.937
 20
-4.562
 30
0.0
 40
0.265
  0
POINT
  5
2A8
330
291
100
AcDbEntity
  8
CHIDDEN
100
AcDbPoint
 10
-1.074716999999999
 20
-4.721859999999999
 30
0.0
  0
POINT
  5
2A9
330
291
100
AcDbEntity
  8
CHIDDEN
100
AcDbPoint
 10
-1.024928
 20
-4.370194
 30
0.0
  0
POINT
  5
2AA
330
291
100
AcDbEntity
  8
CHIDDEN
100
AcDbPoint
 10
-0.7342930000000001
 20
-4.620572
 30
0.0
  0
LINE
  5
2AB
330
291
100
AcDbEntity
  8
DAMAN
100
AcDbLine
 10
-0.21825
 20
-4.15625
 30
0.0
 11
-0.21825
 21
-4.96825
 31
0.0
  0
LINE
  5
2AC
330
291
100
AcDbEntity
  8
DAMAN
100
AcDbLine
 10
-0.21825
 20
-4.96825
 30
0.0
 11
-0.15575
 21
-4.96825
 31
0.0
  0
LINE
  5
2AD
330
291
100
AcDbEntity
  8
DAMAN
100
AcDbLine
 10
-0.21825
 20
-4.73425
 30
0.0
 11
-0.4372500000000001
 21
-4.73425
 31
0.0
  0
LINE
  5
2AE
330
291
100
AcDbEntity
  8
DAMAN
100
AcDbLine
 10
-0.21825
 20
-4.389249999999999
 30
0.0
 11
-0.4372500000000001
 21
-4.389249999999999
 31
0.0
  0
LINE
  5
2AF
330
291
100
AcDbEntity
  8
DAMAN
100
AcDbLine
 10
-0.15625
 20
-4.15625
 30
0.0
 11
-0.21825
 21
-4.15625
 31
0.0
  0
LINE
  5
2B0
330
291
100
AcDbEntity
  8
DAMAN
100
AcDbLine
 10
-0.21825
 20
-0.84325
 30
0.0
 11
-0.15575
 21
-0.84325
 31
0.0
  0
LINE
  5
2B1
330
291
100
AcDbEntity
  8
DAMAN
100
AcDbLine
 10
-0.4372500000000001
 20
-0.26425
 30
0.0
 11
-0.46825
 21
-0.26425
 31
0.0
  0
LINE
  5
2B2
330
291
100
AcDbEntity
  8
DAMAN
100
AcDbLine
 10
-0.46825
 20
-0.12425
 30
0.0
 11
-0.21825
 21
-0.12425
 31
0.0
  0
LINE
  5
2B3
330
291
100
AcDbEntity
  8
DAMAN
100
AcDbLine
 10
-0.4372500000000001
 20
-0.60925
 30
0.0
 11
-0.46825
 21
-0.60925
 31
0.0
  0
LINE
  5
2B4
330
291
100
AcDbEntity
  8
DAMAN
100
AcDbLine
 10
-0.21825
 20
-0.74925
 30
0.0
 11
-0.46825
 21
-0.74925
 31
0.0
  0
LINE
  5
2B5
330
291
100
AcDbEntity
  8
DAMAN
100
AcDbLine
 10
0.0
 20
0.0
 30
0.0
 11
-1.375
 21
0.0
 31
0.0
  0
LWPOLYLINE
  5
2B6
330
291
100
AcDbEntity
  8
DAMAN
100
AcDbPolyline
 90
        6
 70
     1
 43
0.0
 10
-1.2072
 20
-0.593
 10
-0.937
 20
-0.7490000000000001
 10
-0.6668
 20
-0.593
 10
-0.6668
 20
-0.281
 10
-0.937
 20
-0.125
 10
-1.2072
 20
-0.281
  0
CIRCLE
  5
2BE
330
291
100
AcDbEntity
  8
DAMAN
100
AcDbCircle
 10
-0.937
 20
-0.4370000000000001
 30
0.0
 40
0.265
  0
POINT
  5
2BF
330
291
100
AcDbEntity
  8
CHIDDEN
100
AcDbPoint
 10
-1.074716999999999
 20
-0.5968600000000001
 30
0.0
  0
POINT
  5
2C0
330
291
100
AcDbEntity
  8
CHIDDEN
100
AcDbPoint
 10
-1.024928
 20
-0.245194
 30
0.0
  0
LINE
  5
2C1
330
291
100
AcDbEntity
  8
DAMAN
100
AcDbLine
 10
-0.46825
 20
-0.74925
 30
0.0
 11
-0.46825
 21
-0.12425
 31
0.0
  0
POINT
  5
2C2
330
291
100
AcDbEntity
  8
CHIDDEN
100
AcDbPoint
 10
-0.7342930000000001
 20
-0.4955720000000001
 30
0.0
  0
LINE
  5
2C3
330
291
100
AcDbEntity
  8
DAMAN
100
AcDbLine
 10
-0.21825
 20
-0.60925
 30
0.0
 11
-0.4372500000000001
 21
-0.60925
 31
0.0
  0
LINE
  5
2C4
330
291
100
AcDbEntity
  8
DAMAN
100
AcDbLine
 10
-0.15625
 20
-0.03125
 30
0.0
 11
-0.21825
 21
-0.03125
 31
0.0
  0
LINE
  5
2C5
330
291
100
AcDbEntity
  8
DAMAN
100
AcDbLine
 10
-0.21825
 20
-0.26425
 30
0.0
 11
-0.4372500000000001
 21
-0.26425
 31
0.0
  0
ENDBLK
  5
2C6
330
291
100
AcDbEntity
  8
0
100
AcDbBlockEnd
  0
BLOCK
  5
2C8
330
2C7
100
AcDbEntity
  8
0
100
AcDbBlockBegin
  2
500MKS
 70
     0
 10
0.0
 20
0.0
 30
0.0
  3
500MKS
  1

  0
LINE
  5
2C9
330
2C7
100
AcDbEntity
  8
DAMAN
100
AcDbLine
 10
-0.313
 20
-0.71875
 30
0.0
 11
-1.125
 21
-0.71875
 31
0.0
  0
LINE
  5
2CA
330
2C7
100
AcDbEntity
  8
DAMAN
100
AcDbLine
 10
-1.030999999999999
 20
-0.46875
 30
0.0
 11
-0.4060000000000001
 21
-0.46875
 31
0.0
  0
LINE
  5
2CB
330
2C7
100
AcDbEntity
  8
DAMAN
100
AcDbLine
 10
-0.18775
 20
-0.7809999999999999
 30
0.0
 11
-1.156749999999999
 21
-0.7809999999999999
 31
0.0
  0
LINE
  5
2CC
330
2C7
100
AcDbEntity
  8
DAMAN
100
AcDbLine
 10
-1.156749999999999
 20
-0.937
 30
0.0
 11
-0.18775
 21
-0.937
 31
0.0
  0
LINE
  5
2CD
330
2C7
100
AcDbEntity
  8
DAMAN
  6
CENTER
100
AcDbLine
 10
-0.71875
 20
-0.187
 30
0.0
 11
-0.71875
 21
-1.936999999999999
 31
0.0
  0
LINE
  5
2CE
330
2C7
100
AcDbEntity
  8
DAMAN
100
AcDbLine
 10
-0.875
 20
-0.937
 30
0.0
 11
-0.875
 21
-1.780999999999999
 31
0.0
  0
LINE
  5
2CF
330
2C7
100
AcDbEntity
  8
DAMAN
100
AcDbLine
 10
-0.5620000000000001
 20
-0.937
 30
0.0
 11
-0.5620000000000001
 21
-1.780999999999999
 31
0.0
  0
LINE
  5
2D0
330
2C7
100
AcDbEntity
  8
DAMAN
100
AcDbLine
 10
-0.5310000000000001
 20
-1.749
 30
0.0
 11
-0.5310000000000001
 21
-0.937
 31
0.0
  0
LINE
  5
2D1
330
2C7
100
AcDbEntity
  8
DAMAN
100
AcDbLine
 10
-0.9059999999999998
 20
-0.937
 30
0.0
 11
-0.9059999999999998
 21
-1.749
 31
0.0
  0
LINE
  5
2D2
330
2C7
100
AcDbEntity
  8
DAMAN
100
AcDbLine
 10
-0.9059999999999998
 20
-1.749
 30
0.0
 11
-0.8435
 21
-1.811999999999999
 31
0.0
  0
LINE
  5
2D3
330
2C7
100
AcDbEntity
  8
DAMAN
100
AcDbLine
 10
-0.594
 20
-1.811999999999999
 30
0.0
 11
-0.5310000000000001
 21
-1.749
 31
0.0
  0
LINE
  5
2D4
330
2C7
100
AcDbEntity
  8
DAMAN
100
AcDbLine
 10
-0.8435
 20
-1.811999999999999
 30
0.0
 11
-0.594
 21
-1.811999999999999
 31
0.0
  0
LINE
  5
2D5
330
2C7
100
AcDbEntity
  8
DAMAN
100
AcDbLine
 10
-1.156749999999999
 20
-0.7809999999999999
 30
0.0
 11
-1.156749999999999
 21
-0.937
 31
0.0
  0
LINE
  5
2D6
330
2C7
100
AcDbEntity
  8
DAMAN
100
AcDbLine
 10
-1.030999999999999
 20
-0.71875
 30
0.0
 11
-1.030999999999999
 21
-0.46875
 31
0.0
  0
LINE
  5
2D7
330
2C7
100
AcDbEntity
  8
DAMAN
100
AcDbLine
 10
-0.8909999999999998
 20
-0.71875
 30
0.0
 11
-0.8909999999999998
 21
-0.4997500000000001
 31
0.0
  0
LINE
  5
2D8
330
2C7
100
AcDbEntity
  8
DAMAN
100
AcDbLine
 10
-1.125
 20
-0.71875
 30
0.0
 11
-1.125
 21
-0.78125
 31
0.0
  0
LINE
  5
2D9
330
2C7
100
AcDbEntity
  8
DAMAN
100
AcDbLine
 10
-0.8909999999999998
 20
-0.4997500000000001
 30
0.0
 11
-0.8909999999999998
 21
-0.46875
 31
0.0
  0
LINE
  5
2DA
330
2C7
100
AcDbEntity
  8
DAMAN
100
AcDbLine
 10
-0.5460000000000001
 20
-0.71875
 30
0.0
 11
-0.5460000000000001
 21
-0.4997500000000001
 31
0.0
  0
LINE
  5
2DB
330
2C7
100
AcDbEntity
  8
DAMAN
100
AcDbLine
 10
-0.5460000000000001
 20
-0.4997500000000001
 30
0.0
 11
-0.5460000000000001
 21
-0.46875
 31
0.0
  0
LINE
  5
2DC
330
2C7
100
AcDbEntity
  8
DAMAN
100
AcDbLine
 10
-0.25
 20
-0.312
 30
0.0
 11
-0.25
 21
0.313
 31
0.0
  0
LINE
  5
2DD
330
2C7
100
AcDbEntity
  8
DAMAN
100
AcDbLine
 10
0.0
 20
0.4060000000000001
 30
0.0
 11
0.0
 21
-0.4060000000000001
 31
0.0
  0
LINE
  5
2DE
330
2C7
100
AcDbEntity
  8
DAMAN
100
AcDbLine
 10
0.0625
 20
-0.4060000000000001
 30
0.0
 11
0.062
 21
0.4060000000000001
 31
0.0
  0
LINE
  5
2DF
330
2C7
100
AcDbEntity
  8
DAMAN
100
AcDbLine
 10
0.06225
 20
0.4379999999999999
 30
0.0
 11
0.06225
 21
-0.5310000000000001
 31
0.0
  0
LINE
  5
2E0
330
2C7
100
AcDbEntity
  8
DAMAN
100
AcDbLine
 10
0.21825
 20
-0.5310000000000001
 30
0.0
 11
0.21825
 21
0.4379999999999999
 31
0.0
  0
ARC
  5
2E1
330
2C7
100
AcDbEntity
  8
DAMAN
100
AcDbCircle
 10
-0.18775
 20
-0.5310000000000001
 30
0.0
 40
0.4060000000000001
100
AcDbArc
 50
270.0
 51
0.0
  0
LINE
  5
2E2
330
2C7
100
AcDbEntity
  8
DAMAN
100
AcDbLine
 10
0.0
 20
-0.4060000000000001
 30
0.0
 11
0.0625
 21
-0.4060000000000001
 31
0.0
  0
ARC
  5
2E3
330
2C7
100
AcDbEntity
  8
DAMAN
100
AcDbCircle
 10
-0.18775
 20
-0.5310000000000001
 30
0.0
 40
0.25
100
AcDbArc
 50
270.0
 51
0.0
  0
LINE
  5
2E4
330
2C7
100
AcDbEntity
  8
DAMAN
100
AcDbLine
 10
-0.4060000000000001
 20
-0.46875
 30
0.0
 11
-0.4060000000000001
 21
-0.71875
 31
0.0
  0
LINE
  5
2E5
330
2C7
100
AcDbEntity
  8
DAMAN
100
AcDbLine
 10
-0.313
 20
-0.7807500000000001
 30
0.0
 11
-0.313
 21
-0.71875
 31
0.0
  0
LINE
  5
2E6
330
2C7
100
AcDbEntity
  8
DAMAN
100
AcDbLine
 10
0.0
 20
-0.312
 30
0.0
 11
-0.25
 21
-0.312
 31
0.0
  0
LINE
  5
2E7
330
2C7
100
AcDbEntity
  8
DAMAN
100
AcDbLine
 10
-0.2189999999999999
 20
-0.172
 30
0.0
 11
-0.25
 21
-0.172
 31
0.0
  0
LINE
  5
2E8
330
2C7
100
AcDbEntity
  8
DAMAN
100
AcDbLine
 10
0.0
 20
-0.172
 30
0.0
 11
-0.2189999999999999
 21
-0.172
 31
0.0
  0
LINE
  5
2E9
330
2C7
100
AcDbEntity
  8
DAMAN
100
AcDbLine
 10
-0.2189999999999999
 20
0.173
 30
0.0
 11
-0.25
 21
0.173
 31
0.0
  0
LINE
  5
2EA
330
2C7
100
AcDbEntity
  8
DAMAN
100
AcDbLine
 10
0.0
 20
0.173
 30
0.0
 11
-0.2189999999999999
 21
0.173
 31
0.0
  0
LINE
  5
2EB
330
2C7
100
AcDbEntity
  8
DAMAN
100
AcDbLine
 10
0.062
 20
0.4060000000000001
 30
0.0
 11
0.0
 21
0.4060000000000001
 31
0.0
  0
LINE
  5
2EC
330
2C7
100
AcDbEntity
  8
DAMAN
100
AcDbLine
 10
-0.25
 20
0.313
 30
0.0
 11
0.0
 21
0.313
 31
0.0
  0
LINE
  5
2ED
330
2C7
100
AcDbEntity
  8
DAMAN
100
AcDbLine
 10
0.21825
 20
0.4379999999999999
 30
0.0
 11
0.06225
 21
0.4379999999999999
 31
0.0
  0
ENDBLK
  5
2EE
330
2C7
100
AcDbEntity
  8
0
100
AcDbBlockEnd
  0
BLOCK
  5
2F0
330
2EF
100
AcDbEntity
  8
0
100
AcDbBlockBegin
  2
D05H
 70
     0
 10
0.0
 20
0.0
 30
0.0
  3
D05H
  1

  0
INSERT
  5
2F2
330
2EF
100
AcDbEntity
  8
DAMAN
100
AcDbBlockReference
  2
D05
 10
5.03125
 20
5.71875
 30
0.0
  0
CIRCLE
  5
2F3
330
2EF
100
AcDbEntity
  8
DAMAN
100
AcDbCircle
 10
5.12525
 20
6.156749999999999
 30
0.0
 40
0.094
  0
INSERT
  5
2F4
330
2EF
100
AcDbEntity
  8
DAMAN
100
AcDbBlockReference
  2
100CROSS
 10
5.12525
 20
6.156749999999999
 30
0.0
 41
0.25
 42
0.25
  0
CIRCLE
  5
2F5
330
2EF
100
AcDbEntity
  8
DAMAN
100
AcDbCircle
 10
6.75025
 20
3.15675
 30
0.0
 40
0.094
  0
INSERT
  5
2F6
330
2EF
100
AcDbEntity
  8
DAMAN
100
AcDbBlockReference
  2
100CROSS
 10
6.75025
 20
3.15675
 30
0.0
 41
0.25
 42
0.25
  0
ENDBLK
  5
2F7
330
2EF
100
AcDbEntity
  8
0
100
AcDbBlockEnd
  0
BLOCK
  5
2F8
330
2F1
100
AcDbEntity
  8
0
100
AcDbBlockBegin
  2
D05
 70
     0
 10
0.0
 20
0.0
 30
0.0
  3
D05
  1

  0
CIRCLE
  5
2F9
330
2F1
100
AcDbEntity
  8
DAMAN
  6
HIDDEN
100
AcDbCircle
 10
1.8125
 20
0.0
 30
0.0
 40
0.125
  0
CIRCLE
  5
2FA
330
2F1
100
AcDbEntity
  8
DAMAN
  6
HIDDEN
100
AcDbCircle
 10
1.8125
 20
-2.125
 30
0.0
 40
0.125
  0
CIRCLE
  5
2FB
330
2F1
100
AcDbEntity
  8
DAMAN
  6
HIDDEN
100
AcDbCircle
 10
0.0
 20
0.0
 30
0.0
 40
0.125
  0
CIRCLE
  5
2FC
330
2F1
100
AcDbEntity
  8
DAMAN
  6
HIDDEN
100
AcDbCircle
 10
0.0
 20
-2.125
 30
0.0
 40
0.125
  0
INSERT
  5
2FD
330
2F1
100
AcDbEntity
  8
DAMAN
100
AcDbBlockReference
  2
100CROSS
 10
0.0
 20
0.0
 30
0.0
 41
0.25
 42
0.25
  0
CIRCLE
  5
2FE
330
2F1
100
AcDbEntity
  8
DAMAN
100
AcDbCircle
 10
0.0
 20
0.0
 30
0.0
 40
0.1055
  0
CIRCLE
  5
2FF
330
2F1
100
AcDbEntity
  8
DAMAN
100
AcDbCircle
 10
0.0
 20
-2.125
 30
0.0
 40
0.1055
  0
INSERT
  5
300
330
2F1
100
AcDbEntity
  8
DAMAN
100
AcDbBlockReference
  2
100CROSS
 10
0.0
 20
-2.125
 30
0.0
 41
0.25
 42
0.25
  0
CIRCLE
  5
301
330
2F1
100
AcDbEntity
  8
DAMAN
100
AcDbCircle
 10
1.8125
 20
0.0
 30
0.0
 40
0.1055
  0
INSERT
  5
302
330
2F1
100
AcDbEntity
  8
DAMAN
100
AcDbBlockReference
  2
100CROSS
 10
1.8125
 20
0.0
 30
0.0
 41
0.25
 42
0.25
  0
CIRCLE
  5
303
330
2F1
100
AcDbEntity
  8
DAMAN
100
AcDbCircle
 10
1.8125
 20
-2.125
 30
0.0
 40
0.1055
  0
INSERT
  5
304
330
2F1
100
AcDbEntity
  8
DAMAN
100
AcDbBlockReference
  2
100CROSS
 10
1.8125
 20
-2.125
 30
0.0
 41
0.25
 42
0.25
  0
INSERT
  5
305
330
2F1
100
AcDbEntity
  8
DAMAN
100
AcDbBlockReference
  2
100CROSS
 10
0.5310000000000001
 20
-0.125
 30
0.0
 41
0.4379999999999999
 42
0.4379999999999999
  0
CIRCLE
  5
306
330
2F1
100
AcDbEntity
  8
DAMAN
100
AcDbCircle
 10
0.5310000000000001
 20
-0.125
 30
0.0
 40
0.21875
  0
CIRCLE
  5
307
330
2F1
100
AcDbEntity
  8
DAMAN
100
AcDbCircle
 10
0.9685
 20
-0.6559999999999999
 30
0.0
 40
0.21875
  0
INSERT
  5
308
330
2F1
100
AcDbEntity
  8
DAMAN
100
AcDbBlockReference
  2
100CROSS
 10
0.9685
 20
-0.6559999999999999
 30
0.0
 41
0.4379999999999999
 42
0.4379999999999999
  0
INSERT
  5
309
330
2F1
100
AcDbEntity
  8
DAMAN
100
AcDbBlockReference
  2
100CROSS
 10
0.9685
 20
-1.468499999999999
 30
0.0
 41
0.4379999999999999
 42
0.4379999999999999
  0
CIRCLE
  5
30A
330
2F1
100
AcDbEntity
  8
DAMAN
100
AcDbCircle
 10
0.9685
 20
-1.468499999999999
 30
0.0
 40
0.21875
  0
CIRCLE
  5
30B
330
2F1
100
AcDbEntity
  8
DAMAN
100
AcDbCircle
 10
1.5625
 20
-1.062249999999999
 30
0.0
 40
0.21875
  0
INSERT
  5
30C
330
2F1
100
AcDbEntity
  8
DAMAN
100
AcDbBlockReference
  2
100CROSS
 10
1.5625
 20
-1.062249999999999
 30
0.0
 41
0.4379999999999999
 42
0.4379999999999999
  0
ENDBLK
  5
30D
330
2F1
100
AcDbEntity
  8
0
100
AcDbBlockEnd
  0
BLOCK
  5
30F
330
30E
100
AcDbEntity
  8
0
100
AcDbBlockBegin
  2
075NPTFT
 70
     0
 10
0.0
 20
0.0
 30
0.0
  3
075NPTFT
  1

  0
INSERT
  5
311
330
30E
100
AcDbEntity
  8
DAMAN
100
AcDbBlockReference
  2
750NPTFT
 10
-6.410892999999999
 20
-4.555543
 30
0.0
  0
ENDBLK
  5
312
330
30E
100
AcDbEntity
  8
0
100
AcDbBlockEnd
  0
BLOCK
  5
313
330
310
100
AcDbEntity
  8
0
100
AcDbBlockBegin
  2
750NPTFT
 70
     0
 10
0.0
 20
0.0
 30
0.0
  3
750NPTFT
  1

  0
INSERT
  5
314
330
310
100
AcDbEntity
  8
DAMAN
 62
     5
100
AcDbBlockReference
  2
100CROSS
 10
6.410892999999999
 20
4.555543
 30
0.0
 41
0.98
 42
0.98
  0
CIRCLE
  5
315
330
310
100
AcDbEntity
  8
DAMAN
 62
     5
100
AcDbCircle
 10
6.410892999999999
 20
4.555543
 30
0.0
 40
0.4910670000000001
  0
CIRCLE
  5
316
330
310
100
AcDbEntity
  8
DAMAN
 62
     5
100
AcDbCircle
 10
6.410892999999999
 20
4.555543
 30
0.0
 40
0.453
  0
CIRCLE
  5
317
330
310
100
AcDbEntity
  8
DAMAN
 62
     5
100
AcDbCircle
 10
6.410892999999999
 20
4.555543
 30
0.0
 40
0.53125
  0
ENDBLK
  5
318
330
310
100
AcDbEntity
  8
0
100
AcDbBlockEnd
  0
BLOCK
  5
31A
330
319
100
AcDbEntity
  8
0
100
AcDbBlockBegin
  2
100NPTFT
 70
     0
 10
0.0
 20
0.0
 30
0.0
  3
100NPTFT
  1

  0
CIRCLE
  5
31B
330
319
100
AcDbEntity
  8
DAMAN
100
AcDbCircle
 10
0.0
 20
0.0
 30
0.0
 40
0.5625
  0
CIRCLE
  5
31C
330
319
100
AcDbEntity
  8
DAMAN
100
AcDbCircle
 10
0.0
 20
0.0
 30
0.0
 40
0.6720000000000001
  0
INSERT
  5
31D
330
319
100
AcDbEntity
  8
DAMAN
100
AcDbBlockReference
  2
100CROSS
 10
0.0
 20
0.0
 30
0.0
 41
1.199999999999999
 42
1.199999999999999
  0
CIRCLE
  5
31E
330
319
100
AcDbEntity
  8
DAMAN
100
AcDbCircle
 10
0.0
 20
0.0
 30
0.0
 40
0.625
  0
ENDBLK
  5
31F
330
319
100
AcDbEntity
  8
0
100
AcDbBlockEnd
  0
BLOCK
  5
321
330
320
100
AcDbEntity
  8
0
100
AcDbBlockBegin
  2
025NPTFT
 70
     0
 10
0.0
 20
0.0
 30
0.0
  3
025NPTFT
  1

  0
INSERT
  5
323
330
320
100
AcDbEntity
  8
DAMAN
100
AcDbBlockReference
  2
250NPTFT
 10
0.0
 20
0.0
 30
0.0
  0
ENDBLK
  5
324
330
320
100
AcDbEntity
  8
0
100
AcDbBlockEnd
  0
BLOCK
  5
325
330
322
100
AcDbEntity
  8
0
100
AcDbBlockBegin
  2
250NPTFT
 70
     0
 10
0.0
 20
0.0
 30
0.0
  3
250NPTFT
  1

  0
CIRCLE
  5
326
330
322
100
AcDbEntity
  8
DAMAN
100
AcDbCircle
 10
0.0
 20
0.0
 30
0.0
 40
0.273
  0
CIRCLE
  5
327
330
322
100
AcDbEntity
  8
DAMAN
100
AcDbCircle
 10
0.0
 20
0.0
 30
0.0
 40
0.211
  0
INSERT
  5
328
330
322
100
AcDbEntity
  8
DAMAN
100
AcDbBlockReference
  2
100CROSS
 10
0.0
 20
0.0
 30
0.0
 41
0.4220000000000001
 42
0.4220000000000001
  0
CIRCLE
  5
329
330
322
100
AcDbEntity
  8
DAMAN
100
AcDbCircle
 10
0.0
 20
0.0
 30
0.0
 40
0.242251
  0
POINT
  5
32A
330
322
100
AcDbEntity
  8
CHIDDEN
100
AcDbPoint
 10
-0.087928
 20
0.191806
 30
0.0
  0
POINT
  5
32B
330
322
100
AcDbEntity
  8
CHIDDEN
100
AcDbPoint
 10
-0.137717
 20
-0.15986
 30
0.0
  0
POINT
  5
32C
330
322
100
AcDbEntity
  8
CHIDDEN
100
AcDbPoint
 10
0.202707
 20
-0.058572
 30
0.0
  0
ENDBLK
  5
32D
330
322
100
AcDbEntity
  8
0
100
AcDbBlockEnd
  0
BLOCK
  5
32F
330
32E
100
AcDbEntity
  8
0
100
AcDbBlockBegin
  2
038NPTFT
 70
     0
 10
0.0
 20
0.0
 30
0.0
  3
038NPTFT
  1

  0
INSERT
  5
331
330
32E
100
AcDbEntity
  8
DAMAN
100
AcDbBlockReference
  2
375NPTFT
 10
0.0
 20
0.0
 30
0.0
  0
ENDBLK
  5
332
330
32E
100
AcDbEntity
  8
0
100
AcDbBlockEnd
  0
BLOCK
  5
333
330
330
100
AcDbEntity
  8
0
100
AcDbBlockBegin
  2
375NPTFT
 70
     0
 10
0.0
 20
0.0
 30
0.0
  3
375NPTFT
  1

  0
INSERT
  5
334
330
330
100
AcDbEntity
  8
DAMAN
100
AcDbBlockReference
  2
100CROSS
 10
0.0
 20
0.0
 30
0.0
 41
0.6800000000000001
 42
0.6800000000000001
  0
CIRCLE
  5
335
330
330
100
AcDbEntity
  8
DAMAN
100
AcDbCircle
 10
0.0
 20
0.0
 30
0.0
 40
0.3125
  0
CIRCLE
  5
336
330
330
100
AcDbEntity
  8
DAMAN
100
AcDbCircle
 10
0.0
 20
0.0
 30
0.0
 40
0.281
  0
CIRCLE
  5
337
330
330
100
AcDbEntity
  8
DAMAN
100
AcDbCircle
 10
0.0
 20
0.0
 30
0.0
 40
0.3439999999999999
  0
ENDBLK
  5
338
330
330
100
AcDbEntity
  8
0
100
AcDbBlockEnd
  0
BLOCK
  5
33A
330
339
100
AcDbEntity
  8
0
100
AcDbBlockBegin
  2
C102T
 70
     0
 10
0.0
 20
0.0
 30
0.0
  3
C102T
  1

  0
CIRCLE
  5
33B
330
339
100
AcDbEntity
  8
DAMAN
100
AcDbCircle
 10
0.0
 20
0.0
 30
0.0
 40
0.4060000000000001
  0
INSERT
  5
33C
330
339
100
AcDbEntity
  8
DAMAN
100
AcDbBlockReference
  2
100CROSS
 10
0.0
 20
0.0
 30
0.0
 41
1.199999999999999
 42
1.199999999999999
  0
CIRCLE
  5
33D
330
339
100
AcDbEntity
  8
DAMAN
100
AcDbCircle
 10
0.0
 20
0.0
 30
0.0
 40
0.594
  0
CIRCLE
  5
33E
330
339
100
AcDbEntity
  8
DAMAN
  6
HIDDEN
100
AcDbCircle
 10
0.0
 20
0.0
 30
0.0
 40
0.4375
  0
CIRCLE
  5
33F
330
339
100
AcDbEntity
  8
DAMAN
100
AcDbCircle
 10
0.0
 20
0.0
 30
0.0
 40
0.4725
  0
CIRCLE
  5
340
330
339
100
AcDbEntity
  8
DAMAN
100
AcDbCircle
 10
0.0
 20
0.0
 30
0.0
 40
0.3125
  0
ENDBLK
  5
341
330
339
100
AcDbEntity
  8
0
100
AcDbBlockEnd
  0
BLOCK
  5
343
330
342
100
AcDbEntity
  8
0
100
AcDbBlockBegin
  2
T3AT
 70
     0
 10
0.0
 20
0.0
 30
0.0
  3
T3AT
  1

  0
CIRCLE
  5
344
330
342
100
AcDbEntity
  8
DAMAN
100
AcDbCircle
 10
0.0
 20
0.0
 30
0.0
 40
0.4665
  0
CIRCLE
  5
345
330
342
100
AcDbEntity
  8
DAMAN
100
AcDbCircle
 10
0.0
 20
0.0
 30
0.0
 40
0.4375
  0
CIRCLE
  5
346
330
342
100
AcDbEntity
  8
DAMAN
  6
HIDDEN
100
AcDbCircle
 10
0.0
 20
0.0
 30
0.0
 40
0.5
  0
INSERT
  5
347
330
342
100
AcDbEntity
  8
DAMAN
100
AcDbBlockReference
  2
100CROSS
 10
0.0
 20
0.0
 30
0.0
 41
0.88
 42
0.88
  0
CIRCLE
  5
348
330
342
100
AcDbEntity
  8
DAMAN
100
AcDbCircle
 10
0.0
 20
0.0
 30
0.0
 40
0.5160000000000001
  0
CIRCLE
  5
349
330
342
100
AcDbEntity
  8
DAMAN
100
AcDbCircle
 10
0.0
 20
0.0
 30
0.0
 40
0.5390000000000001
  0
CIRCLE
  5
34A
330
342
100
AcDbEntity
  8
DAMAN
100
AcDbCircle
 10
0.0
 20
0.0
 30
0.0
 40
0.3439999999999999
  0
ENDBLK
  5
34B
330
342
100
AcDbEntity
  8
0
100
AcDbBlockEnd
  0
BLOCK
  5
34D
330
34C
100
AcDbEntity
  8
0
100
AcDbBlockBegin
  2
D05HE
 70
     0
 10
0.0
 20
0.0
 30
0.0
  3
D05HE
  1

  0
INSERT
  5
34E
330
34C
100
AcDbEntity
  8
DAMAN
100
AcDbBlockReference
  2
100CROSS
 10
6.40625
 20
3.28175
 30
0.0
 41
0.25
 42
0.25
  0
CIRCLE
  5
34F
330
34C
100
AcDbEntity
  8
DAMAN
  6
HIDDEN
100
AcDbCircle
 10
6.84375
 20
5.71875
 30
0.0
 40
0.125
  0
CIRCLE
  5
350
330
34C
100
AcDbEntity
  8
DAMAN
  6
HIDDEN
100
AcDbCircle
 10
6.84375
 20
3.59375
 30
0.0
 40
0.125
  0
CIRCLE
  5
351
330
34C
100
AcDbEntity
  8
DAMAN
  6
HIDDEN
100
AcDbCircle
 10
5.03125
 20
5.71875
 30
0.0
 40
0.125
  0
CIRCLE
  5
352
330
34C
100
AcDbEntity
  8
DAMAN
  6
HIDDEN
100
AcDbCircle
 10
5.03125
 20
3.59375
 30
0.0
 40
0.125
  0
INSERT
  5
353
330
34C
100
AcDbEntity
  8
DAMAN
100
AcDbBlockReference
  2
100CROSS
 10
5.03125
 20
5.71875
 30
0.0
 41
0.25
 42
0.25
  0
CIRCLE
  5
354
330
34C
100
AcDbEntity
  8
DAMAN
100
AcDbCircle
 10
5.03125
 20
5.71875
 30
0.0
 40
0.1055
  0
CIRCLE
  5
355
330
34C
100
AcDbEntity
  8
DAMAN
100
AcDbCircle
 10
5.03125
 20
3.59375
 30
0.0
 40
0.1055
  0
INSERT
  5
356
330
34C
100
AcDbEntity
  8
DAMAN
100
AcDbBlockReference
  2
100CROSS
 10
5.03125
 20
3.59375
 30
0.0
 41
0.25
 42
0.25
  0
CIRCLE
  5
357
330
34C
100
AcDbEntity
  8
DAMAN
100
AcDbCircle
 10
6.84375
 20
5.71875
 30
0.0
 40
0.1055
  0
INSERT
  5
358
330
34C
100
AcDbEntity
  8
DAMAN
100
AcDbBlockReference
  2
100CROSS
 10
6.84375
 20
5.71875
 30
0.0
 41
0.25
 42
0.25
  0
CIRCLE
  5
359
330
34C
100
AcDbEntity
  8
DAMAN
100
AcDbCircle
 10
6.84375
 20
3.59375
 30
0.0
 40
0.1055
  0
INSERT
  5
35A
330
34C
100
AcDbEntity
  8
DAMAN
100
AcDbBlockReference
  2
100CROSS
 10
6.84375
 20
3.59375
 30
0.0
 41
0.25
 42
0.25
  0
INSERT
  5
35B
330
34C
100
AcDbEntity
  8
DAMAN
100
AcDbBlockReference
  2
100CROSS
 10
5.562249999999999
 20
5.59375
 30
0.0
 41
0.4379999999999999
 42
0.4379999999999999
  0
CIRCLE
  5
35C
330
34C
100
AcDbEntity
  8
DAMAN
100
AcDbCircle
 10
5.562249999999999
 20
5.59375
 30
0.0
 40
0.21875
  0
CIRCLE
  5
35D
330
34C
100
AcDbEntity
  8
DAMAN
100
AcDbCircle
 10
5.999749999999999
 20
5.06275
 30
0.0
 40
0.21875
  0
INSERT
  5
35E
330
34C
100
AcDbEntity
  8
DAMAN
100
AcDbBlockReference
  2
100CROSS
 10
5.999749999999999
 20
5.06275
 30
0.0
 41
0.4379999999999999
 42
0.4379999999999999
  0
INSERT
  5
35F
330
34C
100
AcDbEntity
  8
DAMAN
100
AcDbBlockReference
  2
100CROSS
 10
5.999749999999999
 20
4.25025
 30
0.0
 41
0.4379999999999999
 42
0.4379999999999999
  0
CIRCLE
  5
360
330
34C
100
AcDbEntity
  8
DAMAN
100
AcDbCircle
 10
5.999749999999999
 20
4.25025
 30
0.0
 40
0.21875
  0
CIRCLE
  5
361
330
34C
100
AcDbEntity
  8
DAMAN
100
AcDbCircle
 10
6.59375
 20
4.6565
 30
0.0
 40
0.21875
  0
INSERT
  5
362
330
34C
100
AcDbEntity
  8
DAMAN
100
AcDbBlockReference
  2
100CROSS
 10
6.59375
 20
4.6565
 30
0.0
 41
0.4379999999999999
 42
0.4379999999999999
  0
CIRCLE
  5
363
330
34C
100
AcDbEntity
  8
DAMAN
100
AcDbCircle
 10
5.562249999999999
 20
3.71925
 30
0.0
 40
0.21875
  0
INSERT
  5
364
330
34C
100
AcDbEntity
  8
DAMAN
100
AcDbBlockReference
  2
100CROSS
 10
5.562249999999999
 20
3.71925
 30
0.0
 41
-0.4379999999999999
 42
0.4379999999999999
 50
180.0
  0
CIRCLE
  5
365
330
34C
100
AcDbEntity
  8
DAMAN
100
AcDbCircle
 10
6.40625
 20
3.28175
 30
0.0
 40
0.136
  0
CIRCLE
  5
366
330
34C
100
AcDbEntity
  8
DAMAN
100
AcDbCircle
 10
6.40625
 20
6.03125
 30
0.0
 40
0.136
  0
INSERT
  5
367
330
34C
100
AcDbEntity
  8
DAMAN
100
AcDbBlockReference
  2
100CROSS
 10
6.40625
 20
6.03125
 30
0.0
 41
-0.25
 42
0.25
 50
180.0
  0
ENDBLK
  5
368
330
34C
100
AcDbEntity
  8
0
100
AcDbBlockEnd
  0
BLOCK
  5
36A
330
369
100
AcDbEntity
  8
0
100
AcDbBlockBegin
  2
16SAET
 70
     0
 10
0.0
 20
0.0
 30
0.0
  3
16SAET
  1

  0
CIRCLE
  5
36B
330
369
100
AcDbEntity
  8
DAMAN
100
AcDbCircle
 10
0.0
 20
0.0
 30
0.0
 40
0.6125
  0
CIRCLE
  5
36C
330
369
100
AcDbEntity
  8
DAMAN
100
AcDbCircle
 10
0.0
 20
0.0
 30
0.0
 40
0.5620000000000001
  0
CIRCLE
  5
36D
330
369
100
AcDbEntity
  8
DAMAN
100
AcDbCircle
 10
0.0
 20
0.0
 30
0.0
 40
1.0
  0
INSERT
  5
36E
330
369
100
AcDbEntity
  8
DAMAN
100
AcDbBlockReference
  2
100CROSS
 10
0.0
 20
0.0
 30
0.0
 41
1.6
 42
1.6
  0
CIRCLE
  5
36F
330
369
100
AcDbEntity
  8
DAMAN
100
AcDbCircle
 10
0.0
 20
0.0
 30
0.0
 40
0.65625
  0
ENDBLK
  5
370
330
369
100
AcDbEntity
  8
0
100
AcDbBlockEnd
  0
BLOCK
  5
372
330
371
100
AcDbEntity
  8
0
100
AcDbBlockBegin
  2
12SAET
 70
     0
 10
0.0
 20
0.0
 30
0.0
  3
12SAET
  1

  0
CIRCLE
  5
373
330
371
100
AcDbEntity
  8
DAMAN
100
AcDbCircle
 10
0.0
 20
0.0
 30
0.0
 40
0.53125
  0
INSERT
  5
374
330
371
100
AcDbEntity
  8
DAMAN
100
AcDbBlockReference
  2
100CROSS
 10
0.0
 20
0.0
 30
0.0
 41
1.33
 42
1.33
  0
CIRCLE
  5
375
330
371
100
AcDbEntity
  8
DAMAN
100
AcDbCircle
 10
0.0
 20
0.0
 30
0.0
 40
0.8125
  0
CIRCLE
  5
376
330
371
100
AcDbEntity
  8
DAMAN
100
AcDbCircle
 10
0.0
 20
0.0
 30
0.0
 40
0.453
  0
CIRCLE
  5
377
330
371
100
AcDbEntity
  8
DAMAN
100
AcDbCircle
 10
0.0
 20
0.0
 30
0.0
 40
0.4920000000000001
  0
ENDBLK
  5
378
330
371
100
AcDbEntity
  8
0
100
AcDbBlockEnd
  0
BLOCK
  5
37A
330
379
100
AcDbEntity
  8
0
100
AcDbBlockBegin
  2
06SAET
 70
     0
 10
0.0
 20
0.0
 30
0.0
  3
06SAET
  1

  0
INSERT
  5
37B
330
379
100
AcDbEntity
  8
DAMAN
100
AcDbBlockReference
  2
100CROSS
 10
0.0
 20
0.0
 30
0.0
  0
CIRCLE
  5
37C
330
379
100
AcDbEntity
  8
DAMAN
100
AcDbCircle
 10
0.0
 20
0.0
 30
0.0
 40
0.28125
  0
CIRCLE
  5
37D
330
379
100
AcDbEntity
  8
DAMAN
100
AcDbCircle
 10
0.0
 20
0.0
 30
0.0
 40
0.5
  0
CIRCLE
  5
37E
330
379
100
AcDbEntity
  8
DAMAN
100
AcDbCircle
 10
0.0
 20
0.0
 30
0.0
 40
0.25
  0
ENDBLK
  5
37F
330
379
100
AcDbEntity
  8
0
100
AcDbBlockEnd
  0
BLOCK
  5
381
330
380
100
AcDbEntity
  8
0
100
AcDbBlockBegin
  2
C162T
 70
     0
 10
0.0
 20
0.0
 30
0.0
  3
C162T
  1

  0
CIRCLE
  5
382
330
380
100
AcDbEntity
  8
DAMAN
100
AcDbCircle
 10
0.0
 20
0.0
 30
0.0
 40
0.375
  0
CIRCLE
  5
383
330
380
100
AcDbEntity
  8
DAMAN
100
AcDbCircle
 10
0.0
 20
0.0
 30
0.0
 40
0.5635
  0
CIRCLE
  5
384
330
380
100
AcDbEntity
  8
DAMAN
100
AcDbCircle
 10
0.0
 20
0.0
 30
0.0
 40
0.617
  0
CIRCLE
  5
385
330
380
100
AcDbEntity
  8
DAMAN
100
AcDbCircle
 10
0.0
 20
0.0
 30
0.0
 40
0.7005
  0
CIRCLE
  5
386
330
380
100
AcDbEntity
  8
DAMAN
100
AcDbCircle
 10
0.0
 20
0.0
 30
0.0
 40
0.875
  0
CIRCLE
  5
387
330
380
100
AcDbEntity
  8
DAMAN
  6
HIDDEN
100
AcDbCircle
 10
0.0
 20
0.0
 30
0.0
 40
0.6559999999999999
  0
INSERT
  5
388
330
380
100
AcDbEntity
  8
DAMAN
100
AcDbBlockReference
  2
100CROSS
 10
0.0
 20
0.0
 30
0.0
 41
1.32
 42
1.32
 43
1.5
  0
ENDBLK
  5
389
330
380
100
AcDbEntity
  8
0
100
AcDbBlockEnd
  0
BLOCK
  5
38B
330
38A
100
AcDbEntity
  8
0
100
AcDbBlockBegin
  2
MGBFCJ
 70
     0
 10
0.0
 20
0.0
 30
0.0
  3
MGBFCJ
  1

  0
LINE
  5
38C
330
38A
100
AcDbEntity
  8
DAMAN
100
AcDbLine
 10
1.0
 20
6.0
 30
0.0
 11
5.0
 21
6.0
 31
0.0
  0
LINE
  5
38D
330
38A
100
AcDbEntity
  8
DAMAN
100
AcDbLine
 10
5.0
 20
6.0
 30
0.0
 11
5.0
 21
11.0
 31
0.0
  0
LINE
  5
38E
330
38A
100
AcDbEntity
  8
DAMAN
100
AcDbLine
 10
5.0
 20
11.0
 30
0.0
 11
1.0
 21
11.0
 31
0.0
  0
LINE
  5
38F
330
38A
100
AcDbEntity
  8
DAMAN
  6
HIDDEN
100
AcDbLine
 10
1.0
 20
11.0
 30
0.0
 11
1.0
 21
6.0
 31
0.0
  0
LINE
  5
390
330
38A
100
AcDbEntity
  8
DAMAN
100
AcDbLine
 10
7.0
 20
6.0
 30
0.0
 11
13.5
 21
6.0
 31
0.0
  0
LINE
  5
391
330
38A
100
AcDbEntity
  8
DAMAN
100
AcDbLine
 10
13.5
 20
6.0
 30
0.0
 11
13.5
 21
11.0
 31
0.0
  0
LINE
  5
392
330
38A
100
AcDbEntity
  8
DAMAN
100
AcDbLine
 10
13.5
 20
11.0
 30
0.0
 11
7.0
 21
11.0
 31
0.0
  0
LINE
  5
393
330
38A
100
AcDbEntity
  8
DAMAN
100
AcDbLine
 10
7.0
 20
11.0
 30
0.0
 11
7.0
 21
6.0
 31
0.0
  0
LINE
  5
394
330
38A
100
AcDbEntity
  8
DAMAN
  6
HIDDEN
100
AcDbLine
 10
19.5
 20
11.0
 30
0.0
 11
19.5
 21
6.0
 31
0.0
  0
LINE
  5
395
330
38A
100
AcDbEntity
  8
DAMAN
100
AcDbLine
 10
15.5
 20
6.0
 30
0.0
 11
15.5
 21
11.0
 31
0.0
  0
LINE
  5
396
330
38A
100
AcDbEntity
  8
DAMAN
100
AcDbLine
 10
19.5
 20
6.0
 30
0.0
 11
15.5
 21
6.0
 31
0.0
  0
LINE
  5
397
330
38A
100
AcDbEntity
  8
DAMAN
100
AcDbLine
 10
15.5
 20
11.0
 30
0.0
 11
19.5
 21
11.0
 31
0.0
  0
LINE
  5
398
330
38A
100
AcDbEntity
  8
DAMAN
100
AcDbLine
 10
13.5
 20
16.0
 30
0.0
 11
7.0
 21
16.0
 31
0.0
  0
LINE
  5
399
330
38A
100
AcDbEntity
  8
DAMAN
100
AcDbLine
 10
7.0
 20
12.0
 30
0.0
 11
13.5
 21
12.0
 31
0.0
  0
LINE
  5
39A
330
38A
100
AcDbEntity
  8
DAMAN
100
AcDbLine
 10
7.0
 20
16.0
 30
0.0
 11
7.0
 21
12.0
 31
0.0
  0
LINE
  5
39B
330
38A
100
AcDbEntity
  8
DAMAN
100
AcDbLine
 10
13.5
 20
12.0
 30
0.0
 11
13.5
 21
16.0
 31
0.0
  0
LINE
  5
39C
330
38A
100
AcDbEntity
  8
DAMAN
100
AcDbLine
 10
13.5
 20
5.0
 30
0.0
 11
7.0
 21
5.0
 31
0.0
  0
LINE
  5
39D
330
38A
100
AcDbEntity
  8
DAMAN
100
AcDbLine
 10
7.0
 20
1.0
 30
0.0
 11
13.5
 21
1.0
 31
0.0
  0
LINE
  5
39E
330
38A
100
AcDbEntity
  8
DAMAN
100
AcDbLine
 10
7.0
 20
5.0
 30
0.0
 11
7.0
 21
1.0
 31
0.0
  0
LINE
  5
39F
330
38A
100
AcDbEntity
  8
DAMAN
100
AcDbLine
 10
13.5
 20
1.0
 30
0.0
 11
13.5
 21
5.0
 31
0.0
  0
INSERT
  5
3A0
330
38A
100
AcDbEntity
  8
DAMAN
100
AcDbBlockReference
  2
500MKT
 10
20.062
 20
11.0
 30
0.0
  0
INSERT
  5
3A1
330
38A
100
AcDbEntity
  8
DAMAN
100
AcDbBlockReference
  2
500MKT
 10
0.4379999999999999
 20
6.0
 30
0.0
 50
180.0
  0
INSERT
  5
3A2
330
38A
100
AcDbEntity
  8
DAMAN
100
AcDbBlockReference
  2
500MKCT
 10
7.0
 20
11.0
 30
0.0
  0
INSERT
  5
3A3
330
38A
100
AcDbEntity
  8
DAMAN
100
AcDbBlockReference
  2
500MKCT
 10
13.5
 20
6.0
 30
0.0
 50
180.0
  0
INSERT
  5
3A4
330
38A
100
AcDbEntity
  8
DAMAN
100
AcDbBlockReference
  2
500MKS
 10
6.781749999999999
 20
1.375
 30
0.0
  0
INSERT
  5
3A5
330
38A
100
AcDbEntity
  8
DAMAN
100
AcDbBlockReference
  2
500MKS
 10
13.71825
 20
1.375
 30
0.0
 41
-1.0
  0
INSERT
  5
3A6
330
38A
100
AcDbEntity
  8
DAMAN
100
AcDbBlockReference
  2
500MKS
 10
13.71825
 20
15.625
 30
0.0
 50
180.0
  0
INSERT
  5
3A7
330
38A
100
AcDbEntity
  8
DAMAN
100
AcDbBlockReference
  2
500MKS
 10
6.781749999999999
 20
15.625
 30
0.0
 41
-1.0
 50
180.0
  0
INSERT
  5
3A8
330
38A
100
AcDbEntity
  8
DAMAN
100
AcDbBlockReference
  2
025NPTFT
 10
10.18799999999999
 20
2.5
 30
0.0
  0
INSERT
  5
3A9
330
38A
100
AcDbEntity
  8
DAMAN
100
AcDbBlockReference
  2
075NPTFT
 10
3.0
 20
7.843999999999999
 30
0.0
  0
INSERT
  5
3AA
330
38A
100
AcDbEntity
  8
DAMAN
100
AcDbBlockReference
  2
075NPTFT
 10
8.562000000000001
 20
4.125
 30
0.0
  0
INSERT
  5
3AB
330
38A
100
AcDbEntity
  8
DAMAN
100
AcDbBlockReference
  2
075NPTFT
 10
17.5
 20
7.843999999999999
 30
0.0
  0
INSERT
  5
3AC
330
38A
100
AcDbEntity
  8
DAMAN
100
AcDbBlockReference
  2
075NPTFT
 10
8.562000000000001
 20
1.875
 30
0.0
  0
INSERT
  5
3AD
330
38A
100
AcDbEntity
  8
DAMAN
100
AcDbBlockReference
  2
100NPTFT
 10
3.0
 20
9.843999999999999
 30
0.0
  0
INSERT
  5
3AE
330
38A
100
AcDbEntity
  8
DAMAN
100
AcDbBlockReference
  2
100NPTFT
 10
17.5
 20
9.843999999999999
 30
0.0
  0
INSERT
  5
3AF
330
38A
100
AcDbEntity
  8
DAMAN
100
AcDbBlockReference
  2
075NPTFT
 10
11.812
 20
1.875
 30
0.0
  0
INSERT
  5
3B0
330
38A
100
AcDbEntity
  8
DAMAN
100
AcDbBlockReference
  2
075NPTFT
 10
11.812
 20
4.125
 30
0.0
  0
TEXT
  5
3B1
330
38A
100
AcDbEntity
  8
DAMAN
100
AcDbText
 10
4.1875
 20
10.43749999999999
 30
0.0
 40
0.2
  1
T
 50
270.0
100
AcDbText
  0
TEXT
  5
3B2
330
38A
100
AcDbEntity
  8
DAMAN
100
AcDbText
 10
4.28125
 20
6.875
 30
0.0
 40
0.2
  1
P
 50
270.0
100
AcDbText
  0
TEXT
  5
3B3
330
38A
100
AcDbEntity
  8
DAMAN
100
AcDbText
 10
16.3125
 20
10.375
 30
0.0
 40
0.2
  1
T
 50
90.0
100
AcDbText
  0
TEXT
  5
3B4
330
38A
100
AcDbEntity
  8
DAMAN
100
AcDbText
 10
16.21875
 20
6.90625
 30
0.0
 40
0.2
  1
P
 50
90.0
100
AcDbText
  0
TEXT
  5
3B5
330
38A
100
AcDbEntity
  8
DAMAN
100
AcDbText
 10
9.5
 20
4.6875
 30
0.0
 40
0.2
  1
B
100
AcDbText
  0
TEXT
  5
3B6
330
38A
100
AcDbEntity
  8
DAMAN
100
AcDbText
 10
9.5
 20
2.6875
 30
0.0
 40
0.2
  1
A
100
AcDbText
  0
TEXT
  5
3B7
330
38A
100
AcDbEntity
  8
DAMAN
100
AcDbText
 10
12.75
 20
4.6875
 30
0.0
 40
0.2
  1
B
100
AcDbText
  0
TEXT
  5
3B8
330
38A
100
AcDbEntity
  8
DAMAN
100
AcDbText
 10
12.75
 20
2.6875
 30
0.0
 40
0.2
  1
A
100
AcDbText
  0
TEXT
  5
3B9
330
38A
100
AcDbEntity
  8
DAMAN
100
AcDbText
 10
10.59374999999999
 20
2.78125
 30
0.0
 40
0.2
  1
GA
100
AcDbText
  0
TEXT
  5
3BA
330
38A
100
AcDbEntity
  8
DAMAN
100
AcDbText
 10
9.375
 20
3.5625
 30
0.0
 40
0.18
  1
DAMAN ****
100
AcDbText
  0
INSERT
  5
3BB
330
38A
100
AcDbEntity
  8
DAMAN
100
AcDbBlockReference
  2
038NPTFT
 10
8.0
 20
12.75
 30
0.0
  0
INSERT
  5
3BC
330
38A
100
AcDbEntity
  8
DAMAN
100
AcDbBlockReference
  2
038NPTFT
 10
7.75
 20
3.0
 30
0.0
  0
TEXT
  5
3BD
330
38A
100
AcDbEntity
  8
DAMAN
100
AcDbText
 10
7.34375
 20
12.1875
 30
0.0
 40
0.2
  1
X
100
AcDbText
  0
TEXT
  5
3BE
330
38A
100
AcDbEntity
  8
DAMAN
100
AcDbText
 10
7.25
 20
3.46875
 30
0.0
 40
0.2
  1
Y
100
AcDbText
  0
INSERT
  5
3BF
330
38A
100
AcDbEntity
  8
DAMAN
100
AcDbBlockReference
  2
C102T
 10
10.25
 20
15.0
 30
0.0
  0
INSERT
  5
3C0
330
38A
100
AcDbEntity
  8
DAMAN
100
AcDbBlockReference
  2
D05
 10
7.718499999999999
 20
9.374249999999999
 30
0.0
  0
INSERT
  5
3C1
330
38A
100
AcDbEntity
  8
DAMAN
100
AcDbBlockReference
  2
D05
 10
10.9685
 20
9.374249999999999
 30
0.0
  0
INSERT
  5
3C2
330
38A
100
AcDbEntity
  8
DAMAN
100
AcDbBlockReference
  2
100CROSS
 10
9.0935
 20
9.686749999999999
 30
0.0
 41
-0.25
 42
0.25
 50
180.0
  0
CIRCLE
  5
3C3
330
38A
100
AcDbEntity
  8
DAMAN
100
AcDbCircle
 10
9.0935
 20
9.686749999999999
 30
0.0
 40
0.136
  0
INSERT
  5
3C4
330
38A
100
AcDbEntity
  8
DAMAN
100
AcDbBlockReference
  2
100CROSS
 10
9.0935
 20
6.937249999999999
 30
0.0
 41
0.25
 42
0.25
  0
CIRCLE
  5
3C5
330
38A
100
AcDbEntity
  8
DAMAN
100
AcDbCircle
 10
9.0935
 20
6.937249999999999
 30
0.0
 40
0.136
  0
CIRCLE
  5
3C6
330
38A
100
AcDbEntity
  8
DAMAN
100
AcDbCircle
 10
12.3435
 20
9.686749999999999
 30
0.0
 40
0.136
  0
INSERT
  5
3C7
330
38A
100
AcDbEntity
  8
DAMAN
100
AcDbBlockReference
  2
100CROSS
 10
12.3435
 20
9.686749999999999
 30
0.0
 41
-0.25
 42
0.25
 50
180.0
  0
INSERT
  5
3C8
330
38A
100
AcDbEntity
  8
DAMAN
100
AcDbBlockReference
  2
100CROSS
 10
12.3435
 20
6.937249999999999
 30
0.0
 41
0.25
 42
0.25
  0
CIRCLE
  5
3C9
330
38A
100
AcDbEntity
  8
DAMAN
100
AcDbCircle
 10
12.3435
 20
6.937249999999999
 30
0.0
 40
0.136
  0
ENDBLK
  5
3CA
330
38A
100
AcDbEntity
  8
0
100
AcDbBlockEnd
  0
ENDSEC
  0
SECTION
  2
ENTITIES
  0
LINE
  5
3CB
330
22F
100
AcDbEntity
  8
DAMAN
100
AcDbLine
 10
1.0
 20
6.0
 30
0.0
 11
5.0
 21
6.0
 31
0.0
  0
LINE
  5
3CC
330
22F
100
AcDbEntity
  8
DAMAN
100
AcDbLine
 10
5.0
 20
6.0
 30
0.0
 11
5.0
 21
11.0
 31
0.0
  0
LINE
  5
3CD
330
22F
100
AcDbEntity
  8
DAMAN
100
AcDbLine
 10
5.0
 20
11.0
 30
0.0
 11
1.0
 21
11.0
 31
0.0
  0
LINE
  5
3CE
330
22F
100
AcDbEntity
  8
DAMAN
  6
HIDDEN
100
AcDbLine
 10
1.0
 20
11.0
 30
0.0
 11
1.0
 21
6.0
 31
0.0
  0
LINE
  5
3CF
330
22F
100
AcDbEntity
  8
DAMAN
100
AcDbLine
 10
7.0
 20
6.0
 30
0.0
 11
10.25
 21
6.0
 31
0.0
  0
LINE
  5
3D0
330
22F
100
AcDbEntity
  8
DAMAN
100
AcDbLine
 10
10.25
 20
6.0
 30
0.0
 11
10.25
 21
11.0
 31
0.0
  0
LINE
  5
3D1
330
22F
100
AcDbEntity
  8
DAMAN
100
AcDbLine
 10
10.25
 20
11.0
 30
0.0
 11
7.0
 21
11.0
 31
0.0
  0
LINE
  5
3D2
330
22F
100
AcDbEntity
  8
DAMAN
100
AcDbLine
 10
7.0
 20
11.0
 30
0.0
 11
7.0
 21
6.0
 31
0.0
  0
LINE
  5
3D3
330
22F
100
AcDbEntity
  8
DAMAN
  6
HIDDEN
100
AcDbLine
 10
16.25
 20
11.0
 30
0.0
 11
16.25
 21
6.0
 31
0.0
  0
LINE
  5
3D4
330
22F
100
AcDbEntity
  8
DAMAN
100
AcDbLine
 10
12.25
 20
6.0
 30
0.0
 11
12.25
 21
11.0
 31
0.0
  0
LINE
  5
3D5
330
22F
100
AcDbEntity
  8
DAMAN
100
AcDbLine
 10
16.25
 20
6.0
 30
0.0
 11
12.25
 21
6.0
 31
0.0
  0
LINE
  5
3D6
330
22F
100
AcDbEntity
  8
DAMAN
100
AcDbLine
 10
12.25
 20
11.0
 30
0.0
 11
16.25
 21
11.0
 31
0.0
  0
LINE
  5
3D7
330
22F
100
AcDbEntity
  8
DAMAN
100
AcDbLine
 10
10.25
 20
16.0
 30
0.0
 11
7.0
 21
16.0
 31
0.0
  0
LINE
  5
3D8
330
22F
100
AcDbEntity
  8
DAMAN
100
AcDbLine
 10
7.0
 20
12.0
 30
0.0
 11
10.25
 21
12.0
 31
0.0
  0
LINE
  5
3D9
330
22F
100
AcDbEntity
  8
DAMAN
100
AcDbLine
 10
7.0
 20
16.0
 30
0.0
 11
7.0
 21
12.0
 31
0.0
  0
LINE
  5
3DA
330
22F
100
AcDbEntity
  8
DAMAN
100
AcDbLine
 10
10.25
 20
12.0
 30
0.0
 11
10.25
 21
16.0
 31
0.0
  0
LINE
  5
3DB
330
22F
100
AcDbEntity
  8
DAMAN
100
AcDbLine
 10
10.25
 20
5.0
 30
0.0
 11
7.0
 21
5.0
 31
0.0
  0
LINE
  5
3DC
330
22F
100
AcDbEntity
  8
DAMAN
100
AcDbLine
 10
7.0
 20
1.0
 30
0.0
 11
10.25
 21
1.0
 31
0.0
  0
LINE
  5
3DD
330
22F
100
AcDbEntity
  8
DAMAN
100
AcDbLine
 10
7.0
 20
5.0
 30
0.0
 11
7.0
 21
1.0
 31
0.0
  0
LINE
  5
3DE
330
22F
100
AcDbEntity
  8
DAMAN
100
AcDbLine
 10
10.25
 20
1.0
 30
0.0
 11
10.25
 21
5.0
 31
0.0
  0
INSERT
  5
3DF
330
22F
100
AcDbEntity
  8
DAMAN
100
AcDbBlockReference
  2
500MKT
 10
16.812
 20
11.0
 30
0.0
  0
INSERT
  5
3E0
330
22F
100
AcDbEntity
  8
DAMAN
100
AcDbBlockReference
  2
500MKT
 10
0.4379999999999999
 20
6.0
 30
0.0
 50
180.0
  0
INSERT
  5
3E1
330
22F
100
AcDbEntity
  8
DAMAN
100
AcDbBlockReference
  2
500MKCT
 10
7.0
 20
11.0
 30
0.0
  0
INSERT
  5
3E2
330
22F
100
AcDbEntity
  8
DAMAN
100
AcDbBlockReference
  2
500MKCT
 10
10.25
 20
6.0
 30
0.0
 50
180.0
  0
INSERT
  5
3E3
330
22F
100
AcDbEntity
  8
DAMAN
100
AcDbBlockReference
  2
500MKS
 10
6.781749999999999
 20
1.375
 30
0.0
  0
INSERT
  5
3E4
330
22F
100
AcDbEntity
  8
DAMAN
100
AcDbBlockReference
  2
500MKS
 10
10.46824999999999
 20
1.375
 30
0.0
 41
-1.0
  0
INSERT
  5
3E5
330
22F
100
AcDbEntity
  8
DAMAN
100
AcDbBlockReference
  2
500MKS
 10
10.46824999999999
 20
15.625
 30
0.0
 50
180.0
  0
INSERT
  5
3E6
330
22F
100
AcDbEntity
  8
DAMAN
100
AcDbBlockReference
  2
500MKS
 10
6.781749999999999
 20
15.625
 30
0.0
 41
-1.0
 50
180.0
  0
TEXT
  5
3E7
330
22F
100
AcDbEntity
  8
DAMAN
100
AcDbText
 10
4.1875
 20
10.43749999999999
 30
0.0
 40
0.2
  1
T
 50
270.0
100
AcDbText
  0
TEXT
  5
3E8
330
22F
100
AcDbEntity
  8
DAMAN
100
AcDbText
 10
4.28125
 20
6.875
 30
0.0
 40
0.2
  1
P
 50
270.0
100
AcDbText
  0
TEXT
  5
3E9
330
22F
100
AcDbEntity
  8
DAMAN
100
AcDbText
 10
13.0625
 20
10.375
 30
0.0
 40
0.2
  1
T
 50
90.0
100
AcDbText
  0
TEXT
  5
3EA
330
22F
100
AcDbEntity
  8
DAMAN
100
AcDbText
 10
12.96875
 20
6.90625
 30
0.0
 40
0.2
  1
P
 50
90.0
100
AcDbText
  0
TEXT
  5
3EB
330
22F
100
AcDbEntity
  8
DAMAN
100
AcDbText
 10
9.5
 20
4.6875
 30
0.0
 40
0.2
  1
B
100
AcDbText
  0
TEXT
  5
3EC
330
22F
100
AcDbEntity
  8
DAMAN
100
AcDbText
 10
9.4375
 20
2.125
 30
0.0
 40
0.2
  1
A
100
AcDbText
  0
TEXT
  5
3ED
330
22F
100
AcDbEntity
  8
DAMAN
100
AcDbText
 10
7.105163095735136
 20
3.058748707677004
 30
0.0
 40
0.18
  1
DAMAN ****
100
AcDbText
  0
INSERT
  5
3EE
330
22F
100
AcDbEntity
  8
DAMAN
100
AcDbBlockReference
  2
D05
 10
7.718499999999999
 20
9.374249999999999
 30
0.0
  0
INSERT
  5
3EF
330
22F
100
AcDbEntity
  8
DAMAN
100
AcDbBlockReference
  2
16SAET
 10
3.0
 20
9.843999999999999
 30
0.0
  0
INSERT
  5
3F0
330
22F
100
AcDbEntity
  8
DAMAN
100
AcDbBlockReference
  2
12SAET
 10
3.0
 20
7.843999999999999
 30
0.0
  0
INSERT
  5
3F1
330
22F
100
AcDbEntity
  8
DAMAN
100
AcDbBlockReference
  2
12SAET
 10
8.562000000000001
 20
4.125
 30
0.0
  0
INSERT
  5
3F2
330
22F
100
AcDbEntity
  8
DAMAN
100
AcDbBlockReference
  2
12SAET
 10
8.562000000000001
 20
1.875
 30
0.0
  0
INSERT
  5
3F3
330
22F
100
AcDbEntity
  8
DAMAN
100
AcDbBlockReference
  2
12SAET
 10
14.25
 20
7.843999999999999
 30
0.0
  0
INSERT
  5
3F4
330
22F
100
AcDbEntity
  8
DAMAN
100
AcDbBlockReference
  2
16SAET
 10
14.25
 20
9.843999999999999
 30
0.0
  0
INSERT
  5
3F5
330
22F
100
AcDbEntity
  8
DAMAN
100
AcDbBlockReference
  2
06SAET
 10
9.625
 20
3.0
 30
0.0
  0
INSERT
  5
3F6
330
22F
100
AcDbEntity
  8
DAMAN
100
AcDbBlockReference
  2
06SAET
 10
9.092999999999999
 20
12.75
 30
0.0
  0
INSERT
  5
3F7
330
22F
100
AcDbEntity
  8
DAMAN
100
AcDbBlockReference
  2
100CROSS
 10
9.0935
 20
9.686749999999999
 30
0.0
 41
-0.25
 42
0.25
 50
180.0
  0
CIRCLE
  5
3F8
330
22F
100
AcDbEntity
  8
DAMAN
100
AcDbCircle
 10
9.0935
 20
9.686749999999999
 30
0.0
 40
0.136
  0
INSERT
  5
3F9
330
22F
100
AcDbEntity
  8
DAMAN
100
AcDbBlockReference
  2
100CROSS
 10
9.0935
 20
6.937249999999999
 30
0.0
 41
0.25
 42
0.25
  0
CIRCLE
  5
3FA
330
22F
100
AcDbEntity
  8
DAMAN
100
AcDbCircle
 10
9.0935
 20
6.937249999999999
 30
0.0
 40
0.136
  0
TEXT
  5
3FB
330
22F
100
AcDbEntity
  8
DAMAN
100
AcDbText
 10
8.436749999999999
 20
12.1875
 30
0.0
 40
0.2
  1
X
100
AcDbText
  0
TEXT
  5
3FC
330
22F
100
AcDbEntity
  8
DAMAN
100
AcDbText
 10
9.983315712327438
 20
3.539248423893475
 30
0.0
 40
0.2
  1
Y
100
AcDbText
  0
ENDSEC
  0
SECTION
  2
OBJECTS
  0
DICTIONARY
  5
21D
330
0
100
AcDbDictionary
  3
ACAD_GROUP
350
21E
  3
ACAD_LAYOUT
350
22A
  3
ACAD_MLINESTYLE
350
227
  3
ACAD_PLOTSETTINGS
350
229
  3
ACAD_PLOTSTYLENAME
350
21F
  3
ACDBHEADERROUNDTRIPXREC
350
401
  0
DICTIONARY
  5
423
330
22F
100
AcDbDictionary
280
     1
  3
ACAD_LAYOUTSELFREF
360
424
  0
DICTIONARY
  5
421
330
22B
100
AcDbDictionary
280
     1
  3
ACAD_LAYOUTSELFREF
360
422
  0
DICTIONARY
  5
21E
102
{ACAD_REACTORS
330
21D
102
}
330
21D
100
AcDbDictionary
  0
DICTIONARY
  5
22A
102
{ACAD_REACTORS
330
21D
102
}
330
21D
100
AcDbDictionary
  0
DICTIONARY
  5
227
102
{ACAD_REACTORS
330
21D
102
}
330
21D
100
AcDbDictionary
  3
STANDARD
350
228
  0
DICTIONARY
  5
229
102
{ACAD_REACTORS
330
21D
102
}
330
21D
100
AcDbDictionary
  0
ACDBDICTIONARYWDFLT
  5
21F
102
{ACAD_REACTORS
330
21D
102
}
330
21D
100
AcDbDictionary
281
     1
  3
Normal
350
220
100
AcDbDictionaryWithDefault
340
220
  0
DICTIONARY
  5
401
102
{ACAD_REACTORS
330
21D
102
}
330
21D
100
AcDbDictionary
  3
CEPSNTYPE
350
40B
  3
FINGERPRINTGUID
350
40C
  3
HYPERLINKBASE
350
404
  3
INSUNITS
350
40A
  3
LAYOUTDICT
350
406
  3
LWETCUNION
350
409
  3
PLOTSETDICT
350
407
  3
PLOTSTYLNAMDICT
350
408
  3
PSVPSCALE
350
40E
  3
PUCSBASE
350
411
  3
PUCSORGBACK
350
417
  3
PUCSORGBOTTOM
350
413
  3
PUCSORGFRONT
350
416
  3
PUCSORGLEFT
350
414
  3
PUCSORGRIGHT
350
415
  3
PUCSORGTOP
350
412
  3
PUCSORTHOREF
350
40F
  3
PUCSORTHOVIEW
350
410
  3
STYLESHEET
350
405
  3
TSTACKALIGN
350
402
  3
TSTACKSIZE
350
403
  3
UCSBASE
350
41A
  3
UCSORGBACK
350
420
  3
UCSORGBOTTOM
350
41C
  3
UCSORGFRONT
350
41F
  3
UCSORGLEFT
350
41D
  3
UCSORGRIGHT
350
41E
  3
UCSORGTOP
350
41B
  3
UCSORTHOREF
350
418
  3
UCSORTHOVIEW
350
419
  3
VERSIONGUID
350
40D
  0
XRECORD
  5
424
102
{ACAD_REACTORS
330
423
102
}
330
423
100
AcDbXrecord
340
22F
  0
XRECORD
  5
422
102
{ACAD_REACTORS
330
421
102
}
330
421
100
AcDbXrecord
340
22B
  0
MLINESTYLE
  5
228
102
{ACAD_REACTORS
330
227
102
}
330
227
100
AcDbMlineStyle
  2
STANDARD
 70
     0
  3

 62
   256
 51
90.0
 52
90.0
 71
     2
 49
0.5
 62
   256
  6
BYLAYER
 49
-0.5
 62
   256
  6
BYLAYER
  0
ACDBPLACEHOLDER
  5
220
102
{ACAD_REACTORS
330
21F
102
}
330
21F
100
AcDbPlaceHolder
280
     0
  0
XRECORD
  5
40B
102
{ACAD_REACTORS
330
401
102
}
330
401
100
AcDbXrecord
 90
        0
  0
XRECORD
  5
40C
102
{ACAD_REACTORS
330
401
102
}
330
401
100
AcDbXrecord
  1
{7A9F891B-F50D-441C-901B-A831D4E06971}
  0
XRECORD
  5
404
102
{ACAD_REACTORS
330
401
102
}
330
401
100
AcDbXrecord
  1

  0
XRECORD
  5
40A
102
{ACAD_REACTORS
330
401
102
}
330
401
100
AcDbXrecord
 90
        0
  0
XRECORD
  5
406
102
{ACAD_REACTORS
330
401
102
}
330
401
100
AcDbXrecord
340
22A
  0
XRECORD
  5
409
102
{ACAD_REACTORS
330
401
102
}
330
401
100
AcDbXrecord
 90
    10781
  0
XRECORD
  5
407
102
{ACAD_REACTORS
330
401
102
}
330
401
100
AcDbXrecord
340
229
  0
XRECORD
  5
408
102
{ACAD_REACTORS
330
401
102
}
330
401
100
AcDbXrecord
340
21F
  0
XRECORD
  5
40E
102
{ACAD_REACTORS
330
401
102
}
330
401
100
AcDbXrecord
 40
0.0
  0
XRECORD
  5
411
102
{ACAD_REACTORS
330
401
102
}
330
401
100
AcDbXrecord
340
0
  0
XRECORD
  5
417
102
{ACAD_REACTORS
330
401
102
}
330
401
100
AcDbXrecord
 10
0.0
 20
0.0
 30
0.0
  0
XRECORD
  5
413
102
{ACAD_REACTORS
330
401
102
}
330
401
100
AcDbXrecord
 10
0.0
 20
0.0
 30
0.0
  0
XRECORD
  5
416
102
{ACAD_REACTORS
330
401
102
}
330
401
100
AcDbXrecord
 10
0.0
 20
0.0
 30
0.0
  0
XRECORD
  5
414
102
{ACAD_REACTORS
330
401
102
}
330
401
100
AcDbXrecord
 10
0.0
 20
0.0
 30
0.0
  0
XRECORD
  5
415
102
{ACAD_REACTORS
330
401
102
}
330
401
100
AcDbXrecord
 10
0.0
 20
0.0
 30
0.0
  0
XRECORD
  5
412
102
{ACAD_REACTORS
330
401
102
}
330
401
100
AcDbXrecord
 10
0.0
 20
0.0
 30
0.0
  0
XRECORD
  5
40F
102
{ACAD_REACTORS
330
401
102
}
330
401
100
AcDbXrecord
340
0
  0
XRECORD
  5
410
102
{ACAD_REACTORS
330
401
102
}
330
401
100
AcDbXrecord
 70
     0
  0
XRECORD
  5
405
102
{ACAD_REACTORS
330
401
102
}
330
401
100
AcDbXrecord
  1

  0
XRECORD
  5
402
102
{ACAD_REACTORS
330
401
102
}
330
401
100
AcDbXrecord
 90
        1
  0
XRECORD
  5
403
102
{ACAD_REACTORS
330
401
102
}
330
401
100
AcDbXrecord
 90
       70
  0
XRECORD
  5
41A
102
{ACAD_REACTORS
330
401
102
}
330
401
100
AcDbXrecord
340
0
  0
XRECORD
  5
420
102
{ACAD_REACTORS
330
401
102
}
330
401
100
AcDbXrecord
 10
0.0
 20
0.0
 30
0.0
  0
XRECORD
  5
41C
102
{ACAD_REACTORS
330
401
102
}
330
401
100
AcDbXrecord
 10
0.0
 20
0.0
 30
0.0
  0
XRECORD
  5
41F
102
{ACAD_REACTORS
330
401
102
}
330
401
100
AcDbXrecord
 10
0.0
 20
0.0
 30
0.0
  0
XRECORD
  5
41D
102
{ACAD_REACTORS
330
401
102
}
330
401
100
AcDbXrecord
 10
0.0
 20
0.0
 30
0.0
  0
XRECORD
  5
41E
102
{ACAD_REACTORS
330
401
102
}
330
401
100
AcDbXrecord
 10
0.0
 20
0.0
 30
0.0
  0
XRECORD
  5
41B
102
{ACAD_REACTORS
330
401
102
}
330
401
100
AcDbXrecord
 10
0.0
 20
0.0
 30
0.0
  0
XRECORD
  5
418
102
{ACAD_REACTORS
330
401
102
}
330
401
100
AcDbXrecord
340
0
  0
XRECORD
  5
419
102
{ACAD_REACTORS
330
401
102
}
330
401
100
AcDbXrecord
 70
     0
  0
XRECORD
  5
40D
102
{ACAD_REACTORS
330
401
102
}
330
401
100
AcDbXrecord
  1
{3BA69BB9-CD1F-470C-BA5A-8C2382CE8EAC}
  0
ENDSEC
  0
EOF
