  0
SECTION
  2
HEADER
  9
$ACADVER
  1
AC1014
  9
$ACADMAINTVER
 70
     9
  9
$DWGCODEPAGE
  3
ANSI_1252
  9
$INSBASE
 10
0.0
 20
0.0
 30
0.0
  9
$EXTMIN
 10
4.155306274972581
 20
4.123992959647431
 30
-0.0015258207003583
  9
$EXTMAX
 10
14.59428341865913
 20
15.000457798597
 30
0.0000000349246037
  9
$LIMMIN
 10
0.0
 20
0.0
  9
$LIMMAX
 10
12.0
 20
9.0
  9
$ORTHOMODE
 70
     1
  9
$REGENMODE
 70
     1
  9
$FILLMODE
 70
     1
  9
$QTEXTMODE
 70
     0
  9
$MIRRTEXT
 70
     1
  9
$DRAGMODE
 70
     2
  9
$LTSCALE
 40
1.0
  9
$OSMODE
 70
    37
  9
$ATTMODE
 70
     1
  9
$TEXTSIZE
 40
0.188
  9
$TRACEWID
 40
0.05
  9
$TEXTSTYLE
  7
STANDARD
  9
$CLAYER
  8
DAMAN
  9
$CELTYPE
  6
BYLAYER
  9
$CECOLOR
 62
   256
  9
$CELTSCALE
 40
1.0
  9
$DELOBJ
 70
     1
  9
$DISPSILH
 70
     0
  9
$DIMSCALE
 40
1.0
  9
$DIMASZ
 40
0.18
  9
$DIMEXO
 40
0.0625
  9
$DIMDLI
 40
0.38
  9
$DIMRND
 40
0.0
  9
$DIMDLE
 40
0.0
  9
$DIMEXE
 40
0.18
  9
$DIMTP
 40
0.0
  9
$DIMTM
 40
0.0
  9
$DIMTXT
 40
0.18
  9
$DIMCEN
 40
0.09
  9
$DIMTSZ
 40
0.0
  9
$DIMTOL
 70
     0
  9
$DIMLIM
 70
     0
  9
$DIMTIH
 70
     1
  9
$DIMTOH
 70
     1
  9
$DIMSE1
 70
     0
  9
$DIMSE2
 70
     0
  9
$DIMTAD
 70
     0
  9
$DIMZIN
 70
     0
  9
$DIMBLK
  1

  9
$DIMASO
 70
     1
  9
$DIMSHO
 70
     1
  9
$DIMPOST
  1

  9
$DIMAPOST
  1

  9
$DIMALT
 70
     0
  9
$DIMALTD
 70
     2
  9
$DIMALTF
 40
25.4
  9
$DIMLFAC
 40
1.0
  9
$DIMTOFL
 70
     0
  9
$DIMTVP
 40
0.0
  9
$DIMTIX
 70
     0
  9
$DIMSOXD
 70
     0
  9
$DIMSAH
 70
     0
  9
$DIMBLK1
  1

  9
$DIMBLK2
  1

  9
$DIMSTYLE
  2
STANDARD
  9
$DIMCLRD
 70
     0
  9
$DIMCLRE
 70
     0
  9
$DIMCLRT
 70
     0
  9
$DIMTFAC
 40
1.0
  9
$DIMGAP
 40
0.09
  9
$DIMJUST
 70
     0
  9
$DIMSD1
 70
     0
  9
$DIMSD2
 70
     0
  9
$DIMTOLJ
 70
     1
  9
$DIMTZIN
 70
     0
  9
$DIMALTZ
 70
     0
  9
$DIMALTTZ
 70
     0
  9
$DIMFIT
 70
     3
  9
$DIMUPT
 70
     0
  9
$DIMUNIT
 70
     2
  9
$DIMDEC
 70
     4
  9
$DIMTDEC
 70
     4
  9
$DIMALTU
 70
     2
  9
$DIMALTTD
 70
     2
  9
$DIMTXSTY
  7
STANDARD
  9
$DIMAUNIT
 70
     0
  9
$LUNITS
 70
     2
  9
$LUPREC
 70
     4
  9
$SKETCHINC
 40
0.1
  9
$FILLETRAD
 40
0.0
  9
$AUNITS
 70
     0
  9
$AUPREC
 70
     0
  9
$MENU
  1
tom
  9
$ELEVATION
 40
0.0
  9
$PELEVATION
 40
0.0
  9
$THICKNESS
 40
0.0
  9
$LIMCHECK
 70
     0
  9
$BLIPMODE
 70
     0
  9
$CHAMFERA
 40
0.0
  9
$CHAMFERB
 40
0.0
  9
$CHAMFERC
 40
0.0
  9
$CHAMFERD
 40
0.0
  9
$SKPOLY
 70
     0
  9
$TDCREATE
 40
2449755.308283576
  9
$TDUPDATE
 40
2453423.574639930
  9
$TDINDWG
 40
0.0283237731
  9
$TDUSRTIMER
 40
0.0283237731
  9
$USRTIMER
 70
     1
  9
$ANGBASE
 50
0.0
  9
$ANGDIR
 70
     0
  9
$PDMODE
 70
     0
  9
$PDSIZE
 40
0.0
  9
$PLINEWID
 40
0.0
  9
$COORDS
 70
     1
  9
$SPLFRAME
 70
     0
  9
$SPLINETYPE
 70
     6
  9
$SPLINESEGS
 70
     8
  9
$ATTDIA
 70
     0
  9
$ATTREQ
 70
     1
  9
$HANDLING
 70
-16383
  9
$HANDSEED
  5
135
  9
$SURFTAB1
 70
     6
  9
$SURFTAB2
 70
     6
  9
$SURFTYPE
 70
     6
  9
$SURFU
 70
     6
  9
$SURFV
 70
     6
  9
$UCSNAME
  2

  9
$UCSORG
 10
0.0
 20
0.0
 30
0.0
  9
$UCSXDIR
 10
1.0
 20
0.0
 30
0.0
  9
$UCSYDIR
 10
0.0
 20
1.0
 30
0.0
  9
$PUCSNAME
  2

  9
$PUCSORG
 10
0.0
 20
0.0
 30
0.0
  9
$PUCSXDIR
 10
1.0
 20
0.0
 30
0.0
  9
$PUCSYDIR
 10
0.0
 20
1.0
 30
0.0
  9
$USERI1
 70
     0
  9
$USERI2
 70
     0
  9
$USERI3
 70
     0
  9
$USERI4
 70
     0
  9
$USERI5
 70
     0
  9
$USERR1
 40
0.0
  9
$USERR2
 40
0.0
  9
$USERR3
 40
0.0
  9
$USERR4
 40
0.0
  9
$USERR5
 40
0.0
  9
$WORLDVIEW
 70
     1
  9
$SHADEDGE
 70
     3
  9
$SHADEDIF
 70
    70
  9
$TILEMODE
 70
     1
  9
$MAXACTVP
 70
    16
  9
$PINSBASE
 10
0.0
 20
0.0
 30
0.0
  9
$PLIMCHECK
 70
     0
  9
$PEXTMIN
 10
1.000000000000000E+20
 20
1.000000000000000E+20
 30
1.000000000000000E+20
  9
$PEXTMAX
 10
-1.000000000000000E+20
 20
-1.000000000000000E+20
 30
-1.000000000000000E+20
  9
$PLIMMIN
 10
0.0
 20
0.0
  9
$PLIMMAX
 10
12.0
 20
9.0
  9
$UNITMODE
 70
     0
  9
$VISRETAIN
 70
     0
  9
$PLINEGEN
 70
     0
  9
$PSLTSCALE
 70
     1
  9
$TREEDEPTH
 70
  3020
  9
$PICKSTYLE
 70
     1
  9
$CMLSTYLE
  2
STANDARD
  9
$CMLJUST
 70
     0
  9
$CMLSCALE
 40
1.0
  9
$PROXYGRAPHICS
 70
     1
  9
$MEASUREMENT
 70
     0
  0
ENDSEC
  0
SECTION
  2
CLASSES
  0
CLASS
  1
ACDBDICTIONARYWDFLT
  2
AcDbDictionaryWithDefault
  3
AutoCAD 2000
 90
        0
280
     0
281
     0
  0
CLASS
  1
ACDBPLACEHOLDER
  2
AcDbPlaceHolder
  3
AutoCAD 2000
 90
        0
280
     0
281
     0
  0
CLASS
  1
LAYOUT
  2
AcDbLayout
  3
AutoCAD 2000
 90
        0
280
     0
281
     0
  0
CLASS
  1
LONG_TRANSACTION
  2
AcDbLongTransaction
  3
AutoCAD 2000
 90
        0
280
     0
281
     0
  0
CLASS
  1
LWPOLYLINE
  2
AcDbPolyline
  3
AutoCAD 2000
 90
        0
280
     0
281
     1
  0
CLASS
  1
HATCH
  2
AcDbHatch
  3
AutoCAD 2000
 90
        0
280
     0
281
     1
  0
CLASS
  1
XRECORD
  2
AcDbXrecord
  3
AutoCAD 2000
 90
        0
280
     0
281
     0
  0
ENDSEC
  0
SECTION
  2
TABLES
  0
TABLE
  2
VPORT
  5
8
330
0
100
AcDbSymbolTable
 70
     2
  0
VPORT
  5
110
330
8
100
AcDbSymbolTableRecord
100
AcDbViewportTableRecord
  2
*ACTIVE
 70
     0
 10
0.0
 20
0.0
 11
1.0
 21
1.0
 12
9.470190385562439
 22
9.591356700604189
 13
0.0
 23
0.0
 14
0.03125
 24
0.03125
 15
0.0
 25
0.0
 16
0.0
 26
0.0
 36
1.0
 17
0.0
 27
0.0
 37
0.0
 40
12.07809931326484
 41
1.647569444444444
 42
50.0
 43
0.0
 44
0.0
 50
0.0
 51
0.0
 71
     0
 72
   100
 73
     1
 74
     1
 75
     0
 76
     0
 77
     0
 78
     0
  0
ENDTAB
  0
TABLE
  2
LTYPE
  5
5
330
0
100
AcDbSymbolTable
 70
     3
  0
LTYPE
  5
13
330
5
100
AcDbSymbolTableRecord
100
AcDbLinetypeTableRecord
  2
BYBLOCK
 70
     0
  3

 72
    65
 73
     0
 40
0.0
  0
LTYPE
  5
14
330
5
100
AcDbSymbolTableRecord
100
AcDbLinetypeTableRecord
  2
BYLAYER
 70
     0
  3

 72
    65
 73
     0
 40
0.0
  0
LTYPE
  5
15
330
5
100
AcDbSymbolTableRecord
100
AcDbLinetypeTableRecord
  2
CONTINUOUS
 70
     0
  3
Solid line
 72
    65
 73
     0
 40
0.0
  0
LTYPE
  5
24
330
5
100
AcDbSymbolTableRecord
100
AcDbLinetypeTableRecord
  2
HIDDEN
 70
     0
  3
_ _ _ _ _ _ _ _ _ _ _ _ _ _ _ _ _ _ _ _ _ _ _
 72
    65
 73
     2
 40
0.375
 49
0.25
 74
     0
 49
-0.125
 74
     0
  0
LTYPE
  5
25
330
5
100
AcDbSymbolTableRecord
100
AcDbLinetypeTableRecord
  2
CENTER
 70
     0
  3
____ _ ____ _ ____ _ ____ _ ____ _ ____ _ ____
 72
    65
 73
     4
 40
2.0
 49
1.25
 74
     0
 49
-0.25
 74
     0
 49
0.25
 74
     0
 49
-0.25
 74
     0
  0
ENDTAB
  0
TABLE
  2
LAYER
  5
2
330
0
100
AcDbSymbolTable
 70
     7
  0
LAYER
  5
10
330
2
100
AcDbSymbolTableRecord
100
AcDbLayerTableRecord
  2
0
 70
     0
 62
     7
  6
CONTINUOUS
  0
LAYER
  5
22
330
2
100
AcDbSymbolTableRecord
100
AcDbLayerTableRecord
  2
DAMAN
 70
     0
 62
     5
  6
CONTINUOUS
  0
LAYER
  5
26
330
2
100
AcDbSymbolTableRecord
100
AcDbLayerTableRecord
  2
BORDER
 70
     0
 62
     7
  6
CONTINUOUS
  0
LAYER
  5
27
330
2
100
AcDbSymbolTableRecord
100
AcDbLayerTableRecord
  2
CSOLID
 70
     0
 62
     3
  6
CONTINUOUS
  0
LAYER
  5
28
330
2
100
AcDbSymbolTableRecord
100
AcDbLayerTableRecord
  2
CHIDDEN
 70
     0
 62
     3
  6
HIDDEN
  0
LAYER
  5
29
330
2
100
AcDbSymbolTableRecord
100
AcDbLayerTableRecord
  2
CDIM
 70
     0
 62
     2
  6
CONTINUOUS
  0
LAYER
  5
2A
330
2
100
AcDbSymbolTableRecord
100
AcDbLayerTableRecord
  2
CCENTER
 70
     0
 62
     4
  6
CENTER
  0
ENDTAB
  0
TABLE
  2
STYLE
  5
3
330
0
100
AcDbSymbolTable
 70
     2
  0
STYLE
  5
11
330
3
100
AcDbSymbolTableRecord
100
AcDbTextStyleTableRecord
  2
STANDARD
 70
     0
 40
0.0
 41
1.0
 50
0.0
 71
     0
 42
0.188
  3
txt
  4

  0
STYLE
  5
2B
330
3
100
AcDbSymbolTableRecord
100
AcDbTextStyleTableRecord
  2
STR
 70
     0
 40
0.0
 41
1.0
 50
0.0
 71
     0
 42
0.14
  3
romans
  4

  0
ENDTAB
  0
TABLE
  2
VIEW
  5
6
330
0
100
AcDbSymbolTable
 70
     0
  0
ENDTAB
  0
TABLE
  2
UCS
  5
7
330
0
100
AcDbSymbolTable
 70
     0
  0
ENDTAB
  0
TABLE
  2
APPID
  5
9
330
0
100
AcDbSymbolTable
 70
     1
  0
APPID
  5
12
330
9
100
AcDbSymbolTableRecord
100
AcDbRegAppTableRecord
  2
ACAD
 70
     0
  0
ENDTAB
  0
TABLE
  2
DIMSTYLE
  5
A
330
0
100
AcDbSymbolTable
 70
     1
  0
DIMSTYLE
105
10E
330
A
100
AcDbSymbolTableRecord
100
AcDbDimStyleTableRecord
  2
STANDARD
 70
     0
  3

  4

  5

  6

  7

 40
1.0
 41
0.18
 42
0.0625
 43
0.38
 44
0.18
 45
0.0
 46
0.0
 47
0.0
 48
0.0
140
0.18
141
0.09
142
0.0
143
25.4
144
1.0
145
0.0
146
1.0
147
0.09
 71
     0
 72
     0
 73
     1
 74
     1
 75
     0
 76
     0
 77
     0
 78
     0
170
     0
171
     2
172
     0
173
     0
174
     0
175
     0
176
     0
177
     0
178
     0
270
     2
271
     4
272
     4
273
     2
274
     2
340
11
275
     0
280
     0
281
     0
282
     0
283
     1
284
     0
285
     0
286
     0
287
     3
288
     0
  0
ENDTAB
  0
TABLE
  2
BLOCK_RECORD
  5
1
330
0
100
AcDbSymbolTable
 70
     3
  0
BLOCK_RECORD
  5
1E
102
{ACAD_XDICTIONARY
360
133
102
}
330
1
100
AcDbSymbolTableRecord
100
AcDbBlockTableRecord
  2
*MODEL_SPACE
  0
BLOCK_RECORD
  5
1A
102
{ACAD_XDICTIONARY
360
131
102
}
330
1
100
AcDbSymbolTableRecord
100
AcDbBlockTableRecord
  2
*PAPER_SPACE
  0
BLOCK_RECORD
  5
2E
330
1
100
AcDbSymbolTableRecord
100
AcDbBlockTableRecord
  2
D05HED07
  0
BLOCK_RECORD
  5
42
330
1
100
AcDbSymbolTableRecord
100
AcDbBlockTableRecord
  2
100CROSS
  0
BLOCK_RECORD
  5
B8
330
1
100
AcDbSymbolTableRecord
100
AcDbBlockTableRecord
  2
050CROSS
  0
ENDTAB
  0
ENDSEC
  0
SECTION
  2
BLOCKS
  0
BLOCK
  5
1F
330
1E
100
AcDbEntity
  8
0
100
AcDbBlockBegin
  2
*MODEL_SPACE
 70
     0
 10
0.0
 20
0.0
 30
0.0
  3
*MODEL_SPACE
  1

  0
ENDBLK
  5
20
330
1E
100
AcDbEntity
  8
0
100
AcDbBlockEnd
  0
BLOCK
  5
1B
330
1A
100
AcDbEntity
 67
     1
  8
0
100
AcDbBlockBegin
  2
*PAPER_SPACE
 70
     0
 10
0.0
 20
0.0
 30
0.0
  3
*PAPER_SPACE
  1

  0
ENDBLK
  5
1C
330
1A
100
AcDbEntity
 67
     1
  8
0
100
AcDbBlockEnd
  0
BLOCK
  5
2F
330
2E
100
AcDbEntity
  8
0
100
AcDbBlockBegin
  2
D05HED07
 70
     0
 10
0.0
 20
0.0
 30
0.0
  3
D05HED07
  1

  0
LWPOLYLINE
  5
30
330
2E
100
AcDbEntity
  8
BORDER
100
AcDbPolyline
 90
        4
 70
     1
 43
0.0
 10
11.96875
 20
5.5
 10
11.96875
 20
11.5
 10
13.46875
 20
11.5
 10
13.46875
 20
5.5
  0
LWPOLYLINE
  5
36
330
2E
100
AcDbEntity
  8
BORDER
100
AcDbPolyline
 90
        4
 70
     1
 43
0.0
 10
6.5
 20
5.5
 10
6.5
 20
11.5
 10
10.0
 20
11.5
 10
10.0
 20
5.5
  0
LWPOLYLINE
  5
3C
330
2E
100
AcDbEntity
  8
BORDER
100
AcDbPolyline
 90
        4
 70
     1
 43
0.0
 10
16.5
 20
5.5
 10
16.5
 20
11.5
 10
20.0
 20
11.5
 10
20.0
 20
5.5
  0
INSERT
  5
43
330
2E
100
AcDbEntity
  8
CCENTER
100
AcDbBlockReference
  2
100CROSS
 10
9.062832999999999
 20
7.15625
 30
0.0
 41
0.250666
 42
0.250666
  0
CIRCLE
  5
44
330
2E
100
AcDbEntity
  8
CSOLID
100
AcDbCircle
 10
9.062832999999999
 20
7.15625
 30
0.0
 40
0.125
  0
CIRCLE
  5
45
330
2E
100
AcDbEntity
  8
CSOLID
100
AcDbCircle
 10
9.062832999999999
 20
9.90625
 30
0.0
 40
0.124997
  0
INSERT
  5
46
330
2E
100
AcDbEntity
  8
CCENTER
100
AcDbBlockReference
  2
100CROSS
 10
9.062832999999999
 20
9.90625
 30
0.0
 41
0.25066
 42
0.25066
  0
INSERT
  5
47
330
2E
100
AcDbEntity
  8
CCENTER
100
AcDbBlockReference
  2
100CROSS
 10
7.6875
 20
9.59375
 30
0.0
 41
0.25
 42
0.25
  0
CIRCLE
  5
48
330
2E
100
AcDbEntity
  8
CSOLID
100
AcDbCircle
 10
7.6875
 20
9.59375
 30
0.0
 40
0.1055
  0
CIRCLE
  5
49
330
2E
100
AcDbEntity
  8
CSOLID
100
AcDbCircle
 10
7.6875
 20
7.46875
 30
0.0
 40
0.1055
  0
INSERT
  5
4A
330
2E
100
AcDbEntity
  8
CCENTER
100
AcDbBlockReference
  2
100CROSS
 10
7.6875
 20
7.46875
 30
0.0
 41
0.25
 42
0.25
  0
CIRCLE
  5
4B
330
2E
100
AcDbEntity
  8
CSOLID
100
AcDbCircle
 10
9.5
 20
9.59375
 30
0.0
 40
0.1055
  0
INSERT
  5
4C
330
2E
100
AcDbEntity
  8
CCENTER
100
AcDbBlockReference
  2
100CROSS
 10
9.5
 20
9.59375
 30
0.0
 41
0.25
 42
0.25
  0
CIRCLE
  5
4D
330
2E
100
AcDbEntity
  8
CSOLID
100
AcDbCircle
 10
9.5
 20
7.46875
 30
0.0
 40
0.1055
  0
INSERT
  5
4E
330
2E
100
AcDbEntity
  8
CCENTER
100
AcDbBlockReference
  2
100CROSS
 10
9.5
 20
7.46875
 30
0.0
 41
0.25
 42
0.25
  0
INSERT
  5
4F
330
2E
100
AcDbEntity
  8
CCENTER
100
AcDbBlockReference
  2
100CROSS
 10
8.2185
 20
9.46875
 30
0.0
 41
0.4379999999999999
 42
0.4379999999999999
  0
CIRCLE
  5
50
330
2E
100
AcDbEntity
  8
CSOLID
100
AcDbCircle
 10
8.2185
 20
9.46875
 30
0.0
 40
0.21875
  0
CIRCLE
  5
51
330
2E
100
AcDbEntity
  8
CSOLID
100
AcDbCircle
 10
8.656
 20
8.937749999999999
 30
0.0
 40
0.21875
  0
INSERT
  5
52
330
2E
100
AcDbEntity
  8
CCENTER
100
AcDbBlockReference
  2
100CROSS
 10
8.656
 20
8.937749999999999
 30
0.0
 41
0.4379999999999999
 42
0.4379999999999999
  0
INSERT
  5
53
330
2E
100
AcDbEntity
  8
CCENTER
100
AcDbBlockReference
  2
100CROSS
 10
8.656
 20
8.125249999999999
 30
0.0
 41
0.4379999999999999
 42
0.4379999999999999
  0
CIRCLE
  5
54
330
2E
100
AcDbEntity
  8
CSOLID
100
AcDbCircle
 10
8.656
 20
8.125249999999999
 30
0.0
 40
0.21875
  0
CIRCLE
  5
55
330
2E
100
AcDbEntity
  8
CSOLID
100
AcDbCircle
 10
9.25
 20
8.531499999999999
 30
0.0
 40
0.21875
  0
INSERT
  5
56
330
2E
100
AcDbEntity
  8
CCENTER
100
AcDbBlockReference
  2
100CROSS
 10
9.25
 20
8.531499999999999
 30
0.0
 41
0.4379999999999999
 42
0.4379999999999999
  0
CIRCLE
  5
57
330
2E
100
AcDbEntity
  8
CHIDDEN
100
AcDbCircle
 10
7.6875
 20
7.46875
 30
0.0
 40
0.125
  0
CIRCLE
  5
58
330
2E
100
AcDbEntity
  8
CHIDDEN
100
AcDbCircle
 10
9.5
 20
7.46875
 30
0.0
 40
0.125
  0
CIRCLE
  5
59
330
2E
100
AcDbEntity
  8
CHIDDEN
100
AcDbCircle
 10
9.5
 20
9.59375
 30
0.0
 40
0.125
  0
CIRCLE
  5
5A
330
2E
100
AcDbEntity
  8
CHIDDEN
100
AcDbCircle
 10
7.6875
 20
9.59375
 30
0.0
 40
0.125
  0
CIRCLE
  5
5B
330
2E
100
AcDbEntity
  8
CSOLID
100
AcDbCircle
 10
19.625
 20
9.78125
 30
0.0
 40
0.0855
  0
CIRCLE
  5
5C
330
2E
100
AcDbEntity
  8
CSOLID
100
AcDbCircle
 10
19.625
 20
10.5
 30
0.0
 40
0.203
  0
CIRCLE
  5
5D
330
2E
100
AcDbEntity
  8
CSOLID
100
AcDbCircle
 10
16.875
 20
10.5
 30
0.0
 40
0.203
  0
CIRCLE
  5
5E
330
2E
100
AcDbEntity
  8
CSOLID
100
AcDbCircle
 10
17.4375
 20
9.78125
 30
0.0
 40
0.5
  0
CIRCLE
  5
5F
330
2E
100
AcDbEntity
  8
CSOLID
100
AcDbCircle
 10
17.438
 20
9.781
 30
0.0
 40
0.21875
  0
CIRCLE
  5
60
330
2E
100
AcDbEntity
  8
CSOLID
100
AcDbCircle
 10
16.875
 20
7.48425
 30
0.0
 40
0.0855
  0
CIRCLE
  5
61
330
2E
100
AcDbEntity
  8
CSOLID
100
AcDbCircle
 10
17.4375
 20
8.53125
 30
0.0
 40
0.5
  0
CIRCLE
  5
62
330
2E
100
AcDbEntity
  8
CSOLID
100
AcDbCircle
 10
17.438
 20
8.531
 30
0.0
 40
0.21875
  0
CIRCLE
  5
63
330
2E
100
AcDbEntity
  8
CSOLID
100
AcDbCircle
 10
19.06299999999999
 20
9.156
 30
0.0
 40
0.21875
  0
CIRCLE
  5
64
330
2E
100
AcDbEntity
  8
CSOLID
100
AcDbCircle
 10
19.0625
 20
9.15625
 30
0.0
 40
0.5
  0
CIRCLE
  5
65
330
2E
100
AcDbEntity
  8
CSOLID
100
AcDbCircle
 10
19.0625
 20
7.90625
 30
0.0
 40
0.5
  0
CIRCLE
  5
66
330
2E
100
AcDbEntity
  8
CSOLID
100
AcDbCircle
 10
19.06299999999999
 20
7.906
 30
0.0
 40
0.21875
  0
CIRCLE
  5
67
330
2E
100
AcDbEntity
  8
CSOLID
100
AcDbCircle
 10
19.125
 20
7.032
 30
0.0
 40
0.125
  0
CIRCLE
  5
68
330
2E
100
AcDbEntity
  8
CSOLID
100
AcDbCircle
 10
17.5
 20
7.485
 30
0.0
 40
0.125
  0
CIRCLE
  5
69
330
2E
100
AcDbEntity
  8
CSOLID
100
AcDbCircle
 10
17.5
 20
7.48425
 30
0.0
 40
0.2189999999999999
  0
CIRCLE
  5
6A
330
2E
100
AcDbEntity
  8
CSOLID
100
AcDbCircle
 10
16.875
 20
6.5
 30
0.0
 40
0.203
  0
CIRCLE
  5
6B
330
2E
100
AcDbEntity
  8
CSOLID
100
AcDbCircle
 10
19.125
 20
7.03125
 30
0.0
 40
0.2189999999999999
  0
CIRCLE
  5
6C
330
2E
100
AcDbEntity
  8
CSOLID
100
AcDbCircle
 10
19.625
 20
6.5
 30
0.0
 40
0.203
  0
INSERT
  5
6D
330
2E
100
AcDbEntity
  8
CCENTER
100
AcDbBlockReference
  2
100CROSS
 10
17.438
 20
8.531
 30
0.0
 41
-0.6879999999999999
 42
0.6879999999999999
  0
INSERT
  5
6E
330
2E
100
AcDbEntity
  8
CCENTER
100
AcDbBlockReference
  2
100CROSS
 10
17.438
 20
9.781
 30
0.0
 41
-0.6879999999999999
 42
0.6879999999999999
  0
INSERT
  5
6F
330
2E
100
AcDbEntity
  8
CCENTER
100
AcDbBlockReference
  2
100CROSS
 10
16.875
 20
10.5
 30
0.0
 41
-0.375
 42
0.375
  0
INSERT
  5
70
330
2E
100
AcDbEntity
  8
CCENTER
100
AcDbBlockReference
  2
100CROSS
 10
16.875
 20
7.48425
 30
0.0
 41
-0.171
 42
0.171
  0
INSERT
  5
71
330
2E
100
AcDbEntity
  8
CCENTER
100
AcDbBlockReference
  2
100CROSS
 10
17.5
 20
7.48425
 30
0.0
 41
-0.3779999999999999
 42
0.3779999999999999
  0
INSERT
  5
72
330
2E
100
AcDbEntity
  8
CCENTER
100
AcDbBlockReference
  2
100CROSS
 10
16.875
 20
6.5
 30
0.0
 41
-0.375
 42
0.375
  0
INSERT
  5
73
330
2E
100
AcDbEntity
  8
CCENTER
100
AcDbBlockReference
  2
100CROSS
 10
19.625
 20
6.5
 30
0.0
 41
-0.375
 42
0.375
  0
INSERT
  5
74
330
2E
100
AcDbEntity
  8
CCENTER
100
AcDbBlockReference
  2
100CROSS
 10
19.125
 20
7.03125
 30
0.0
 41
-0.3779999999999999
 42
0.3779999999999999
  0
INSERT
  5
75
330
2E
100
AcDbEntity
  8
CCENTER
100
AcDbBlockReference
  2
100CROSS
 10
19.06299999999999
 20
7.906
 30
0.0
 41
-0.6879999999999999
 42
0.6879999999999999
  0
INSERT
  5
76
330
2E
100
AcDbEntity
  8
CCENTER
100
AcDbBlockReference
  2
100CROSS
 10
19.06299999999999
 20
9.156
 30
0.0
 41
-0.6879999999999999
 42
0.6879999999999999
  0
INSERT
  5
77
330
2E
100
AcDbEntity
  8
CCENTER
100
AcDbBlockReference
  2
100CROSS
 10
19.625
 20
9.78125
 30
0.0
 41
-0.171
 42
0.171
  0
INSERT
  5
78
330
2E
100
AcDbEntity
  8
CCENTER
100
AcDbBlockReference
  2
100CROSS
 10
19.625
 20
10.5
 30
0.0
 41
-0.375
 42
0.375
  0
CIRCLE
  5
79
330
2E
100
AcDbEntity
  8
CSOLID
100
AcDbCircle
 10
9.625
 20
6.5
 30
0.0
 40
0.3125
  0
CIRCLE
  5
7A
330
2E
100
AcDbEntity
  8
CSOLID
100
AcDbCircle
 10
9.625
 20
10.5
 30
0.0
 40
0.3125
  0
CIRCLE
  5
7B
330
2E
100
AcDbEntity
  8
CSOLID
100
AcDbCircle
 10
6.875
 20
10.5
 30
0.0
 40
0.3125
  0
CIRCLE
  5
7C
330
2E
100
AcDbEntity
  8
CSOLID
100
AcDbCircle
 10
6.875
 20
6.5
 30
0.0
 40
0.3125
  0
INSERT
  5
7D
330
2E
100
AcDbEntity
  8
CCENTER
100
AcDbBlockReference
  2
100CROSS
 10
6.875
 20
10.5
 30
0.0
 41
0.5625
 42
0.5625
  0
INSERT
  5
7E
330
2E
100
AcDbEntity
  8
CCENTER
100
AcDbBlockReference
  2
100CROSS
 10
6.875
 20
6.5
 30
0.0
 41
0.5625
 42
0.5625
  0
INSERT
  5
7F
330
2E
100
AcDbEntity
  8
CCENTER
100
AcDbBlockReference
  2
100CROSS
 10
9.625
 20
6.5
 30
0.0
 41
0.5625
 42
0.5625
  0
INSERT
  5
80
330
2E
100
AcDbEntity
  8
CCENTER
100
AcDbBlockReference
  2
100CROSS
 10
9.625
 20
10.5
 30
0.0
 41
0.5625
 42
0.5625
  0
CIRCLE
  5
81
330
2E
100
AcDbEntity
  8
CSOLID
100
AcDbCircle
 10
6.875
 20
6.5
 30
0.0
 40
0.203
  0
CIRCLE
  5
82
330
2E
100
AcDbEntity
  8
CSOLID
100
AcDbCircle
 10
9.625
 20
6.5
 30
0.0
 40
0.203
  0
CIRCLE
  5
83
330
2E
100
AcDbEntity
  8
CSOLID
100
AcDbCircle
 10
9.625
 20
10.5
 30
0.0
 40
0.203
  0
CIRCLE
  5
84
330
2E
100
AcDbEntity
  8
CSOLID
100
AcDbCircle
 10
6.875
 20
10.5
 30
0.0
 40
0.203
  0
LINE
  5
85
330
2E
100
AcDbEntity
  8
CDIM
100
AcDbLine
 10
20.0
 20
11.69240599999999
 30
0.0
 11
20.0
 21
12.666063
 31
0.0
  0
LINE
  5
86
330
2E
100
AcDbEntity
  8
CDIM
100
AcDbLine
 10
17.4375
 20
10.254906
 30
0.0
 11
17.4375
 21
12.666063
 31
0.0
  0
LINE
  5
87
330
2E
100
AcDbEntity
  8
CDIM
100
AcDbLine
 10
17.05268799999999
 20
12.28125
 30
0.0
 11
16.66787499999999
 21
12.28125
 31
0.0
  0
LINE
  5
88
330
2E
100
AcDbEntity
  8
CDIM
100
AcDbLine
 10
20.384813
 20
12.28125
 30
0.0
 11
20.769625
 21
12.28125
 31
0.0
  0
SOLID
  5
89
330
2E
100
AcDbEntity
  8
CDIM
100
AcDbTrace
 10
17.05268799999999
 20
12.217115
 30
0.0
 11
17.05268799999999
 21
12.345385
 31
0.0
 12
17.4375
 22
12.28125
 32
0.0
 13
17.4375
 23
12.28125
 33
0.0
  0
SOLID
  5
8A
330
2E
100
AcDbEntity
  8
CDIM
100
AcDbTrace
 10
20.384813
 20
12.217115
 30
0.0
 11
20.384813
 21
12.345385
 31
0.0
 12
20.0
 22
12.28125
 32
0.0
 13
20.0
 23
12.28125
 33
0.0
  0
TEXT
  5
8B
330
2E
100
AcDbEntity
  8
CDIM
100
AcDbText
 10
18.09456899999999
 20
12.065755
 30
0.0
 40
0.43099
  1
2.56
  7
STR
100
AcDbText
  0
LINE
  5
8C
330
2E
100
AcDbEntity
  8
CDIM
100
AcDbLine
 10
20.0
 20
11.69240599999999
 30
0.0
 11
20.0
 21
13.66425
 31
0.0
  0
LINE
  5
8D
330
2E
100
AcDbEntity
  8
CDIM
100
AcDbLine
 10
16.5
 20
11.69240599999999
 30
0.0
 11
16.5
 21
13.66425
 31
0.0
  0
LINE
  5
8E
330
2E
100
AcDbEntity
  8
CDIM
100
AcDbLine
 10
19.615188
 20
13.279438
 30
0.0
 11
19.29155899999999
 21
13.279438
 31
0.0
  0
LINE
  5
8F
330
2E
100
AcDbEntity
  8
CDIM
100
AcDbLine
 10
16.884813
 20
13.279438
 30
0.0
 11
17.208441
 21
13.279438
 31
0.0
  0
SOLID
  5
90
330
2E
100
AcDbEntity
  8
CDIM
100
AcDbTrace
 10
19.615188
 20
13.21530199999999
 30
0.0
 11
19.615188
 21
13.343573
 31
0.0
 12
20.0
 22
13.279438
 32
0.0
 13
20.0
 23
13.279438
 33
0.0
  0
SOLID
  5
91
330
2E
100
AcDbEntity
  8
CDIM
100
AcDbTrace
 10
16.884813
 20
13.21530199999999
 30
0.0
 11
16.884813
 21
13.343573
 31
0.0
 12
16.5
 22
13.279438
 32
0.0
 13
16.5
 23
13.279438
 33
0.0
  0
TEXT
  5
92
330
2E
100
AcDbEntity
  8
CDIM
100
AcDbText
 10
17.593253
 20
13.063943
 30
0.0
 40
0.43099
  1
3.50
  7
STR
100
AcDbText
  0
LINE
  5
93
330
2E
100
AcDbEntity
  8
CDIM
100
AcDbLine
 10
16.307594
 20
11.5
 30
0.0
 11
15.17768799999999
 21
11.5
 31
0.0
  0
LINE
  5
94
330
2E
100
AcDbEntity
  8
CDIM
100
AcDbLine
 10
16.901344
 20
8.53125
 30
0.0
 11
15.17768799999999
 21
8.53125
 31
0.0
  0
LINE
  5
95
330
2E
100
AcDbEntity
  8
CDIM
100
AcDbLine
 10
15.5625
 20
11.115188
 30
0.0
 11
15.5625
 21
10.61593299999999
 31
0.0
  0
LINE
  5
96
330
2E
100
AcDbEntity
  8
CDIM
100
AcDbLine
 10
15.5625
 20
8.916063000000001
 30
0.0
 11
15.5625
 21
9.415317999999999
 31
0.0
  0
SOLID
  5
97
330
2E
100
AcDbEntity
  8
CDIM
100
AcDbTrace
 10
15.626635
 20
11.115188
 30
0.0
 11
15.498365
 21
11.115188
 31
0.0
 12
15.5625
 22
11.5
 32
0.0
 13
15.5625
 23
11.5
 33
0.0
  0
SOLID
  5
98
330
2E
100
AcDbEntity
  8
CDIM
100
AcDbTrace
 10
15.626635
 20
8.916063000000001
 30
0.0
 11
15.498365
 21
8.916063000000001
 31
0.0
 12
15.5625
 22
8.53125
 32
0.0
 13
15.5625
 23
8.53125
 33
0.0
  0
TEXT
  5
99
330
2E
100
AcDbEntity
  8
CDIM
100
AcDbText
 10
14.905753
 20
9.800130000000001
 30
0.0
 40
0.43099
  1
2.97
  7
STR
100
AcDbText
  0
LINE
  5
9A
330
2E
100
AcDbEntity
  8
CDIM
100
AcDbLine
 10
16.307594
 20
11.5
 30
0.0
 11
14.02325
 21
11.5
 31
0.0
  0
LINE
  5
9B
330
2E
100
AcDbEntity
  8
CDIM
100
AcDbLine
 10
16.307594
 20
5.5
 30
0.0
 11
14.02325
 21
5.5
 31
0.0
  0
LINE
  5
9C
330
2E
100
AcDbEntity
  8
CDIM
100
AcDbLine
 10
14.408063
 20
11.115188
 30
0.0
 11
14.408063
 21
8.412808
 31
0.0
  0
LINE
  5
9D
330
2E
100
AcDbEntity
  8
CDIM
100
AcDbLine
 10
14.408063
 20
5.884812999999999
 30
0.0
 11
14.408063
 21
7.212192999999999
 31
0.0
  0
SOLID
  5
9E
330
2E
100
AcDbEntity
  8
CDIM
100
AcDbTrace
 10
14.472198
 20
11.115188
 30
0.0
 11
14.343927
 21
11.115188
 31
0.0
 12
14.408063
 22
11.5
 32
0.0
 13
14.408063
 23
11.5
 33
0.0
  0
SOLID
  5
9F
330
2E
100
AcDbEntity
  8
CDIM
100
AcDbTrace
 10
14.472198
 20
5.884812999999999
 30
0.0
 11
14.343927
 21
5.884812999999999
 31
0.0
 12
14.408063
 22
5.5
 32
0.0
 13
14.408063
 23
5.5
 33
0.0
  0
TEXT
  5
A0
330
2E
100
AcDbEntity
  8
CDIM
100
AcDbText
 10
13.761578
 20
7.597005
 30
0.0
 40
0.43099
  1
6.00
  7
STR
100
AcDbText
  0
LINE
  5
A1
330
2E
100
AcDbEntity
  8
CDIM
100
AcDbLine
 10
11.96875
 20
11.69240599999999
 30
0.0
 11
11.96875
 21
12.666063
 31
0.0
  0
LINE
  5
A2
330
2E
100
AcDbEntity
  8
CDIM
100
AcDbLine
 10
13.46875
 20
11.69240599999999
 30
0.0
 11
13.46875
 21
12.666063
 31
0.0
  0
LINE
  5
A3
330
2E
100
AcDbEntity
  8
CDIM
100
AcDbLine
 10
13.853563
 20
12.28125
 30
0.0
 11
14.238375
 21
12.28125
 31
0.0
  0
LINE
  5
A4
330
2E
100
AcDbEntity
  8
CDIM
100
AcDbLine
 10
11.583938
 20
12.28125
 30
0.0
 11
11.199125
 21
12.28125
 31
0.0
  0
SOLID
  5
A5
330
2E
100
AcDbEntity
  8
CDIM
100
AcDbTrace
 10
13.853563
 20
12.217115
 30
0.0
 11
13.853563
 21
12.345385
 31
0.0
 12
13.46875
 22
12.28125
 32
0.0
 13
13.46875
 23
12.28125
 33
0.0
  0
SOLID
  5
A6
330
2E
100
AcDbEntity
  8
CDIM
100
AcDbTrace
 10
11.583938
 20
12.217115
 30
0.0
 11
11.583938
 21
12.345385
 31
0.0
 12
11.96875
 22
12.28125
 32
0.0
 13
11.96875
 23
12.28125
 33
0.0
  0
TEXT
  5
A7
330
2E
100
AcDbEntity
  8
CDIM
100
AcDbText
 10
11.966938
 20
12.065755
 30
0.0
 40
0.43099
  1
1.50
  7
STR
100
AcDbText
  0
LINE
  5
A8
330
2E
100
AcDbEntity
  8
CDIM
100
AcDbLine
 10
6.5
 20
11.69240599999999
 30
0.0
 11
6.5
 21
12.666063
 31
0.0
  0
LINE
  5
A9
330
2E
100
AcDbEntity
  8
CDIM
100
AcDbLine
 10
9.25
 20
8.911156
 30
0.0
 11
9.25
 21
12.666063
 31
0.0
  0
LINE
  5
AA
330
2E
100
AcDbEntity
  8
CDIM
100
AcDbLine
 10
9.634813000000001
 20
12.28125
 30
0.0
 11
10.019625
 21
12.28125
 31
0.0
  0
LINE
  5
AB
330
2E
100
AcDbEntity
  8
CDIM
100
AcDbLine
 10
6.115187999999999
 20
12.28125
 30
0.0
 11
5.730375
 21
12.28125
 31
0.0
  0
SOLID
  5
AC
330
2E
100
AcDbEntity
  8
CDIM
100
AcDbTrace
 10
9.634813000000001
 20
12.217115
 30
0.0
 11
9.634813000000001
 21
12.345385
 31
0.0
 12
9.25
 22
12.28125
 32
0.0
 13
9.25
 23
12.28125
 33
0.0
  0
SOLID
  5
AD
330
2E
100
AcDbEntity
  8
CDIM
100
AcDbTrace
 10
6.115187999999999
 20
12.217115
 30
0.0
 11
6.115187999999999
 21
12.345385
 31
0.0
 12
6.5
 22
12.28125
 32
0.0
 13
6.5
 23
12.28125
 33
0.0
  0
TEXT
  5
AE
330
2E
100
AcDbEntity
  8
CDIM
100
AcDbText
 10
7.154438
 20
12.065755
 30
0.0
 40
0.43099
  1
2.75
  7
STR
100
AcDbText
  0
LINE
  5
AF
330
2E
100
AcDbEntity
  8
CDIM
100
AcDbLine
 10
10.192406
 20
11.5
 30
0.0
 11
11.322313
 21
11.5
 31
0.0
  0
LINE
  5
B0
330
2E
100
AcDbEntity
  8
CDIM
100
AcDbLine
 10
9.598656
 20
8.53125
 30
0.0
 11
11.322313
 21
8.53125
 31
0.0
  0
LINE
  5
B1
330
2E
100
AcDbEntity
  8
CDIM
100
AcDbLine
 10
10.9375
 20
11.115188
 30
0.0
 11
10.9375
 21
10.61593299999999
 31
0.0
  0
LINE
  5
B2
330
2E
100
AcDbEntity
  8
CDIM
100
AcDbLine
 10
10.9375
 20
8.916063000000001
 30
0.0
 11
10.9375
 21
9.415317999999999
 31
0.0
  0
SOLID
  5
B3
330
2E
100
AcDbEntity
  8
CDIM
100
AcDbTrace
 10
11.001635
 20
11.115188
 30
0.0
 11
10.87336499999999
 21
11.115188
 31
0.0
 12
10.9375
 22
11.5
 32
0.0
 13
10.9375
 23
11.5
 33
0.0
  0
SOLID
  5
B4
330
2E
100
AcDbEntity
  8
CDIM
100
AcDbTrace
 10
11.001635
 20
8.916063000000001
 30
0.0
 11
10.87336499999999
 21
8.916063000000001
 31
0.0
 12
10.9375
 22
8.53125
 32
0.0
 13
10.9375
 23
8.53125
 33
0.0
  0
TEXT
  5
B5
330
2E
100
AcDbEntity
  8
CDIM
100
AcDbText
 10
10.280753
 20
9.800130000000001
 30
0.0
 40
0.43099
  1
2.97
  7
STR
100
AcDbText
  0
ENDBLK
  5
B6
330
2E
100
AcDbEntity
  8
0
100
AcDbBlockEnd
  0
BLOCK
  5
B7
330
42
100
AcDbEntity
  8
0
100
AcDbBlockBegin
  2
100CROSS
 70
     0
 10
5.625
 20
4.59375
 30
0.0
  3
100CROSS
  1

  0
INSERT
  5
B9
330
42
100
AcDbEntity
  8
0
100
AcDbBlockReference
  2
050CROSS
 10
5.625
 20
4.59375
 30
0.0
  0
ENDBLK
  5
BA
330
42
100
AcDbEntity
  8
0
100
AcDbBlockEnd
  0
BLOCK
  5
BB
330
B8
100
AcDbEntity
  8
0
100
AcDbBlockBegin
  2
050CROSS
 70
     0
 10
5.0
 20
5.0
 30
0.0
  3
050CROSS
  1

  0
LINE
  5
BC
330
B8
100
AcDbEntity
  8
0
100
AcDbLine
 10
5.0
 20
5.28125
 30
0.0
 11
5.0
 21
5.78125
 31
0.0
  0
LINE
  5
BD
330
B8
100
AcDbEntity
  8
0
100
AcDbLine
 10
5.0
 20
4.875
 30
0.0
 11
5.0
 21
5.125
 31
0.0
  0
LINE
  5
BE
330
B8
100
AcDbEntity
  8
0
100
AcDbLine
 10
5.0
 20
4.15625
 30
0.0
 11
5.0
 21
4.71875
 31
0.0
  0
LINE
  5
BF
330
B8
100
AcDbEntity
  8
0
100
AcDbLine
 10
5.25
 20
5.0
 30
0.0
 11
5.8125
 21
5.0
 31
0.0
  0
LINE
  5
C0
330
B8
100
AcDbEntity
  8
0
100
AcDbLine
 10
4.90625
 20
5.0
 30
0.0
 11
5.09375
 21
5.0
 31
0.0
  0
LINE
  5
C1
330
B8
100
AcDbEntity
  8
0
100
AcDbLine
 10
4.1875
 20
5.0
 30
0.0
 11
4.75
 21
5.0
 31
0.0
  0
ENDBLK
  5
C2
330
B8
100
AcDbEntity
  8
0
100
AcDbBlockEnd
  0
ENDSEC
  0
SECTION
  2
ENTITIES
  0
LWPOLYLINE
  5
C3
330
1E
100
AcDbEntity
  8
DAMAN
100
AcDbPolyline
 90
        4
 70
     1
 43
0.0
 10
13.09375
 20
6.5625
 10
13.09375
 20
12.5625
 10
14.59375
 20
12.5625
 10
14.59375
 20
6.5625
  0
LWPOLYLINE
  5
C9
330
1E
100
AcDbEntity
  8
DAMAN
100
AcDbPolyline
 90
        4
 70
     1
 43
0.0
 10
7.625
 20
6.5625
 10
7.625
 20
12.5625
 10
11.125
 20
12.5625
 10
11.125
 20
6.5625
  0
INSERT
  5
CF
330
1E
100
AcDbEntity
  8
DAMAN
100
AcDbBlockReference
  2
100CROSS
 10
9.500833
 20
8.21875
 30
0.0
 41
0.250666
 42
0.250666
  0
CIRCLE
  5
D0
330
1E
100
AcDbEntity
  8
DAMAN
100
AcDbCircle
 10
9.500833
 20
8.21875
 30
0.0
 40
0.125
  0
CIRCLE
  5
D1
330
1E
100
AcDbEntity
  8
DAMAN
100
AcDbCircle
 10
9.500833
 20
10.96875
 30
0.0
 40
0.124997
  0
INSERT
  5
D2
330
1E
100
AcDbEntity
  8
DAMAN
100
AcDbBlockReference
  2
100CROSS
 10
9.500833
 20
10.96875
 30
0.0
 41
0.25066
 42
0.25066
  0
INSERT
  5
D3
330
1E
100
AcDbEntity
  8
DAMAN
100
AcDbBlockReference
  2
100CROSS
 10
8.1255
 20
10.65625
 30
0.0
 41
0.25
 42
0.25
  0
CIRCLE
  5
D4
330
1E
100
AcDbEntity
  8
DAMAN
100
AcDbCircle
 10
8.1255
 20
10.65625
 30
0.0
 40
0.1055
  0
CIRCLE
  5
D5
330
1E
100
AcDbEntity
  8
DAMAN
100
AcDbCircle
 10
8.1255
 20
8.53125
 30
0.0
 40
0.1055
  0
INSERT
  5
D6
330
1E
100
AcDbEntity
  8
DAMAN
100
AcDbBlockReference
  2
100CROSS
 10
8.1255
 20
8.53125
 30
0.0
 41
0.25
 42
0.25
  0
CIRCLE
  5
D7
330
1E
100
AcDbEntity
  8
DAMAN
100
AcDbCircle
 10
9.938
 20
10.65625
 30
0.0
 40
0.1055
  0
INSERT
  5
D8
330
1E
100
AcDbEntity
  8
DAMAN
100
AcDbBlockReference
  2
100CROSS
 10
9.938
 20
10.65625
 30
0.0
 41
0.25
 42
0.25
  0
CIRCLE
  5
D9
330
1E
100
AcDbEntity
  8
DAMAN
100
AcDbCircle
 10
9.938
 20
8.53125
 30
0.0
 40
0.1055
  0
INSERT
  5
DA
330
1E
100
AcDbEntity
  8
DAMAN
100
AcDbBlockReference
  2
100CROSS
 10
9.938
 20
8.53125
 30
0.0
 41
0.25
 42
0.25
  0
INSERT
  5
DB
330
1E
100
AcDbEntity
  8
DAMAN
100
AcDbBlockReference
  2
100CROSS
 10
8.656500000000001
 20
10.53125
 30
0.0
 41
0.4379999999999999
 42
0.4379999999999999
  0
CIRCLE
  5
DC
330
1E
100
AcDbEntity
  8
DAMAN
100
AcDbCircle
 10
8.656500000000001
 20
10.53125
 30
0.0
 40
0.21875
  0
CIRCLE
  5
DD
330
1E
100
AcDbEntity
  8
DAMAN
100
AcDbCircle
 10
9.094000000000001
 20
10.00024999999999
 30
0.0
 40
0.21875
  0
INSERT
  5
DE
330
1E
100
AcDbEntity
  8
DAMAN
100
AcDbBlockReference
  2
100CROSS
 10
9.094000000000001
 20
10.00024999999999
 30
0.0
 41
0.4379999999999999
 42
0.4379999999999999
  0
INSERT
  5
DF
330
1E
100
AcDbEntity
  8
DAMAN
100
AcDbBlockReference
  2
100CROSS
 10
9.094000000000001
 20
9.187749999999999
 30
0.0
 41
0.4379999999999999
 42
0.4379999999999999
  0
CIRCLE
  5
E0
330
1E
100
AcDbEntity
  8
DAMAN
100
AcDbCircle
 10
9.094000000000001
 20
9.187749999999999
 30
0.0
 40
0.21875
  0
CIRCLE
  5
E1
330
1E
100
AcDbEntity
  8
DAMAN
100
AcDbCircle
 10
9.688
 20
9.593999999999999
 30
0.0
 40
0.21875
  0
INSERT
  5
E2
330
1E
100
AcDbEntity
  8
DAMAN
100
AcDbBlockReference
  2
100CROSS
 10
9.688
 20
9.593999999999999
 30
0.0
 41
0.4379999999999999
 42
0.4379999999999999
  0
CIRCLE
  5
E3
330
1E
100
AcDbEntity
  8
DAMAN
100
AcDbCircle
 10
8.1255
 20
8.53125
 30
0.0
 40
0.125
  0
CIRCLE
  5
E4
330
1E
100
AcDbEntity
  8
DAMAN
100
AcDbCircle
 10
9.938
 20
8.53125
 30
0.0
 40
0.125
  0
CIRCLE
  5
E5
330
1E
100
AcDbEntity
  8
DAMAN
100
AcDbCircle
 10
9.938
 20
10.65625
 30
0.0
 40
0.125
  0
CIRCLE
  5
E6
330
1E
100
AcDbEntity
  8
DAMAN
100
AcDbCircle
 10
8.1255
 20
10.65625
 30
0.0
 40
0.125
  0
CIRCLE
  5
E7
330
1E
100
AcDbEntity
  8
DAMAN
100
AcDbCircle
 10
10.74999999999999
 20
7.5625
 30
0.0
 40
0.3125
  0
CIRCLE
  5
E8
330
1E
100
AcDbEntity
  8
DAMAN
100
AcDbCircle
 10
10.74999999999999
 20
11.5625
 30
0.0
 40
0.3125
  0
CIRCLE
  5
E9
330
1E
100
AcDbEntity
  8
DAMAN
100
AcDbCircle
 10
8.0
 20
11.5625
 30
0.0
 40
0.3125
  0
CIRCLE
  5
EA
330
1E
100
AcDbEntity
  8
DAMAN
100
AcDbCircle
 10
8.0
 20
7.5625
 30
0.0
 40
0.3125
  0
INSERT
  5
EB
330
1E
100
AcDbEntity
  8
DAMAN
100
AcDbBlockReference
  2
100CROSS
 10
8.0
 20
11.5625
 30
0.0
 41
0.5625
 42
0.5625
  0
INSERT
  5
EC
330
1E
100
AcDbEntity
  8
DAMAN
100
AcDbBlockReference
  2
100CROSS
 10
8.0
 20
7.5625
 30
0.0
 41
0.5625
 42
0.5625
  0
INSERT
  5
ED
330
1E
100
AcDbEntity
  8
DAMAN
100
AcDbBlockReference
  2
100CROSS
 10
10.74999999999999
 20
7.5625
 30
0.0
 41
0.5625
 42
0.5625
  0
INSERT
  5
EE
330
1E
100
AcDbEntity
  8
DAMAN
100
AcDbBlockReference
  2
100CROSS
 10
10.74999999999999
 20
11.5625
 30
0.0
 41
0.5625
 42
0.5625
  0
CIRCLE
  5
EF
330
1E
100
AcDbEntity
  8
DAMAN
100
AcDbCircle
 10
8.0
 20
7.5625
 30
0.0
 40
0.203
  0
CIRCLE
  5
F0
330
1E
100
AcDbEntity
  8
DAMAN
100
AcDbCircle
 10
10.74999999999999
 20
7.5625
 30
0.0
 40
0.203
  0
CIRCLE
  5
F1
330
1E
100
AcDbEntity
  8
DAMAN
100
AcDbCircle
 10
10.74999999999999
 20
11.5625
 30
0.0
 40
0.203
  0
CIRCLE
  5
F2
330
1E
100
AcDbEntity
  8
DAMAN
100
AcDbCircle
 10
8.0
 20
11.5625
 30
0.0
 40
0.203
  0
LINE
  5
F3
330
1E
100
AcDbEntity
  8
DAMAN
100
AcDbLine
 10
7.625
 20
4.125
 30
0.0
 11
11.125
 21
4.125
 31
0.0
  0
LINE
  5
F4
330
1E
100
AcDbEntity
  8
DAMAN
100
AcDbLine
 10
11.125
 20
4.125
 30
0.0
 11
11.125
 21
5.625
 31
0.0
  0
LINE
  5
F5
330
1E
100
AcDbEntity
  8
DAMAN
100
AcDbLine
 10
11.125
 20
5.625
 30
0.0
 11
7.625
 21
5.625
 31
0.0
  0
LINE
  5
F6
330
1E
100
AcDbEntity
  8
DAMAN
100
AcDbLine
 10
7.625
 20
5.625
 30
0.0
 11
7.625
 21
4.125
 31
0.0
  0
LWPOLYLINE
  5
F7
330
1E
100
AcDbEntity
  8
DAMAN
100
AcDbPolyline
 90
        4
 70
     1
 43
0.0
 10
5.65625
 20
6.5625
 10
5.65625
 20
12.5625
 10
4.15625
 20
12.5625
 10
4.15625
 20
6.5625
  0
LINE
  5
FD
330
1E
100
AcDbEntity
  8
DAMAN
100
AcDbLine
 10
7.625
 20
15.0
 30
0.0
 11
11.125
 21
15.0
 31
0.0
  0
LINE
  5
FE
330
1E
100
AcDbEntity
  8
DAMAN
100
AcDbLine
 10
11.125
 20
13.5
 30
0.0
 11
7.625
 21
13.5
 31
0.0
  0
LINE
  5
FF
330
1E
100
AcDbEntity
  8
DAMAN
100
AcDbLine
 10
7.625
 20
13.5
 30
0.0
 11
7.625
 21
15.0
 31
0.0
  0
LINE
  5
100
330
1E
100
AcDbEntity
  8
DAMAN
100
AcDbLine
 10
11.125
 20
15.0
 30
0.0
 11
11.125
 21
13.5
 31
0.0
  0
TEXT
  5
101
330
1E
100
AcDbEntity
  8
DAMAN
100
AcDbText
 10
8.21875
 20
5.15625
 30
0.0
 40
0.188
  1
DAMAN ****
100
AcDbText
  0
LINE
  5
102
330
1E
100
AcDbEntity
  8
DAMAN
100
AcDbLine
 10
10.507614
 20
11.563433
 30
0.0
 11
11.006948
 21
11.563433
 31
0.0
  0
CIRCLE
  5
103
330
1E
100
AcDbEntity
  8
DAMAN
100
AcDbCircle
 10
10.81
 20
10.2225
 30
0.0
 40
0.194
  0
CIRCLE
  5
104
330
1E
100
AcDbEntity
  8
DAMAN
100
AcDbCircle
 10
10.81
 20
10.2225
 30
0.0
 40
0.1405
  0
LINE
  5
105
330
1E
100
AcDbEntity
  8
DAMAN
100
AcDbLine
 10
10.750933
 20
11.79816999999999
 30
0.0
 11
10.750933
 21
11.32235199999999
 31
0.0
  0
LINE
  5
106
330
1E
100
AcDbEntity
  8
DAMAN
100
AcDbLine
 10
7.757614
 20
11.563433
 30
0.0
 11
8.256947999999999
 21
11.563433
 31
0.0
  0
CIRCLE
  5
107
330
1E
100
AcDbEntity
  8
DAMAN
100
AcDbCircle
 10
7.94
 20
9.592499999999999
 30
0.0
 40
0.194
  0
CIRCLE
  5
108
330
1E
100
AcDbEntity
  8
DAMAN
100
AcDbCircle
 10
7.94
 20
9.592499999999999
 30
0.0
 40
0.1405
  0
LINE
  5
109
330
1E
100
AcDbEntity
  8
DAMAN
100
AcDbLine
 10
8.000932999999999
 20
11.79816999999999
 30
0.0
 11
8.000932999999999
 21
11.32235199999999
 31
0.0
  0
LINE
  5
10A
330
1E
100
AcDbEntity
  8
DAMAN
100
AcDbLine
 10
7.679524
 20
9.594011
 30
0.0
 11
8.214807
 21
9.594011
 31
0.0
  0
LINE
  5
10B
330
1E
100
AcDbEntity
  8
DAMAN
100
AcDbLine
 10
7.936871
 20
9.861515999999999
 30
0.0
 11
7.936871
 21
9.321360999999999
 31
0.0
  0
LINE
  5
10C
330
1E
100
AcDbEntity
  8
DAMAN
100
AcDbLine
 10
10.55667
 20
10.221619
 30
0.0
 11
11.066219
 21
10.221619
 31
0.0
  0
LINE
  5
10D
330
1E
100
AcDbEntity
  8
DAMAN
100
AcDbLine
 10
10.81401799999999
 20
10.489124
 30
0.0
 11
10.81401799999999
 21
9.959258
 31
0.0
  0
ENDSEC
  0
SECTION
  2
OBJECTS
  0
DICTIONARY
  5
C
330
0
100
AcDbDictionary
  3
ACAD_GROUP
350
D
  3
ACAD_LAYOUT
350
19
  3
ACAD_MLINESTYLE
350
16
  3
ACAD_PLOTSETTINGS
350
18
  3
ACAD_PLOTSTYLENAME
350
E
  3
ACDBHEADERROUNDTRIPXREC
350
111
  0
DICTIONARY
  5
133
330
1E
100
AcDbDictionary
280
     1
  3
ACAD_LAYOUTSELFREF
360
134
  0
DICTIONARY
  5
131
330
1A
100
AcDbDictionary
280
     1
  3
ACAD_LAYOUTSELFREF
360
132
  0
DICTIONARY
  5
D
102
{ACAD_REACTORS
330
C
102
}
330
C
100
AcDbDictionary
  0
DICTIONARY
  5
19
102
{ACAD_REACTORS
330
C
102
}
330
C
100
AcDbDictionary
  0
DICTIONARY
  5
16
102
{ACAD_REACTORS
330
C
102
}
330
C
100
AcDbDictionary
  3
STANDARD
350
17
  0
DICTIONARY
  5
18
102
{ACAD_REACTORS
330
C
102
}
330
C
100
AcDbDictionary
  0
ACDBDICTIONARYWDFLT
  5
E
102
{ACAD_REACTORS
330
C
102
}
330
C
100
AcDbDictionary
281
     1
  3
Normal
350
F
100
AcDbDictionaryWithDefault
340
F
  0
DICTIONARY
  5
111
102
{ACAD_REACTORS
330
C
102
}
330
C
100
AcDbDictionary
  3
CEPSNTYPE
350
11B
  3
FINGERPRINTGUID
350
11C
  3
HYPERLINKBASE
350
114
  3
INSUNITS
350
11A
  3
LAYOUTDICT
350
116
  3
LWETCUNION
350
119
  3
PLOTSETDICT
350
117
  3
PLOTSTYLNAMDICT
350
118
  3
PSVPSCALE
350
11E
  3
PUCSBASE
350
121
  3
PUCSORGBACK
350
127
  3
PUCSORGBOTTOM
350
123
  3
PUCSORGFRONT
350
126
  3
PUCSORGLEFT
350
124
  3
PUCSORGRIGHT
350
125
  3
PUCSORGTOP
350
122
  3
PUCSORTHOREF
350
11F
  3
PUCSORTHOVIEW
350
120
  3
STYLESHEET
350
115
  3
TSTACKALIGN
350
112
  3
TSTACKSIZE
350
113
  3
UCSBASE
350
12A
  3
UCSORGBACK
350
130
  3
UCSORGBOTTOM
350
12C
  3
UCSORGFRONT
350
12F
  3
UCSORGLEFT
350
12D
  3
UCSORGRIGHT
350
12E
  3
UCSORGTOP
350
12B
  3
UCSORTHOREF
350
128
  3
UCSORTHOVIEW
350
129
  3
VERSIONGUID
350
11D
  0
XRECORD
  5
134
102
{ACAD_REACTORS
330
133
102
}
330
133
100
AcDbXrecord
340
1E
  0
XRECORD
  5
132
102
{ACAD_REACTORS
330
131
102
}
330
131
100
AcDbXrecord
340
1A
  0
MLINESTYLE
  5
17
102
{ACAD_REACTORS
330
16
102
}
330
16
100
AcDbMlineStyle
  2
STANDARD
 70
     0
  3

 62
   256
 51
90.0
 52
90.0
 71
     2
 49
0.5
 62
   256
  6
BYLAYER
 49
-0.5
 62
   256
  6
BYLAYER
  0
ACDBPLACEHOLDER
  5
F
102
{ACAD_REACTORS
330
E
102
}
330
E
100
AcDbPlaceHolder
280
     0
  0
XRECORD
  5
11B
102
{ACAD_REACTORS
330
111
102
}
330
111
100
AcDbXrecord
 90
        0
  0
XRECORD
  5
11C
102
{ACAD_REACTORS
330
111
102
}
330
111
100
AcDbXrecord
  1
{08515D27-46B3-4C72-9322-DD5AFD7E4ECE}
  0
XRECORD
  5
114
102
{ACAD_REACTORS
330
111
102
}
330
111
100
AcDbXrecord
  1

  0
XRECORD
  5
11A
102
{ACAD_REACTORS
330
111
102
}
330
111
100
AcDbXrecord
 90
        0
  0
XRECORD
  5
116
102
{ACAD_REACTORS
330
111
102
}
330
111
100
AcDbXrecord
340
19
  0
XRECORD
  5
119
102
{ACAD_REACTORS
330
111
102
}
330
111
100
AcDbXrecord
 90
    10781
  0
XRECORD
  5
117
102
{ACAD_REACTORS
330
111
102
}
330
111
100
AcDbXrecord
340
18
  0
XRECORD
  5
118
102
{ACAD_REACTORS
330
111
102
}
330
111
100
AcDbXrecord
340
E
  0
XRECORD
  5
11E
102
{ACAD_REACTORS
330
111
102
}
330
111
100
AcDbXrecord
 40
0.0
  0
XRECORD
  5
121
102
{ACAD_REACTORS
330
111
102
}
330
111
100
AcDbXrecord
340
0
  0
XRECORD
  5
127
102
{ACAD_REACTORS
330
111
102
}
330
111
100
AcDbXrecord
 10
0.0
 20
0.0
 30
0.0
  0
XRECORD
  5
123
102
{ACAD_REACTORS
330
111
102
}
330
111
100
AcDbXrecord
 10
0.0
 20
0.0
 30
0.0
  0
XRECORD
  5
126
102
{ACAD_REACTORS
330
111
102
}
330
111
100
AcDbXrecord
 10
0.0
 20
0.0
 30
0.0
  0
XRECORD
  5
124
102
{ACAD_REACTORS
330
111
102
}
330
111
100
AcDbXrecord
 10
0.0
 20
0.0
 30
0.0
  0
XRECORD
  5
125
102
{ACAD_REACTORS
330
111
102
}
330
111
100
AcDbXrecord
 10
0.0
 20
0.0
 30
0.0
  0
XRECORD
  5
122
102
{ACAD_REACTORS
330
111
102
}
330
111
100
AcDbXrecord
 10
0.0
 20
0.0
 30
0.0
  0
XRECORD
  5
11F
102
{ACAD_REACTORS
330
111
102
}
330
111
100
AcDbXrecord
340
0
  0
XRECORD
  5
120
102
{ACAD_REACTORS
330
111
102
}
330
111
100
AcDbXrecord
 70
     0
  0
XRECORD
  5
115
102
{ACAD_REACTORS
330
111
102
}
330
111
100
AcDbXrecord
  1

  0
XRECORD
  5
112
102
{ACAD_REACTORS
330
111
102
}
330
111
100
AcDbXrecord
 90
        1
  0
XRECORD
  5
113
102
{ACAD_REACTORS
330
111
102
}
330
111
100
AcDbXrecord
 90
       70
  0
XRECORD
  5
12A
102
{ACAD_REACTORS
330
111
102
}
330
111
100
AcDbXrecord
340
0
  0
XRECORD
  5
130
102
{ACAD_REACTORS
330
111
102
}
330
111
100
AcDbXrecord
 10
0.0
 20
0.0
 30
0.0
  0
XRECORD
  5
12C
102
{ACAD_REACTORS
330
111
102
}
330
111
100
AcDbXrecord
 10
0.0
 20
0.0
 30
0.0
  0
XRECORD
  5
12F
102
{ACAD_REACTORS
330
111
102
}
330
111
100
AcDbXrecord
 10
0.0
 20
0.0
 30
0.0
  0
XRECORD
  5
12D
102
{ACAD_REACTORS
330
111
102
}
330
111
100
AcDbXrecord
 10
0.0
 20
0.0
 30
0.0
  0
XRECORD
  5
12E
102
{ACAD_REACTORS
330
111
102
}
330
111
100
AcDbXrecord
 10
0.0
 20
0.0
 30
0.0
  0
XRECORD
  5
12B
102
{ACAD_REACTORS
330
111
102
}
330
111
100
AcDbXrecord
 10
0.0
 20
0.0
 30
0.0
  0
XRECORD
  5
128
102
{ACAD_REACTORS
330
111
102
}
330
111
100
AcDbXrecord
340
0
  0
XRECORD
  5
129
102
{ACAD_REACTORS
330
111
102
}
330
111
100
AcDbXrecord
 70
     0
  0
XRECORD
  5
11D
102
{ACAD_REACTORS
330
111
102
}
330
111
100
AcDbXrecord
  1
{079A7E78-074D-46AB-99DB-D9A31DAB0A28}
  0
ENDSEC
  0
EOF
