  0
SECTION
  2
HEADER
  9
$ACADVER
  1
AC1014
  9
$ACADMAINTVER
 70
     9
  9
$DWGCODEPAGE
  3
ANSI_1252
  9
$INSBASE
 10
0.0
 20
0.0
 30
0.0
  9
$EXTMIN
 10
-27.90877629269412
 20
2.552745812499999
 30
0.0
  9
$EXTMAX
 10
17.077149625
 20
143.8996381908562
 30
0.0
  9
$LIMMIN
 10
0.0
 20
0.0
  9
$LIMMAX
 10
11.0
 20
11.0
  9
$ORTHOMODE
 70
     0
  9
$REGENMODE
 70
     1
  9
$FILLMODE
 70
     1
  9
$QTEXTMODE
 70
     0
  9
$MIRRTEXT
 70
     1
  9
$DRAGMODE
 70
     2
  9
$LTSCALE
 40
1.0
  9
$OSMODE
 70
    37
  9
$ATTMODE
 70
     1
  9
$TEXTSIZE
 40
0.2
  9
$TRACEWID
 40
0.05
  9
$TEXTSTYLE
  7
STANDARD
  9
$CLAYER
  8
DAMAN
  9
$CELTYPE
  6
BYLAYER
  9
$CECOLOR
 62
   256
  9
$CELTSCALE
 40
1.0
  9
$DELOBJ
 70
     1
  9
$DISPSILH
 70
     0
  9
$DIMSCALE
 40
1.0
  9
$DIMASZ
 40
0.18
  9
$DIMEXO
 40
0.0625
  9
$DIMDLI
 40
0.38
  9
$DIMRND
 40
0.0
  9
$DIMDLE
 40
0.0
  9
$DIMEXE
 40
0.18
  9
$DIMTP
 40
0.0
  9
$DIMTM
 40
0.0
  9
$DIMTXT
 40
0.18
  9
$DIMCEN
 40
0.09
  9
$DIMTSZ
 40
0.0
  9
$DIMTOL
 70
     0
  9
$DIMLIM
 70
     0
  9
$DIMTIH
 70
     1
  9
$DIMTOH
 70
     1
  9
$DIMSE1
 70
     0
  9
$DIMSE2
 70
     0
  9
$DIMTAD
 70
     0
  9
$DIMZIN
 70
     0
  9
$DIMBLK
  1

  9
$DIMASO
 70
     1
  9
$DIMSHO
 70
     1
  9
$DIMPOST
  1

  9
$DIMAPOST
  1

  9
$DIMALT
 70
     0
  9
$DIMALTD
 70
     2
  9
$DIMALTF
 40
25.4
  9
$DIMLFAC
 40
1.0
  9
$DIMTOFL
 70
     0
  9
$DIMTVP
 40
0.0
  9
$DIMTIX
 70
     0
  9
$DIMSOXD
 70
     0
  9
$DIMSAH
 70
     0
  9
$DIMBLK1
  1

  9
$DIMBLK2
  1

  9
$DIMSTYLE
  2
STANDARD
  9
$DIMCLRD
 70
     0
  9
$DIMCLRE
 70
     0
  9
$DIMCLRT
 70
     0
  9
$DIMTFAC
 40
1.0
  9
$DIMGAP
 40
0.09
  9
$DIMJUST
 70
     0
  9
$DIMSD1
 70
     0
  9
$DIMSD2
 70
     0
  9
$DIMTOLJ
 70
     1
  9
$DIMTZIN
 70
     0
  9
$DIMALTZ
 70
     0
  9
$DIMALTTZ
 70
     0
  9
$DIMFIT
 70
     3
  9
$DIMUPT
 70
     0
  9
$DIMUNIT
 70
     2
  9
$DIMDEC
 70
     4
  9
$DIMTDEC
 70
     4
  9
$DIMALTU
 70
     2
  9
$DIMALTTD
 70
     2
  9
$DIMTXSTY
  7
STANDARD
  9
$DIMAUNIT
 70
     0
  9
$LUNITS
 70
     2
  9
$LUPREC
 70
     4
  9
$SKETCHINC
 40
0.1
  9
$FILLETRAD
 40
0.0
  9
$AUNITS
 70
     0
  9
$AUPREC
 70
     0
  9
$MENU
  1
tom
  9
$ELEVATION
 40
0.0
  9
$PELEVATION
 40
0.0
  9
$THICKNESS
 40
0.0
  9
$LIMCHECK
 70
     0
  9
$BLIPMODE
 70
     0
  9
$CHAMFERA
 40
0.0
  9
$CHAMFERB
 40
0.0
  9
$CHAMFERC
 40
0.0
  9
$CHAMFERD
 40
0.0
  9
$SKPOLY
 70
     0
  9
$TDCREATE
 40
2450456.607766262
  9
$TDUPDATE
 40
2453425.408053321
  9
$TDINDWG
 40
0.0003333102
  9
$TDUSRTIMER
 40
0.0003333102
  9
$USRTIMER
 70
     1
  9
$ANGBASE
 50
0.0
  9
$ANGDIR
 70
     0
  9
$PDMODE
 70
     0
  9
$PDSIZE
 40
0.0
  9
$PLINEWID
 40
0.0
  9
$COORDS
 70
     1
  9
$SPLFRAME
 70
     0
  9
$SPLINETYPE
 70
     6
  9
$SPLINESEGS
 70
     8
  9
$ATTDIA
 70
     0
  9
$ATTREQ
 70
     1
  9
$HANDLING
 70
-16383
  9
$HANDSEED
  5
36E
  9
$SURFTAB1
 70
     6
  9
$SURFTAB2
 70
     6
  9
$SURFTYPE
 70
     6
  9
$SURFU
 70
     6
  9
$SURFV
 70
     6
  9
$UCSNAME
  2

  9
$UCSORG
 10
0.0
 20
0.0
 30
0.0
  9
$UCSXDIR
 10
1.0
 20
0.0
 30
0.0
  9
$UCSYDIR
 10
0.0
 20
1.0
 30
0.0
  9
$PUCSNAME
  2

  9
$PUCSORG
 10
0.0
 20
0.0
 30
0.0
  9
$PUCSXDIR
 10
1.0
 20
0.0
 30
0.0
  9
$PUCSYDIR
 10
0.0
 20
1.0
 30
0.0
  9
$USERI1
 70
     0
  9
$USERI2
 70
     0
  9
$USERI3
 70
     0
  9
$USERI4
 70
     0
  9
$USERI5
 70
     0
  9
$USERR1
 40
0.0
  9
$USERR2
 40
0.0
  9
$USERR3
 40
0.0
  9
$USERR4
 40
0.0
  9
$USERR5
 40
0.0
  9
$WORLDVIEW
 70
     1
  9
$SHADEDGE
 70
     3
  9
$SHADEDIF
 70
    70
  9
$TILEMODE
 70
     1
  9
$MAXACTVP
 70
    16
  9
$PINSBASE
 10
0.0
 20
0.0
 30
0.0
  9
$PLIMCHECK
 70
     0
  9
$PEXTMIN
 10
1.000000000000000E+20
 20
1.000000000000000E+20
 30
1.000000000000000E+20
  9
$PEXTMAX
 10
-1.000000000000000E+20
 20
-1.000000000000000E+20
 30
-1.000000000000000E+20
  9
$PLIMMIN
 10
0.0
 20
0.0
  9
$PLIMMAX
 10
12.0
 20
9.0
  9
$UNITMODE
 70
     0
  9
$VISRETAIN
 70
     0
  9
$PLINEGEN
 70
     0
  9
$PSLTSCALE
 70
     1
  9
$TREEDEPTH
 70
  3020
  9
$PICKSTYLE
 70
     1
  9
$CMLSTYLE
  2
STANDARD
  9
$CMLJUST
 70
     0
  9
$CMLSCALE
 40
1.0
  9
$PROXYGRAPHICS
 70
     1
  9
$MEASUREMENT
 70
     0
  0
ENDSEC
  0
SECTION
  2
CLASSES
  0
CLASS
  1
ACDBDICTIONARYWDFLT
  2
AcDbDictionaryWithDefault
  3
AutoCAD 2000
 90
        0
280
     0
281
     0
  0
CLASS
  1
ACDBPLACEHOLDER
  2
AcDbPlaceHolder
  3
AutoCAD 2000
 90
        0
280
     0
281
     0
  0
CLASS
  1
LAYOUT
  2
AcDbLayout
  3
AutoCAD 2000
 90
        0
280
     0
281
     0
  0
CLASS
  1
LONG_TRANSACTION
  2
AcDbLongTransaction
  3
AutoCAD 2000
 90
        0
280
     0
281
     0
  0
CLASS
  1
LWPOLYLINE
  2
AcDbPolyline
  3
AutoCAD 2000
 90
        0
280
     0
281
     1
  0
CLASS
  1
HATCH
  2
AcDbHatch
  3
AutoCAD 2000
 90
        0
280
     0
281
     1
  0
CLASS
  1
XRECORD
  2
AcDbXrecord
  3
AutoCAD 2000
 90
        0
280
     0
281
     0
  0
ENDSEC
  0
SECTION
  2
TABLES
  0
TABLE
  2
VPORT
  5
8
330
0
100
AcDbSymbolTable
 70
     4
  0
VPORT
  5
349
330
8
100
AcDbSymbolTableRecord
100
AcDbViewportTableRecord
  2
*ACTIVE
 70
     0
 10
0.0
 20
0.0
 11
1.0
 21
1.0
 12
9.410508999999999
 22
5.711753778714436
 13
0.0
 23
0.0
 14
1.0
 24
1.0
 15
0.0
 25
0.0
 16
0.0
 26
0.0
 36
1.0
 17
0.0
 27
0.0
 37
0.0
 40
11.42350755742887
 41
1.647569444444444
 42
50.0
 43
0.0
 44
0.0
 50
0.0
 51
0.0
 71
     0
 72
   100
 73
     1
 74
     1
 75
     0
 76
     0
 77
     0
 78
     0
  0
ENDTAB
  0
TABLE
  2
LTYPE
  5
5
330
0
100
AcDbSymbolTable
 70
     6
  0
LTYPE
  5
13
330
5
100
AcDbSymbolTableRecord
100
AcDbLinetypeTableRecord
  2
BYBLOCK
 70
     0
  3

 72
    65
 73
     0
 40
0.0
  0
LTYPE
  5
14
330
5
100
AcDbSymbolTableRecord
100
AcDbLinetypeTableRecord
  2
BYLAYER
 70
     0
  3

 72
    65
 73
     0
 40
0.0
  0
LTYPE
  5
15
330
5
100
AcDbSymbolTableRecord
100
AcDbLinetypeTableRecord
  2
CONTINUOUS
 70
     0
  3
Solid line
 72
    65
 73
     0
 40
0.0
  0
LTYPE
  5
24
330
5
100
AcDbSymbolTableRecord
100
AcDbLinetypeTableRecord
  2
HIDDEN
 70
     0
  3
_ _ _ _ _ _ _ _ _ _ _ _ _ _ _ _ _ _ _ _ _ _ _
 72
    65
 73
     2
 40
0.375
 49
0.25
 74
     0
 49
-0.125
 74
     0
  0
LTYPE
  5
25
330
5
100
AcDbSymbolTableRecord
100
AcDbLinetypeTableRecord
  2
CENTER
 70
     0
  3
____ _ ____ _ ____ _ ____ _ ____ _ ____ _ ____
 72
    65
 73
     4
 40
2.0
 49
1.25
 74
     0
 49
-0.25
 74
     0
 49
0.25
 74
     0
 49
-0.25
 74
     0
  0
LTYPE
  5
26
330
5
100
AcDbSymbolTableRecord
100
AcDbLinetypeTableRecord
  2
DOT
 70
     0
  3
. . . . . . . . . . . . . . . . . . . . . . . .
 72
    65
 73
     2
 40
0.25
 49
0.0
 74
     0
 49
-0.25
 74
     0
  0
LTYPE
  5
27
330
5
100
AcDbSymbolTableRecord
100
AcDbLinetypeTableRecord
  2
DASHED
 70
     0
  3
__ __ __ __ __ __ __ __ __ __ __ __ __ __ __ __
 72
    65
 73
     2
 40
0.75
 49
0.5
 74
     0
 49
-0.25
 74
     0
  0
LTYPE
  5
28
330
5
100
AcDbSymbolTableRecord
100
AcDbLinetypeTableRecord
  2
PHANTOM
 70
     0
  3
_____ _ _ _____ _ _ _____ _ _ _____ _ _ ____
 72
    65
 73
     6
 40
2.5
 49
1.25
 74
     0
 49
-0.25
 74
     0
 49
0.25
 74
     0
 49
-0.25
 74
     0
 49
0.25
 74
     0
 49
-0.25
 74
     0
  0
ENDTAB
  0
TABLE
  2
LAYER
  5
2
330
0
100
AcDbSymbolTable
 70
     9
  0
LAYER
  5
10
330
2
100
AcDbSymbolTableRecord
100
AcDbLayerTableRecord
  2
0
 70
     0
 62
     7
  6
CONTINUOUS
  0
LAYER
  5
22
330
2
100
AcDbSymbolTableRecord
100
AcDbLayerTableRecord
  2
DAMAN
 70
     0
 62
     5
  6
CONTINUOUS
  0
LAYER
  5
29
330
2
100
AcDbSymbolTableRecord
100
AcDbLayerTableRecord
  2
CSOLID
 70
     0
 62
     3
  6
CONTINUOUS
  0
LAYER
  5
2A
330
2
100
AcDbSymbolTableRecord
100
AcDbLayerTableRecord
  2
CCENTER
 70
     0
 62
     4
  6
CENTER
  0
LAYER
  5
2B
330
2
100
AcDbSymbolTableRecord
100
AcDbLayerTableRecord
  2
CHIDDEN
 70
     0
 62
     3
  6
HIDDEN
  0
LAYER
  5
2C
330
2
100
AcDbSymbolTableRecord
100
AcDbLayerTableRecord
  2
SOLID
 70
     0
 62
     4
  6
CONTINUOUS
  0
LAYER
  5
2D
330
2
100
AcDbSymbolTableRecord
100
AcDbLayerTableRecord
  2
PHANTOM
 70
     0
 62
     1
  6
PHANTOM
  0
LAYER
  5
2E
330
2
100
AcDbSymbolTableRecord
100
AcDbLayerTableRecord
  2
CDIM
 70
     0
 62
     2
  6
CONTINUOUS
  0
LAYER
  5
2F
330
2
100
AcDbSymbolTableRecord
100
AcDbLayerTableRecord
  2
BORDER
 70
     0
 62
     7
  6
CONTINUOUS
  0
ENDTAB
  0
TABLE
  2
STYLE
  5
3
330
0
100
AcDbSymbolTable
 70
     2
  0
STYLE
  5
11
330
3
100
AcDbSymbolTableRecord
100
AcDbTextStyleTableRecord
  2
STANDARD
 70
     0
 40
0.0
 41
1.0
 50
0.0
 71
     0
 42
0.2
  3
txt
  4

  0
STYLE
  5
30
330
3
100
AcDbSymbolTableRecord
100
AcDbTextStyleTableRecord
  2
STR
 70
     0
 40
0.0
 41
1.0
 50
0.0
 71
     0
 42
0.25
  3
SIMPLEX
  4

  0
ENDTAB
  0
TABLE
  2
VIEW
  5
6
330
0
100
AcDbSymbolTable
 70
     0
  0
ENDTAB
  0
TABLE
  2
UCS
  5
7
330
0
100
AcDbSymbolTable
 70
     0
  0
ENDTAB
  0
TABLE
  2
APPID
  5
9
330
0
100
AcDbSymbolTable
 70
     1
  0
APPID
  5
12
330
9
100
AcDbSymbolTableRecord
100
AcDbRegAppTableRecord
  2
ACAD
 70
     0
  0
ENDTAB
  0
TABLE
  2
DIMSTYLE
  5
A
330
0
100
AcDbSymbolTable
 70
     1
  0
DIMSTYLE
105
346
330
A
100
AcDbSymbolTableRecord
100
AcDbDimStyleTableRecord
  2
STANDARD
 70
     0
  3

  4

  5

  6

  7

 40
1.0
 41
0.18
 42
0.0625
 43
0.38
 44
0.18
 45
0.0
 46
0.0
 47
0.0
 48
0.0
140
0.18
141
0.09
142
0.0
143
25.4
144
1.0
145
0.0
146
1.0
147
0.09
 71
     0
 72
     0
 73
     1
 74
     1
 75
     0
 76
     0
 77
     0
 78
     0
170
     0
171
     2
172
     0
173
     0
174
     0
175
     0
176
     0
177
     0
178
     0
270
     2
271
     4
272
     4
273
     2
274
     2
340
11
275
     0
280
     0
281
     0
282
     0
283
     1
284
     0
285
     0
286
     0
287
     3
288
     0
  0
ENDTAB
  0
TABLE
  2
BLOCK_RECORD
  5
1
330
0
100
AcDbSymbolTable
 70
    50
  0
BLOCK_RECORD
  5
1E
102
{ACAD_XDICTIONARY
360
36C
102
}
330
1
100
AcDbSymbolTableRecord
100
AcDbBlockTableRecord
  2
*MODEL_SPACE
  0
BLOCK_RECORD
  5
1A
102
{ACAD_XDICTIONARY
360
36A
102
}
330
1
100
AcDbSymbolTableRecord
100
AcDbBlockTableRecord
  2
*PAPER_SPACE
  0
BLOCK_RECORD
  5
33
330
1
100
AcDbSymbolTableRecord
100
AcDbBlockTableRecord
  2
32MMDIN
  0
BLOCK_RECORD
  5
3A
330
1
100
AcDbSymbolTableRecord
100
AcDbBlockTableRecord
  2
100CROSS
  0
BLOCK_RECORD
  5
51
330
1
100
AcDbSymbolTableRecord
100
AcDbBlockTableRecord
  2
D05
  0
BLOCK_RECORD
  5
69
330
1
100
AcDbSymbolTableRecord
100
AcDbBlockTableRecord
  2
050CROSS
  0
BLOCK_RECORD
  5
74
330
1
100
AcDbSymbolTableRecord
100
AcDbBlockTableRecord
  2
D02
  0
BLOCK_RECORD
  5
8D
330
1
100
AcDbSymbolTableRecord
100
AcDbBlockTableRecord
  2
D03
  0
BLOCK_RECORD
  5
A8
330
1
100
AcDbSymbolTableRecord
100
AcDbBlockTableRecord
  2
D03SF
  0
BLOCK_RECORD
  5
AA
330
1
100
AcDbSymbolTableRecord
100
AcDbBlockTableRecord
  2
D01I
  0
BLOCK_RECORD
  5
C5
330
1
100
AcDbSymbolTableRecord
100
AcDbBlockTableRecord
  2
012NPTFT
  0
BLOCK_RECORD
  5
CC
330
1
100
AcDbSymbolTableRecord
100
AcDbBlockTableRecord
  2
S06
  0
BLOCK_RECORD
  5
EE
330
1
100
AcDbSymbolTableRecord
100
AcDbBlockTableRecord
  2
S06SF
  0
BLOCK_RECORD
  5
111
330
1
100
AcDbSymbolTableRecord
100
AcDbBlockTableRecord
  2
04SAET
  0
BLOCK_RECORD
  5
119
330
1
100
AcDbSymbolTableRecord
100
AcDbBlockTableRecord
  2
025BSPPT
  0
BLOCK_RECORD
  5
120
330
1
100
AcDbSymbolTableRecord
100
AcDbBlockTableRecord
  2
0375BSPPT
  0
BLOCK_RECORD
  5
128
330
1
100
AcDbSymbolTableRecord
100
AcDbBlockTableRecord
  2
D05W
  0
BLOCK_RECORD
  5
13D
330
1
100
AcDbSymbolTableRecord
100
AcDbBlockTableRecord
  2
D05HE
  0
BLOCK_RECORD
  5
15A
330
1
100
AcDbSymbolTableRecord
100
AcDbBlockTableRecord
  2
D05HH
  0
BLOCK_RECORD
  5
173
330
1
100
AcDbSymbolTableRecord
100
AcDbBlockTableRecord
  2
D05SF
  0
BLOCK_RECORD
  5
175
330
1
100
AcDbSymbolTableRecord
100
AcDbBlockTableRecord
  2
D02I
  0
BLOCK_RECORD
  5
192
330
1
100
AcDbSymbolTableRecord
100
AcDbBlockTableRecord
  2
375SHCS
  0
BLOCK_RECORD
  5
19C
330
1
100
AcDbSymbolTableRecord
100
AcDbBlockTableRecord
  2
038THDT
  0
BLOCK_RECORD
  5
1A5
330
1
100
AcDbSymbolTableRecord
100
AcDbBlockTableRecord
  2
038TOP
  0
BLOCK_RECORD
  5
1AB
330
1
100
AcDbSymbolTableRecord
100
AcDbBlockTableRecord
  2
06SAET
  0
BLOCK_RECORD
  5
1B2
330
1
100
AcDbSymbolTableRecord
100
AcDbBlockTableRecord
  2
025NPTFT
  0
BLOCK_RECORD
  5
1B4
330
1
100
AcDbSymbolTableRecord
100
AcDbBlockTableRecord
  2
250NPTFT
  0
BLOCK_RECORD
  5
1B7
330
1
100
AcDbSymbolTableRecord
100
AcDbBlockTableRecord
  2
24CD61
  0
BLOCK_RECORD
  5
1C8
330
1
100
AcDbSymbolTableRecord
100
AcDbBlockTableRecord
  2
24CD62
  0
BLOCK_RECORD
  5
1D9
330
1
100
AcDbSymbolTableRecord
100
AcDbBlockTableRecord
  2
40CD61
  0
BLOCK_RECORD
  5
1EA
330
1
100
AcDbSymbolTableRecord
100
AcDbBlockTableRecord
  2
40MMDIN
  0
BLOCK_RECORD
  5
206
330
1
100
AcDbSymbolTableRecord
100
AcDbBlockTableRecord
  2
32CD61
  0
BLOCK_RECORD
  5
217
330
1
100
AcDbSymbolTableRecord
100
AcDbBlockTableRecord
  2
50MMDIN
  0
BLOCK_RECORD
  5
234
330
1
100
AcDbSymbolTableRecord
100
AcDbBlockTableRecord
  2
40CD62
  0
BLOCK_RECORD
  5
246
330
1
100
AcDbSymbolTableRecord
100
AcDbBlockTableRecord
  2
64CD61
  0
BLOCK_RECORD
  5
257
330
1
100
AcDbSymbolTableRecord
100
AcDbBlockTableRecord
  2
63MMDIN
  0
BLOCK_RECORD
  5
274
330
1
100
AcDbSymbolTableRecord
100
AcDbBlockTableRecord
  2
08SAET
  0
BLOCK_RECORD
  5
27C
330
1
100
AcDbSymbolTableRecord
100
AcDbBlockTableRecord
  2
48CD61
  0
BLOCK_RECORD
  5
291
330
1
100
AcDbSymbolTableRecord
100
AcDbBlockTableRecord
  2
80CD61
  0
BLOCK_RECORD
  5
2A2
330
1
100
AcDbSymbolTableRecord
100
AcDbBlockTableRecord
  2
48CD62
  0
BLOCK_RECORD
  5
2BD
330
1
100
AcDbSymbolTableRecord
100
AcDbBlockTableRecord
  2
M10T
  0
BLOCK_RECORD
  5
2C6
330
1
100
AcDbSymbolTableRecord
100
AcDbBlockTableRecord
  2
050NPTFT
  0
BLOCK_RECORD
  5
2C8
330
1
100
AcDbSymbolTableRecord
100
AcDbBlockTableRecord
  2
500NPTFT
  0
BLOCK_RECORD
  5
2D1
330
1
100
AcDbSymbolTableRecord
100
AcDbBlockTableRecord
  2
0500BSPPT
  0
BLOCK_RECORD
  5
2D9
330
1
100
AcDbSymbolTableRecord
100
AcDbBlockTableRecord
  2
M18T
  0
BLOCK_RECORD
  5
2E2
330
1
100
AcDbSymbolTableRecord
100
AcDbBlockTableRecord
  2
075NPTFT
  0
BLOCK_RECORD
  5
2E4
330
1
100
AcDbSymbolTableRecord
100
AcDbBlockTableRecord
  2
750NPTFT
  0
BLOCK_RECORD
  5
2ED
330
1
100
AcDbSymbolTableRecord
100
AcDbBlockTableRecord
  2
12SAET
  0
BLOCK_RECORD
  5
2F5
330
1
100
AcDbSymbolTableRecord
100
AcDbBlockTableRecord
  2
075BSPPT
  0
BLOCK_RECORD
  5
2FE
330
1
100
AcDbSymbolTableRecord
100
AcDbBlockTableRecord
  2
M27T
  0
BLOCK_RECORD
  5
307
330
1
100
AcDbSymbolTableRecord
100
AcDbBlockTableRecord
  2
106SAET
  0
BLOCK_RECORD
  5
310
330
1
100
AcDbSymbolTableRecord
100
AcDbBlockTableRecord
  2
C102T
  0
ENDTAB
  0
ENDSEC
  0
SECTION
  2
BLOCKS
  0
BLOCK
  5
1F
330
1E
100
AcDbEntity
  8
0
100
AcDbBlockBegin
  2
*MODEL_SPACE
 70
     0
 10
0.0
 20
0.0
 30
0.0
  3
*MODEL_SPACE
  1

  0
ENDBLK
  5
20
330
1E
100
AcDbEntity
  8
0
100
AcDbBlockEnd
  0
BLOCK
  5
1B
330
1A
100
AcDbEntity
 67
     1
  8
0
100
AcDbBlockBegin
  2
*PAPER_SPACE
 70
     0
 10
0.0
 20
0.0
 30
0.0
  3
*PAPER_SPACE
  1

  0
ENDBLK
  5
1C
330
1A
100
AcDbEntity
 67
     1
  8
0
100
AcDbBlockEnd
  0
BLOCK
  5
34
330
33
100
AcDbEntity
  8
0
100
AcDbBlockBegin
  2
32MMDIN
 70
     0
 10
0.0
 20
0.0
 30
0.0
  3
32MMDIN
  1

  0
CIRCLE
  5
35
330
33
100
AcDbEntity
  8
DAMAN
100
AcDbCircle
 10
2.501358999999999
 20
2.575075
 30
0.0
 40
1.179999999999999
  0
CIRCLE
  5
36
330
33
100
AcDbEntity
  8
DAMAN
100
AcDbCircle
 10
2.501358999999999
 20
2.575075
 30
0.0
 40
0.8849999999999999
  0
CIRCLE
  5
37
330
33
100
AcDbEntity
  8
DAMAN
100
AcDbCircle
 10
2.501358999999999
 20
2.575075
 30
0.0
 40
0.63
  0
CIRCLE
  5
38
330
33
100
AcDbEntity
  8
DAMAN
100
AcDbCircle
 10
1.121358999999999
 20
3.955074999999999
 30
0.0
 40
0.259766
  0
CIRCLE
  5
39
330
33
100
AcDbEntity
  8
DAMAN
100
AcDbCircle
 10
1.121358999999999
 20
3.955074999999999
 30
0.0
 40
0.311719
  0
INSERT
  5
3B
330
33
100
AcDbEntity
  8
DAMAN
100
AcDbBlockReference
  2
100CROSS
 10
1.121358999999999
 20
3.955074999999999
 30
0.0
 41
0.6234380000000001
 42
0.6234380000000001
  0
INSERT
  5
3C
330
33
100
AcDbEntity
  8
DAMAN
100
AcDbBlockReference
  2
100CROSS
 10
1.121358999999999
 20
1.195075
 30
0.0
 41
0.6234380000000001
 42
0.6234380000000001
  0
CIRCLE
  5
3D
330
33
100
AcDbEntity
  8
DAMAN
100
AcDbCircle
 10
1.121358999999999
 20
1.195075
 30
0.0
 40
0.259766
  0
CIRCLE
  5
3E
330
33
100
AcDbEntity
  8
DAMAN
100
AcDbCircle
 10
1.121358999999999
 20
1.195075
 30
0.0
 40
0.311719
  0
INSERT
  5
3F
330
33
100
AcDbEntity
  8
DAMAN
100
AcDbBlockReference
  2
100CROSS
 10
3.881358999999999
 20
1.195075
 30
0.0
 41
0.6234380000000001
 42
0.6234380000000001
  0
CIRCLE
  5
40
330
33
100
AcDbEntity
  8
DAMAN
100
AcDbCircle
 10
3.881358999999999
 20
1.195075
 30
0.0
 40
0.259766
  0
CIRCLE
  5
41
330
33
100
AcDbEntity
  8
DAMAN
100
AcDbCircle
 10
3.881358999999999
 20
1.195075
 30
0.0
 40
0.311719
  0
INSERT
  5
42
330
33
100
AcDbEntity
  8
DAMAN
100
AcDbBlockReference
  2
100CROSS
 10
3.881358999999999
 20
3.955074999999999
 30
0.0
 41
0.6234380000000001
 42
0.6234380000000001
  0
CIRCLE
  5
43
330
33
100
AcDbEntity
  8
DAMAN
100
AcDbCircle
 10
3.881358999999999
 20
3.955074999999999
 30
0.0
 40
0.259766
  0
CIRCLE
  5
44
330
33
100
AcDbEntity
  8
DAMAN
100
AcDbCircle
 10
3.881358999999999
 20
3.955074999999999
 30
0.0
 40
0.311719
  0
CIRCLE
  5
45
330
33
100
AcDbEntity
  8
DAMAN
100
AcDbCircle
 10
2.501358999999999
 20
4.195075
 30
0.0
 40
0.157
  0
CIRCLE
  5
46
330
33
100
AcDbEntity
  8
DAMAN
100
AcDbCircle
 10
0.8813589999999999
 20
2.575075
 30
0.0
 40
0.157
  0
CIRCLE
  5
47
330
33
100
AcDbEntity
  8
DAMAN
100
AcDbCircle
 10
2.501358999999999
 20
0.955075
 30
0.0
 40
0.157
  0
CIRCLE
  5
48
330
33
100
AcDbEntity
  8
DAMAN
100
AcDbCircle
 10
4.121358999999999
 20
2.575075
 30
0.0
 40
0.157
  0
CIRCLE
  5
49
330
33
100
AcDbEntity
  8
DAMAN
100
AcDbCircle
 10
1.821358999999999
 20
3.955074999999999
 30
0.0
 40
0.12
  0
INSERT
  5
4A
330
33
100
AcDbEntity
  8
DAMAN
100
AcDbBlockReference
  2
100CROSS
 10
0.8813589999999999
 20
2.575075
 30
0.0
 41
0.4987500000000001
 42
0.4987500000000001
  0
INSERT
  5
4B
330
33
100
AcDbEntity
  8
DAMAN
100
AcDbBlockReference
  2
100CROSS
 10
1.821358999999999
 20
3.955074999999999
 30
0.0
 41
0.4987500000000001
 42
0.4987500000000001
  0
INSERT
  5
4C
330
33
100
AcDbEntity
  8
DAMAN
100
AcDbBlockReference
  2
100CROSS
 10
2.501358999999999
 20
4.195075
 30
0.0
 41
0.4987500000000001
 42
0.4987500000000001
  0
INSERT
  5
4D
330
33
100
AcDbEntity
  8
DAMAN
100
AcDbBlockReference
  2
100CROSS
 10
4.121358999999999
 20
2.575075
 30
0.0
 41
0.4987500000000001
 42
0.4987500000000001
  0
INSERT
  5
4E
330
33
100
AcDbEntity
  8
DAMAN
100
AcDbBlockReference
  2
100CROSS
 10
2.501358999999999
 20
0.955075
 30
0.0
 41
0.4987500000000001
 42
0.4987500000000001
  0
INSERT
  5
4F
330
33
100
AcDbEntity
  8
DAMAN
100
AcDbBlockReference
  2
100CROSS
 10
2.501358999999999
 20
2.575075
 30
0.0
 41
1.563849
 42
1.563849
  0
ENDBLK
  5
50
330
33
100
AcDbEntity
  8
0
100
AcDbBlockEnd
  0
BLOCK
  5
68
330
3A
100
AcDbEntity
  8
0
100
AcDbBlockBegin
  2
100CROSS
 70
     0
 10
5.625
 20
4.59375
 30
0.0
  3
100CROSS
  1

  0
INSERT
  5
6A
330
3A
100
AcDbEntity
  8
0
100
AcDbBlockReference
  2
050CROSS
 10
5.625
 20
4.59375
 30
0.0
  0
ENDBLK
  5
6B
330
3A
100
AcDbEntity
  8
0
100
AcDbBlockEnd
  0
BLOCK
  5
52
330
51
100
AcDbEntity
  8
0
100
AcDbBlockBegin
  2
D05
 70
     0
 10
0.0
 20
0.0
 30
0.0
  3
D05
  1

  0
CIRCLE
  5
53
330
51
100
AcDbEntity
  8
DAMAN
  6
HIDDEN
100
AcDbCircle
 10
1.8125
 20
0.0
 30
0.0
 40
0.125
  0
CIRCLE
  5
54
330
51
100
AcDbEntity
  8
DAMAN
  6
HIDDEN
100
AcDbCircle
 10
1.8125
 20
-2.125
 30
0.0
 40
0.125
  0
CIRCLE
  5
55
330
51
100
AcDbEntity
  8
DAMAN
  6
HIDDEN
100
AcDbCircle
 10
0.0
 20
0.0
 30
0.0
 40
0.125
  0
CIRCLE
  5
56
330
51
100
AcDbEntity
  8
DAMAN
  6
HIDDEN
100
AcDbCircle
 10
0.0
 20
-2.125
 30
0.0
 40
0.125
  0
INSERT
  5
57
330
51
100
AcDbEntity
  8
DAMAN
100
AcDbBlockReference
  2
100CROSS
 10
0.0
 20
0.0
 30
0.0
 41
0.25
 42
0.25
  0
CIRCLE
  5
58
330
51
100
AcDbEntity
  8
DAMAN
100
AcDbCircle
 10
0.0
 20
0.0
 30
0.0
 40
0.1055
  0
CIRCLE
  5
59
330
51
100
AcDbEntity
  8
DAMAN
100
AcDbCircle
 10
0.0
 20
-2.125
 30
0.0
 40
0.1055
  0
INSERT
  5
5A
330
51
100
AcDbEntity
  8
DAMAN
100
AcDbBlockReference
  2
100CROSS
 10
0.0
 20
-2.125
 30
0.0
 41
0.25
 42
0.25
  0
CIRCLE
  5
5B
330
51
100
AcDbEntity
  8
DAMAN
100
AcDbCircle
 10
1.8125
 20
0.0
 30
0.0
 40
0.1055
  0
INSERT
  5
5C
330
51
100
AcDbEntity
  8
DAMAN
100
AcDbBlockReference
  2
100CROSS
 10
1.8125
 20
0.0
 30
0.0
 41
0.25
 42
0.25
  0
CIRCLE
  5
5D
330
51
100
AcDbEntity
  8
DAMAN
100
AcDbCircle
 10
1.8125
 20
-2.125
 30
0.0
 40
0.1055
  0
INSERT
  5
5E
330
51
100
AcDbEntity
  8
DAMAN
100
AcDbBlockReference
  2
100CROSS
 10
1.8125
 20
-2.125
 30
0.0
 41
0.25
 42
0.25
  0
INSERT
  5
5F
330
51
100
AcDbEntity
  8
DAMAN
100
AcDbBlockReference
  2
100CROSS
 10
0.5310000000000001
 20
-0.125
 30
0.0
 41
0.4379999999999999
 42
0.4379999999999999
  0
CIRCLE
  5
60
330
51
100
AcDbEntity
  8
DAMAN
100
AcDbCircle
 10
0.5310000000000001
 20
-0.125
 30
0.0
 40
0.21875
  0
CIRCLE
  5
61
330
51
100
AcDbEntity
  8
DAMAN
100
AcDbCircle
 10
0.9685
 20
-0.6559999999999999
 30
0.0
 40
0.21875
  0
INSERT
  5
62
330
51
100
AcDbEntity
  8
DAMAN
100
AcDbBlockReference
  2
100CROSS
 10
0.9685
 20
-0.6559999999999999
 30
0.0
 41
0.4379999999999999
 42
0.4379999999999999
  0
INSERT
  5
63
330
51
100
AcDbEntity
  8
DAMAN
100
AcDbBlockReference
  2
100CROSS
 10
0.9685
 20
-1.468499999999999
 30
0.0
 41
0.4379999999999999
 42
0.4379999999999999
  0
CIRCLE
  5
64
330
51
100
AcDbEntity
  8
DAMAN
100
AcDbCircle
 10
0.9685
 20
-1.468499999999999
 30
0.0
 40
0.21875
  0
CIRCLE
  5
65
330
51
100
AcDbEntity
  8
DAMAN
100
AcDbCircle
 10
1.5625
 20
-1.062249999999999
 30
0.0
 40
0.21875
  0
INSERT
  5
66
330
51
100
AcDbEntity
  8
DAMAN
100
AcDbBlockReference
  2
100CROSS
 10
1.5625
 20
-1.062249999999999
 30
0.0
 41
0.4379999999999999
 42
0.4379999999999999
  0
ENDBLK
  5
67
330
51
100
AcDbEntity
  8
0
100
AcDbBlockEnd
  0
BLOCK
  5
6C
330
69
100
AcDbEntity
  8
0
100
AcDbBlockBegin
  2
050CROSS
 70
     0
 10
5.0
 20
5.0
 30
0.0
  3
050CROSS
  1

  0
LINE
  5
6D
330
69
100
AcDbEntity
  8
0
100
AcDbLine
 10
5.0
 20
5.28125
 30
0.0
 11
5.0
 21
5.78125
 31
0.0
  0
LINE
  5
6E
330
69
100
AcDbEntity
  8
0
100
AcDbLine
 10
5.0
 20
4.875
 30
0.0
 11
5.0
 21
5.125
 31
0.0
  0
LINE
  5
6F
330
69
100
AcDbEntity
  8
0
100
AcDbLine
 10
5.0
 20
4.15625
 30
0.0
 11
5.0
 21
4.71875
 31
0.0
  0
LINE
  5
70
330
69
100
AcDbEntity
  8
0
100
AcDbLine
 10
5.25
 20
5.0
 30
0.0
 11
5.8125
 21
5.0
 31
0.0
  0
LINE
  5
71
330
69
100
AcDbEntity
  8
0
100
AcDbLine
 10
4.90625
 20
5.0
 30
0.0
 11
5.09375
 21
5.0
 31
0.0
  0
LINE
  5
72
330
69
100
AcDbEntity
  8
0
100
AcDbLine
 10
4.1875
 20
5.0
 30
0.0
 11
4.75
 21
5.0
 31
0.0
  0
ENDBLK
  5
73
330
69
100
AcDbEntity
  8
0
100
AcDbBlockEnd
  0
BLOCK
  5
75
330
74
100
AcDbEntity
  8
0
100
AcDbBlockBegin
  2
D02
 70
     0
 10
0.0
 20
0.0
 30
0.0
  3
D02
  1

  0
INSERT
  5
76
330
74
100
AcDbEntity
  8
DAMAN
 62
     5
100
AcDbBlockReference
  2
100CROSS
 10
2.119267999999999
 20
1.520488999999999
 30
0.0
 41
0.1875
 42
0.1875
  0
INSERT
  5
77
330
74
100
AcDbEntity
  8
DAMAN
 62
     5
100
AcDbBlockReference
  2
100CROSS
 10
1.862704
 20
0.646489
 30
0.0
 41
0.171
 42
0.171
  0
INSERT
  5
78
330
74
100
AcDbEntity
  8
DAMAN
 62
     5
100
AcDbBlockReference
  2
100CROSS
 10
1.647267999999999
 20
0.7444890000000001
 30
0.0
 41
0.188
 42
0.188
  0
CIRCLE
  5
79
330
74
100
AcDbEntity
  8
DAMAN
  6
HIDDEN
 62
     5
100
AcDbCircle
 10
1.647267999999999
 20
0.7444890000000001
 30
0.0
 40
0.095
  0
CIRCLE
  5
7A
330
74
100
AcDbEntity
  8
DAMAN
 62
     5
100
AcDbCircle
 10
1.647267999999999
 20
0.7447390000000001
 30
0.0
 40
0.078
  0
INSERT
  5
7B
330
74
100
AcDbEntity
  8
DAMAN
 62
     5
100
AcDbBlockReference
  2
100CROSS
 10
1.676268
 20
1.689489
 30
0.0
 41
0.188
 42
0.188
  0
CIRCLE
  5
7C
330
74
100
AcDbEntity
  8
DAMAN
 62
     5
100
AcDbCircle
 10
1.676268
 20
1.689489
 30
0.0
 40
0.078
  0
CIRCLE
  5
7D
330
74
100
AcDbEntity
  8
DAMAN
  6
HIDDEN
 62
     5
100
AcDbCircle
 10
1.676268
 20
1.689489
 30
0.0
 40
0.095
  0
INSERT
  5
7E
330
74
100
AcDbEntity
  8
DAMAN
 62
     5
100
AcDbBlockReference
  2
100CROSS
 10
2.591267999999999
 20
0.7444890000000001
 30
0.0
 41
0.188
 42
0.188
  0
CIRCLE
  5
7F
330
74
100
AcDbEntity
  8
DAMAN
  6
HIDDEN
 62
     5
100
AcDbCircle
 10
2.591267999999999
 20
0.7444890000000001
 30
0.0
 40
0.095
  0
CIRCLE
  5
80
330
74
100
AcDbEntity
  8
DAMAN
 62
     5
100
AcDbCircle
 10
2.591267999999999
 20
0.7447390000000001
 30
0.0
 40
0.078
  0
CIRCLE
  5
81
330
74
100
AcDbEntity
  8
DAMAN
 62
     5
100
AcDbCircle
 10
2.562267999999999
 20
1.689489
 30
0.0
 40
0.078
  0
INSERT
  5
82
330
74
100
AcDbEntity
  8
DAMAN
 62
     5
100
AcDbBlockReference
  2
100CROSS
 10
2.562267999999999
 20
1.689489
 30
0.0
 41
0.188
 42
0.188
  0
CIRCLE
  5
83
330
74
100
AcDbEntity
  8
DAMAN
  6
HIDDEN
 62
     5
100
AcDbCircle
 10
2.562267999999999
 20
1.689489
 30
0.0
 40
0.095
  0
CIRCLE
  5
84
330
74
100
AcDbEntity
  8
DAMAN
 62
     5
100
AcDbCircle
 10
2.119267999999999
 20
1.520488999999999
 30
0.0
 40
0.0885
  0
CIRCLE
  5
85
330
74
100
AcDbEntity
  8
DAMAN
 62
     5
100
AcDbCircle
 10
2.474267999999999
 20
1.217489
 30
0.0
 40
0.0885
  0
INSERT
  5
86
330
74
100
AcDbEntity
  8
DAMAN
 62
     5
100
AcDbBlockReference
  2
100CROSS
 10
2.474267999999999
 20
1.217489
 30
0.0
 41
0.1875
 42
0.1875
  0
CIRCLE
  5
87
330
74
100
AcDbEntity
  8
DAMAN
 62
     5
100
AcDbCircle
 10
2.119267999999999
 20
0.913489
 30
0.0
 40
0.0885
  0
INSERT
  5
88
330
74
100
AcDbEntity
  8
DAMAN
 62
     5
100
AcDbBlockReference
  2
100CROSS
 10
2.119267999999999
 20
0.913489
 30
0.0
 41
0.1875
 42
0.1875
  0
CIRCLE
  5
89
330
74
100
AcDbEntity
  8
DAMAN
 62
     5
100
AcDbCircle
 10
1.765268
 20
1.217489
 30
0.0
 40
0.0885
  0
INSERT
  5
8A
330
74
100
AcDbEntity
  8
DAMAN
 62
     5
100
AcDbBlockReference
  2
100CROSS
 10
1.765268
 20
1.217489
 30
0.0
 41
0.1875
 42
0.1875
  0
CIRCLE
  5
8B
330
74
100
AcDbEntity
  8
DAMAN
 62
     5
100
AcDbCircle
 10
1.862704
 20
0.646489
 30
0.0
 40
0.0885
  0
ENDBLK
  5
8C
330
74
100
AcDbEntity
  8
0
100
AcDbBlockEnd
  0
BLOCK
  5
8E
330
8D
100
AcDbEntity
  8
0
100
AcDbBlockBegin
  2
D03
 70
     0
 10
0.0
 20
0.0
 30
0.0
  3
D03
  1

  0
INSERT
  5
8F
330
8D
100
AcDbEntity
  8
DAMAN
100
AcDbBlockReference
  2
100CROSS
 10
0.61
 20
-1.1875
 30
0.0
 41
0.25
 42
0.25
  0
INSERT
  5
90
330
8D
100
AcDbEntity
  8
DAMAN
100
AcDbBlockReference
  2
100CROSS
 10
0.61
 20
-0.5
 30
0.0
 41
0.25
 42
0.25
  0
CIRCLE
  5
91
330
8D
100
AcDbEntity
  8
DAMAN
100
AcDbCircle
 10
0.61
 20
-0.5
 30
0.0
 40
0.141125
  0
CIRCLE
  5
92
330
8D
100
AcDbEntity
  8
DAMAN
100
AcDbCircle
 10
0.61
 20
-1.1875
 30
0.0
 40
0.141125
  0
INSERT
  5
93
330
8D
100
AcDbEntity
  8
DAMAN
100
AcDbBlockReference
  2
100CROSS
 10
0.2035
 20
-0.8440000000000001
 30
0.0
 41
0.25
 42
0.25
  0
CIRCLE
  5
94
330
8D
100
AcDbEntity
  8
DAMAN
100
AcDbCircle
 10
0.2035
 20
-0.8440000000000001
 30
0.0
 40
0.141375
  0
INSERT
  5
95
330
8D
100
AcDbEntity
  8
DAMAN
100
AcDbBlockReference
  2
100CROSS
 10
-0.03
 20
-1.3
 30
0.0
 41
0.171
 42
0.171
  0
INSERT
  5
96
330
8D
100
AcDbEntity
  8
DAMAN
100
AcDbBlockReference
  2
100CROSS
 10
-0.03
 20
-1.594
 30
0.0
 41
0.188
 42
0.188
  0
CIRCLE
  5
97
330
8D
100
AcDbEntity
  8
DAMAN
  6
HIDDEN
100
AcDbCircle
 10
-0.03
 20
-1.594
 30
0.0
 40
0.095
  0
CIRCLE
  5
98
330
8D
100
AcDbEntity
  8
DAMAN
100
AcDbCircle
 10
-0.03
 20
-1.59375
 30
0.0
 40
0.078
  0
CIRCLE
  5
99
330
8D
100
AcDbEntity
  8
DAMAN
100
AcDbCircle
 10
-0.03
 20
-1.3
 30
0.0
 40
0.0855
  0
POINT
  5
9A
330
8D
100
AcDbEntity
  8
DAMAN
  6
BYBLOCK
 62
     0
100
AcDbPoint
 10
0.20425
 20
-0.75
 30
0.0
  0
POINT
  5
9B
330
8D
100
AcDbEntity
  8
DAMAN
  6
BYBLOCK
 62
     0
100
AcDbPoint
 10
0.20425
 20
-0.75
 30
0.0
  0
INSERT
  5
9C
330
8D
100
AcDbEntity
  8
DAMAN
100
AcDbBlockReference
  2
100CROSS
 10
0.0
 20
0.0
 30
0.0
 41
0.188
 42
0.188
  0
CIRCLE
  5
9D
330
8D
100
AcDbEntity
  8
DAMAN
100
AcDbCircle
 10
0.0
 20
0.0
 30
0.0
 40
0.078
  0
CIRCLE
  5
9E
330
8D
100
AcDbEntity
  8
DAMAN
  6
HIDDEN
100
AcDbCircle
 10
0.0
 20
0.0
 30
0.0
 40
0.095
  0
INSERT
  5
9F
330
8D
100
AcDbEntity
  8
DAMAN
100
AcDbBlockReference
  2
100CROSS
 10
1.016
 20
-0.8440000000000001
 30
0.0
 41
0.25
 42
0.25
  0
CIRCLE
  5
A0
330
8D
100
AcDbEntity
  8
DAMAN
100
AcDbCircle
 10
1.016
 20
-0.8440000000000001
 30
0.0
 40
0.141375
  0
INSERT
  5
A1
330
8D
100
AcDbEntity
  8
DAMAN
100
AcDbBlockReference
  2
100CROSS
 10
1.25
 20
-1.594
 30
0.0
 41
0.188
 42
0.188
  0
CIRCLE
  5
A2
330
8D
100
AcDbEntity
  8
DAMAN
  6
HIDDEN
100
AcDbCircle
 10
1.25
 20
-1.594
 30
0.0
 40
0.095
  0
CIRCLE
  5
A3
330
8D
100
AcDbEntity
  8
DAMAN
100
AcDbCircle
 10
1.25
 20
-1.59375
 30
0.0
 40
0.078
  0
CIRCLE
  5
A4
330
8D
100
AcDbEntity
  8
DAMAN
100
AcDbCircle
 10
1.219999999999999
 20
0.0
 30
0.0
 40
0.078
  0
INSERT
  5
A5
330
8D
100
AcDbEntity
  8
DAMAN
100
AcDbBlockReference
  2
100CROSS
 10
1.219999999999999
 20
0.0
 30
0.0
 41
0.188
 42
0.188
  0
CIRCLE
  5
A6
330
8D
100
AcDbEntity
  8
DAMAN
  6
HIDDEN
100
AcDbCircle
 10
1.219999999999999
 20
0.0
 30
0.0
 40
0.095
  0
ENDBLK
  5
A7
330
8D
100
AcDbEntity
  8
0
100
AcDbBlockEnd
  0
BLOCK
  5
A9
330
A8
100
AcDbEntity
  8
0
100
AcDbBlockBegin
  2
D03SF
 70
     0
 10
0.0
 20
0.0
 30
0.0
  3
D03SF
  1

  0
INSERT
  5
AB
330
A8
100
AcDbEntity
  8
DAMAN
100
AcDbBlockReference
  2
D01I
 10
1.21875
 20
0.0
 30
0.0
 41
-1.0
  0
ENDBLK
  5
AC
330
A8
100
AcDbEntity
  8
0
100
AcDbBlockEnd
  0
BLOCK
  5
AD
330
AA
100
AcDbEntity
  8
0
100
AcDbBlockBegin
  2
D01I
 70
     0
 10
9.0625
 20
9.75
 30
0.0
  3
D01I
  1

  0
CIRCLE
  5
AE
330
AA
100
AcDbEntity
  8
CSOLID
100
AcDbCircle
 10
9.03245
 20
8.450385
 30
0.0
 40
0.0625
  0
CIRCLE
  5
AF
330
AA
100
AcDbEntity
  8
CSOLID
100
AcDbCircle
 10
10.07724999999999
 20
8.90625
 30
0.0
 40
0.2189999999999999
  0
CIRCLE
  5
B0
330
AA
100
AcDbEntity
  8
CSOLID
100
AcDbCircle
 10
9.67125
 20
9.250249999999999
 30
0.0
 40
0.2189999999999999
  0
CIRCLE
  5
B1
330
AA
100
AcDbEntity
  8
CSOLID
100
AcDbCircle
 10
9.265249999999999
 20
8.90625
 30
0.0
 40
0.2189999999999999
  0
CIRCLE
  5
B2
330
AA
100
AcDbEntity
  8
CSOLID
100
AcDbCircle
 10
9.67125
 20
8.56225
 30
0.0
 40
0.2189999999999999
  0
CIRCLE
  5
B3
330
AA
100
AcDbEntity
  8
CSOLID
100
AcDbCircle
 10
9.03125
 20
8.15625
 30
0.0
 40
0.1095
  0
CIRCLE
  5
B4
330
AA
100
AcDbEntity
  8
CSOLID
100
AcDbCircle
 10
10.3125
 20
8.15625
 30
0.0
 40
0.1095
  0
CIRCLE
  5
B5
330
AA
100
AcDbEntity
  8
CSOLID
100
AcDbCircle
 10
10.28124999999999
 20
9.75
 30
0.0
 40
0.1095
  0
CIRCLE
  5
B6
330
AA
100
AcDbEntity
  8
CSOLID
100
AcDbCircle
 10
9.0625
 20
9.75
 30
0.0
 40
0.1095
  0
CIRCLE
  5
B7
330
AA
100
AcDbEntity
  8
CSOLID
100
AcDbCircle
 10
9.672499999999999
 20
9.25
 30
0.0
 40
0.125
  0
CIRCLE
  5
B8
330
AA
100
AcDbEntity
  8
CSOLID
100
AcDbCircle
 10
10.0785
 20
8.906
 30
0.0
 40
0.125
  0
CIRCLE
  5
B9
330
AA
100
AcDbEntity
  8
CSOLID
100
AcDbCircle
 10
9.266
 20
8.906
 30
0.0
 40
0.125
  0
CIRCLE
  5
BA
330
AA
100
AcDbEntity
  8
CSOLID
100
AcDbCircle
 10
9.672499999999999
 20
8.5625
 30
0.0
 40
0.125
  0
INSERT
  5
BB
330
AA
100
AcDbEntity
  8
CCENTER
100
AcDbBlockReference
  2
100CROSS
 10
9.0325
 20
8.449999999999999
 30
0.0
 41
0.171
 42
0.171
  0
INSERT
  5
BC
330
AA
100
AcDbEntity
  8
CCENTER
100
AcDbBlockReference
  2
100CROSS
 10
9.670999999999999
 20
8.562000000000001
 30
0.0
 41
0.4
 42
0.4
  0
INSERT
  5
BD
330
AA
100
AcDbEntity
  8
CCENTER
100
AcDbBlockReference
  2
100CROSS
 10
10.0775
 20
8.906
 30
0.0
 41
0.4
 42
0.4
  0
INSERT
  5
BE
330
AA
100
AcDbEntity
  8
CCENTER
100
AcDbBlockReference
  2
100CROSS
 10
9.670999999999999
 20
9.25
 30
0.0
 41
0.4
 42
0.4
  0
INSERT
  5
BF
330
AA
100
AcDbEntity
  8
CCENTER
100
AcDbBlockReference
  2
100CROSS
 10
9.265
 20
8.906
 30
0.0
 41
0.4
 42
0.4
  0
INSERT
  5
C0
330
AA
100
AcDbEntity
  8
CCENTER
100
AcDbBlockReference
  2
100CROSS
 10
9.03125
 20
8.15625
 30
0.0
 41
0.34
 42
0.34
 43
0.34
  0
INSERT
  5
C1
330
AA
100
AcDbEntity
  8
CCENTER
100
AcDbBlockReference
  2
100CROSS
 10
10.3125
 20
8.15625
 30
0.0
 41
0.34
 42
0.34
 43
0.34
  0
INSERT
  5
C2
330
AA
100
AcDbEntity
  8
CCENTER
100
AcDbBlockReference
  2
100CROSS
 10
10.28124999999999
 20
9.75
 30
0.0
 41
0.34
 42
0.34
 43
0.34
  0
INSERT
  5
C3
330
AA
100
AcDbEntity
  8
CCENTER
100
AcDbBlockReference
  2
100CROSS
 10
9.0625
 20
9.75
 30
0.0
 41
0.34
 42
0.34
 43
0.34
  0
ENDBLK
  5
C4
330
AA
100
AcDbEntity
  8
0
100
AcDbBlockEnd
  0
BLOCK
  5
C6
330
C5
100
AcDbEntity
  8
0
100
AcDbBlockBegin
  2
012NPTFT
 70
     0
 10
0.0
 20
0.0
 30
0.0
  3
012NPTFT
  1

  0
CIRCLE
  5
C7
330
C5
100
AcDbEntity
  8
DAMAN
  6
HIDDEN
100
AcDbCircle
 10
0.0
 20
0.0
 30
0.0
 40
0.1875
  0
CIRCLE
  5
C8
330
C5
100
AcDbEntity
  8
DAMAN
100
AcDbCircle
 10
0.0
 20
0.0
 30
0.0
 40
0.2105
  0
CIRCLE
  5
C9
330
C5
100
AcDbEntity
  8
DAMAN
100
AcDbCircle
 10
0.0
 20
0.0
 30
0.0
 40
0.1695
  0
INSERT
  5
CA
330
C5
100
AcDbEntity
  8
DAMAN
100
AcDbBlockReference
  2
100CROSS
 10
0.0
 20
0.0
 30
0.0
 41
0.43
 42
0.43
  0
ENDBLK
  5
CB
330
C5
100
AcDbEntity
  8
0
100
AcDbBlockEnd
  0
BLOCK
  5
CD
330
CC
100
AcDbEntity
  8
0
100
AcDbBlockBegin
  2
S06
 70
     0
 10
0.0
 20
0.0
 30
0.0
  3
S06
  1

  0
CIRCLE
  5
CE
330
CC
100
AcDbEntity
  8
DAMAN
100
AcDbCircle
 10
1.919961999999999
 20
1.510945999999999
 30
0.0
 40
0.203
  0
CIRCLE
  5
CF
330
CC
100
AcDbEntity
  8
DAMAN
100
AcDbCircle
 10
4.794961999999999
 20
1.510945999999999
 30
0.0
 40
0.203
  0
CIRCLE
  5
D0
330
CC
100
AcDbEntity
  8
DAMAN
100
AcDbCircle
 10
4.794961999999999
 20
4.885945999999999
 30
0.0
 40
0.203
  0
CIRCLE
  5
D1
330
CC
100
AcDbEntity
  8
DAMAN
100
AcDbCircle
 10
1.919961999999999
 20
4.885945999999999
 30
0.0
 40
0.203
  0
CIRCLE
  5
D2
330
CC
100
AcDbEntity
  8
DAMAN
100
AcDbCircle
 10
3.359962
 20
4.195946
 30
0.0
 40
0.34375
  0
CIRCLE
  5
D3
330
CC
100
AcDbEntity
  8
DAMAN
100
AcDbCircle
 10
2.359961999999999
 20
3.195945999999999
 30
0.0
 40
0.34375
  0
CIRCLE
  5
D4
330
CC
100
AcDbEntity
  8
DAMAN
100
AcDbCircle
 10
3.359962
 20
2.195945999999999
 30
0.0
 40
0.34375
  0
CIRCLE
  5
D5
330
CC
100
AcDbEntity
  8
DAMAN
100
AcDbCircle
 10
4.359962
 20
3.195945999999999
 30
0.0
 40
0.34375
  0
CIRCLE
  5
D6
330
CC
100
AcDbEntity
  8
DAMAN
100
AcDbCircle
 10
2.609961999999999
 20
1.698445999999999
 30
0.0
 40
0.125
  0
CIRCLE
  5
D7
330
CC
100
AcDbEntity
  8
DAMAN
100
AcDbCircle
 10
4.359962
 20
2.445945999999999
 30
0.0
 40
0.08
  0
LINE
  5
D8
330
CC
100
AcDbEntity
  8
DAMAN
  6
CENTER
100
AcDbLine
 10
2.922461999999999
 20
4.195946
 30
0.0
 11
3.797462
 21
4.195946
 31
0.0
  0
LINE
  5
D9
330
CC
100
AcDbEntity
  8
DAMAN
  6
CENTER
100
AcDbLine
 10
3.359962
 20
3.758445999999999
 30
0.0
 11
3.359962
 21
4.633446
 31
0.0
  0
LINE
  5
DA
330
CC
100
AcDbEntity
  8
DAMAN
  6
CENTER
100
AcDbLine
 10
1.922461999999999
 20
3.195945999999999
 30
0.0
 11
2.797461999999999
 21
3.195945999999999
 31
0.0
  0
LINE
  5
DB
330
CC
100
AcDbEntity
  8
DAMAN
  6
CENTER
100
AcDbLine
 10
2.359961999999999
 20
2.758445999999999
 30
0.0
 11
2.359961999999999
 21
3.633445999999999
 31
0.0
  0
LINE
  5
DC
330
CC
100
AcDbEntity
  8
DAMAN
  6
CENTER
100
AcDbLine
 10
2.922461999999999
 20
2.195945999999999
 30
0.0
 11
3.797462
 21
2.195945999999999
 31
0.0
  0
LINE
  5
DD
330
CC
100
AcDbEntity
  8
DAMAN
  6
CENTER
100
AcDbLine
 10
3.359962
 20
1.758445999999999
 30
0.0
 11
3.359962
 21
2.633445999999999
 31
0.0
  0
LINE
  5
DE
330
CC
100
AcDbEntity
  8
DAMAN
  6
CENTER
100
AcDbLine
 10
3.922462
 20
3.195945999999999
 30
0.0
 11
4.797462
 21
3.195945999999999
 31
0.0
  0
LINE
  5
DF
330
CC
100
AcDbEntity
  8
DAMAN
  6
CENTER
100
AcDbLine
 10
4.359962
 20
2.758445999999999
 30
0.0
 11
4.359962
 21
3.633445999999999
 31
0.0
  0
LINE
  5
E0
330
CC
100
AcDbEntity
  8
DAMAN
  6
CENTER
100
AcDbLine
 10
4.357461999999999
 20
4.885945999999999
 30
0.0
 11
5.232461999999999
 21
4.885945999999999
 31
0.0
  0
LINE
  5
E1
330
CC
100
AcDbEntity
  8
DAMAN
  6
CENTER
100
AcDbLine
 10
4.794961999999999
 20
4.448445999999999
 30
0.0
 11
4.794961999999999
 21
5.323445999999999
 31
0.0
  0
LINE
  5
E2
330
CC
100
AcDbEntity
  8
DAMAN
  6
CENTER
100
AcDbLine
 10
1.482462
 20
4.885945999999999
 30
0.0
 11
2.357461999999999
 21
4.885945999999999
 31
0.0
  0
LINE
  5
E3
330
CC
100
AcDbEntity
  8
DAMAN
  6
CENTER
100
AcDbLine
 10
1.919961999999999
 20
4.448445999999999
 30
0.0
 11
1.919961999999999
 21
5.323445999999999
 31
0.0
  0
LINE
  5
E4
330
CC
100
AcDbEntity
  8
DAMAN
  6
CENTER
100
AcDbLine
 10
1.482462
 20
1.510945999999999
 30
0.0
 11
2.357461999999999
 21
1.510945999999999
 31
0.0
  0
LINE
  5
E5
330
CC
100
AcDbEntity
  8
DAMAN
  6
CENTER
100
AcDbLine
 10
1.919961999999999
 20
1.073445999999999
 30
0.0
 11
1.919961999999999
 21
1.948445999999999
 31
0.0
  0
LINE
  5
E6
330
CC
100
AcDbEntity
  8
DAMAN
  6
CENTER
100
AcDbLine
 10
4.357461999999999
 20
1.510945999999999
 30
0.0
 11
5.232461999999999
 21
1.510945999999999
 31
0.0
  0
LINE
  5
E7
330
CC
100
AcDbEntity
  8
DAMAN
  6
CENTER
100
AcDbLine
 10
4.794961999999999
 20
1.073445999999999
 30
0.0
 11
4.794961999999999
 21
1.948445999999999
 31
0.0
  0
LINE
  5
E8
330
CC
100
AcDbEntity
  8
DAMAN
  6
CENTER
100
AcDbLine
 10
4.141212
 20
2.445945999999999
 30
0.0
 11
4.578712
 21
2.445945999999999
 31
0.0
  0
LINE
  5
E9
330
CC
100
AcDbEntity
  8
DAMAN
  6
CENTER
100
AcDbLine
 10
4.359962
 20
2.227195999999999
 30
0.0
 11
4.359962
 21
2.664695999999999
 31
0.0
  0
LINE
  5
EA
330
CC
100
AcDbEntity
  8
DAMAN
  6
CENTER
100
AcDbLine
 10
2.391211999999999
 20
1.698445999999999
 30
0.0
 11
2.828711999999999
 21
1.698445999999999
 31
0.0
  0
LINE
  5
EB
330
CC
100
AcDbEntity
  8
DAMAN
  6
CENTER
100
AcDbLine
 10
2.609961999999999
 20
1.479695999999999
 30
0.0
 11
2.609961999999999
 21
1.917195999999999
 31
0.0
  0
POINT
  5
EC
330
CC
100
AcDbEntity
  8
DAMAN
100
AcDbPoint
 10
3.359962
 20
2.195945999999999
 30
0.0
  0
ENDBLK
  5
ED
330
CC
100
AcDbEntity
  8
0
100
AcDbBlockEnd
  0
BLOCK
  5
EF
330
EE
100
AcDbEntity
  8
0
100
AcDbBlockBegin
  2
S06SF
 70
     0
 10
0.0
 20
0.0
 30
0.0
  3
S06SF
  1

  0
CIRCLE
  5
F0
330
EE
100
AcDbEntity
  8
DAMAN
100
AcDbCircle
 10
4.826945999999999
 20
1.510945999999999
 30
0.0
 40
0.203
  0
CIRCLE
  5
F1
330
EE
100
AcDbEntity
  8
DAMAN
100
AcDbCircle
 10
1.951945999999999
 20
1.510945999999999
 30
0.0
 40
0.203
  0
CIRCLE
  5
F2
330
EE
100
AcDbEntity
  8
DAMAN
100
AcDbCircle
 10
1.951945999999999
 20
4.885945999999999
 30
0.0
 40
0.203
  0
CIRCLE
  5
F3
330
EE
100
AcDbEntity
  8
DAMAN
100
AcDbCircle
 10
4.826945999999999
 20
4.885945999999999
 30
0.0
 40
0.203
  0
CIRCLE
  5
F4
330
EE
100
AcDbEntity
  8
DAMAN
100
AcDbCircle
 10
3.386946
 20
4.195946
 30
0.0
 40
0.34375
  0
CIRCLE
  5
F5
330
EE
100
AcDbEntity
  8
DAMAN
100
AcDbCircle
 10
4.386946
 20
3.195945999999999
 30
0.0
 40
0.34375
  0
CIRCLE
  5
F6
330
EE
100
AcDbEntity
  8
DAMAN
100
AcDbCircle
 10
3.386946
 20
2.195945999999999
 30
0.0
 40
0.34375
  0
CIRCLE
  5
F7
330
EE
100
AcDbEntity
  8
DAMAN
100
AcDbCircle
 10
2.386946
 20
3.195945999999999
 30
0.0
 40
0.34375
  0
CIRCLE
  5
F8
330
EE
100
AcDbEntity
  8
DAMAN
100
AcDbCircle
 10
2.386946
 20
2.445945999999999
 30
0.0
 40
0.08
  0
LINE
  5
F9
330
EE
100
AcDbEntity
  8
DAMAN
  6
CENTER
100
AcDbLine
 10
4.043196
 20
4.195946
 30
0.0
 11
2.730696
 21
4.195946
 31
0.0
  0
LINE
  5
FA
330
EE
100
AcDbEntity
  8
DAMAN
  6
CENTER
100
AcDbLine
 10
3.386946
 20
3.539695999999999
 30
0.0
 11
3.386946
 21
4.852196
 31
0.0
  0
LINE
  5
FB
330
EE
100
AcDbEntity
  8
DAMAN
  6
CENTER
100
AcDbLine
 10
5.043196
 20
3.195945999999999
 30
0.0
 11
3.730696
 21
3.195945999999999
 31
0.0
  0
LINE
  5
FC
330
EE
100
AcDbEntity
  8
DAMAN
  6
CENTER
100
AcDbLine
 10
4.386946
 20
2.539695999999999
 30
0.0
 11
4.386946
 21
3.852195999999999
 31
0.0
  0
LINE
  5
FD
330
EE
100
AcDbEntity
  8
DAMAN
  6
CENTER
100
AcDbLine
 10
4.043196
 20
2.195945999999999
 30
0.0
 11
2.730696
 21
2.195945999999999
 31
0.0
  0
LINE
  5
FE
330
EE
100
AcDbEntity
  8
DAMAN
  6
CENTER
100
AcDbLine
 10
3.386946
 20
1.539695999999999
 30
0.0
 11
3.386946
 21
2.852195999999999
 31
0.0
  0
LINE
  5
FF
330
EE
100
AcDbEntity
  8
DAMAN
  6
CENTER
100
AcDbLine
 10
3.043196
 20
3.195945999999999
 30
0.0
 11
1.730696
 21
3.195945999999999
 31
0.0
  0
LINE
  5
100
330
EE
100
AcDbEntity
  8
DAMAN
  6
CENTER
100
AcDbLine
 10
2.386946
 20
2.539695999999999
 30
0.0
 11
2.386946
 21
3.852195999999999
 31
0.0
  0
LINE
  5
101
330
EE
100
AcDbEntity
  8
DAMAN
  6
CENTER
100
AcDbLine
 10
2.389445999999999
 20
4.885945999999999
 30
0.0
 11
1.514445999999999
 21
4.885945999999999
 31
0.0
  0
LINE
  5
102
330
EE
100
AcDbEntity
  8
DAMAN
  6
CENTER
100
AcDbLine
 10
1.951945999999999
 20
4.448445999999999
 30
0.0
 11
1.951945999999999
 21
5.323445999999999
 31
0.0
  0
LINE
  5
103
330
EE
100
AcDbEntity
  8
DAMAN
  6
CENTER
100
AcDbLine
 10
5.264445999999999
 20
4.885945999999999
 30
0.0
 11
4.389445999999999
 21
4.885945999999999
 31
0.0
  0
LINE
  5
104
330
EE
100
AcDbEntity
  8
DAMAN
  6
CENTER
100
AcDbLine
 10
4.826945999999999
 20
4.448445999999999
 30
0.0
 11
4.826945999999999
 21
5.323445999999999
 31
0.0
  0
LINE
  5
105
330
EE
100
AcDbEntity
  8
DAMAN
  6
CENTER
100
AcDbLine
 10
5.264445999999999
 20
1.510945999999999
 30
0.0
 11
4.389445999999999
 21
1.510945999999999
 31
0.0
  0
LINE
  5
106
330
EE
100
AcDbEntity
  8
DAMAN
  6
CENTER
100
AcDbLine
 10
4.826945999999999
 20
1.073445999999999
 30
0.0
 11
4.826945999999999
 21
1.948445999999999
 31
0.0
  0
LINE
  5
107
330
EE
100
AcDbEntity
  8
DAMAN
  6
CENTER
100
AcDbLine
 10
2.389445999999999
 20
1.510945999999999
 30
0.0
 11
1.514445999999999
 21
1.510945999999999
 31
0.0
  0
LINE
  5
108
330
EE
100
AcDbEntity
  8
DAMAN
  6
CENTER
100
AcDbLine
 10
1.951945999999999
 20
1.073445999999999
 30
0.0
 11
1.951945999999999
 21
1.948445999999999
 31
0.0
  0
LINE
  5
109
330
EE
100
AcDbEntity
  8
DAMAN
  6
CENTER
100
AcDbLine
 10
2.605696
 20
2.445945999999999
 30
0.0
 11
2.168196
 21
2.445945999999999
 31
0.0
  0
LINE
  5
10A
330
EE
100
AcDbEntity
  8
DAMAN
  6
CENTER
100
AcDbLine
 10
2.386946
 20
2.227195999999999
 30
0.0
 11
2.386946
 21
2.664695999999999
 31
0.0
  0
POINT
  5
10B
330
EE
100
AcDbEntity
  8
DAMAN
100
AcDbPoint
 10
3.386946
 20
2.195945999999999
 30
0.0
  0
CIRCLE
  5
10C
330
EE
100
AcDbEntity
  8
DAMAN
100
AcDbCircle
 10
3.386946
 20
4.195946
 30
0.0
 40
0.5
  0
CIRCLE
  5
10D
330
EE
100
AcDbEntity
  8
DAMAN
100
AcDbCircle
 10
4.386946
 20
3.195945999999999
 30
0.0
 40
0.5
  0
CIRCLE
  5
10E
330
EE
100
AcDbEntity
  8
DAMAN
100
AcDbCircle
 10
3.386946
 20
2.195945999999999
 30
0.0
 40
0.5
  0
CIRCLE
  5
10F
330
EE
100
AcDbEntity
  8
DAMAN
100
AcDbCircle
 10
2.386946
 20
3.195945999999999
 30
0.0
 40
0.5
  0
ENDBLK
  5
110
330
EE
100
AcDbEntity
  8
0
100
AcDbBlockEnd
  0
BLOCK
  5
112
330
111
100
AcDbEntity
  8
0
100
AcDbBlockBegin
  2
04SAET
 70
     0
 10
0.0
 20
0.0
 30
0.0
  3
04SAET
  1

  0
CIRCLE
  5
113
330
111
100
AcDbEntity
  8
DAMAN
100
AcDbCircle
 10
0.0
 20
0.0
 30
0.0
 40
0.4375
  0
INSERT
  5
114
330
111
100
AcDbEntity
  8
DAMAN
100
AcDbBlockReference
  2
100CROSS
 10
0.0
 20
0.0
 30
0.0
 41
0.8
 42
0.8
  0
CIRCLE
  5
115
330
111
100
AcDbEntity
  8
DAMAN
  6
HIDDEN
100
AcDbCircle
 10
0.0
 20
0.0
 30
0.0
 40
0.21875
  0
CIRCLE
  5
116
330
111
100
AcDbEntity
  8
DAMAN
100
AcDbCircle
 10
0.0
 20
0.0
 30
0.0
 40
0.1875
  0
CIRCLE
  5
117
330
111
100
AcDbEntity
  8
DAMAN
100
AcDbCircle
 10
0.0
 20
0.0
 30
0.0
 40
0.2435
  0
ENDBLK
  5
118
330
111
100
AcDbEntity
  8
0
100
AcDbBlockEnd
  0
BLOCK
  5
11A
330
119
100
AcDbEntity
  8
0
100
AcDbBlockBegin
  2
025BSPPT
 70
     0
 10
0.0
 20
0.0
 30
0.0
  3
025BSPPT
  1

  0
CIRCLE
  5
11B
330
119
100
AcDbEntity
  8
DAMAN
100
AcDbCircle
 10
0.0
 20
0.0
 30
0.0
 40
0.425
  0
CIRCLE
  5
11C
330
119
100
AcDbEntity
  8
DAMAN
100
AcDbCircle
 10
0.0
 20
0.0
 30
0.0
 40
0.225
  0
CIRCLE
  5
11D
330
119
100
AcDbEntity
  8
DAMAN
100
AcDbCircle
 10
0.0
 20
0.0
 30
0.0
 40
0.26
  0
INSERT
  5
11E
330
119
100
AcDbEntity
  8
DAMAN
100
AcDbBlockReference
  2
100CROSS
 10
0.0
 20
0.0
 30
0.0
 41
0.7480000000000001
 42
0.7480000000000001
  0
ENDBLK
  5
11F
330
119
100
AcDbEntity
  8
0
100
AcDbBlockEnd
  0
BLOCK
  5
121
330
120
100
AcDbEntity
  8
0
100
AcDbBlockBegin
  2
0375BSPPT
 70
     0
 10
0.0
 20
0.0
 30
0.0
  3
0375BSPPT
  1

  0
CIRCLE
  5
122
330
120
100
AcDbEntity
  8
CSOLID
  6
HIDDEN
100
AcDbCircle
 10
0.0
 20
0.0
 30
0.0
 40
0.3279999999999999
  0
CIRCLE
  5
123
330
120
100
AcDbEntity
  8
CSOLID
100
AcDbCircle
 10
0.0
 20
0.0
 30
0.0
 40
0.3325
  0
CIRCLE
  5
124
330
120
100
AcDbEntity
  8
CSOLID
100
AcDbCircle
 10
0.0
 20
0.0
 30
0.0
 40
0.3035
  0
CIRCLE
  5
125
330
120
100
AcDbEntity
  8
CSOLID
100
AcDbCircle
 10
0.0
 20
0.0
 30
0.0
 40
0.51
  0
INSERT
  5
126
330
120
100
AcDbEntity
  8
DAMAN
100
AcDbBlockReference
  2
100CROSS
 10
0.0
 20
0.0
 30
0.0
 41
0.88
 42
0.88
  0
ENDBLK
  5
127
330
120
100
AcDbEntity
  8
0
100
AcDbBlockEnd
  0
BLOCK
  5
129
330
128
100
AcDbEntity
  8
0
100
AcDbBlockBegin
  2
D05W
 70
     0
 10
0.0
 20
0.0
 30
0.0
  3
D05W
  1

  0
INSERT
  5
12A
330
128
100
AcDbEntity
  8
DAMAN
100
AcDbBlockReference
  2
100CROSS
 10
0.5310000000000001
 20
-2.0
 30
0.0
 41
0.4379999999999999
 42
0.4379999999999999
  0
CIRCLE
  5
12B
330
128
100
AcDbEntity
  8
DAMAN
100
AcDbCircle
 10
0.0
 20
-2.125
 30
0.0
 40
0.1405
  0
CIRCLE
  5
12C
330
128
100
AcDbEntity
  8
DAMAN
100
AcDbCircle
 10
1.8125
 20
-2.125
 30
0.0
 40
0.1405
  0
CIRCLE
  5
12D
330
128
100
AcDbEntity
  8
DAMAN
100
AcDbCircle
 10
0.5310000000000001
 20
-2.0
 30
0.0
 40
0.21875
  0
INSERT
  5
12E
330
128
100
AcDbEntity
  8
DAMAN
100
AcDbBlockReference
  2
050CROSS
 10
0.0
 20
-2.125
 30
0.0
 41
0.4060000000000001
 42
0.4060000000000001
  0
INSERT
  5
12F
330
128
100
AcDbEntity
  8
DAMAN
100
AcDbBlockReference
  2
050CROSS
 10
1.8125
 20
-2.125
 30
0.0
 41
0.4060000000000001
 42
0.4060000000000001
  0
INSERT
  5
130
330
128
100
AcDbEntity
  8
DAMAN
100
AcDbBlockReference
  2
100CROSS
 10
0.9685
 20
-1.468499999999999
 30
0.0
 41
0.4379999999999999
 42
0.4379999999999999
  0
INSERT
  5
131
330
128
100
AcDbEntity
  8
DAMAN
100
AcDbBlockReference
  2
100CROSS
 10
0.9685
 20
-0.6559999999999999
 30
0.0
 41
0.4379999999999999
 42
0.4379999999999999
  0
CIRCLE
  5
132
330
128
100
AcDbEntity
  8
DAMAN
100
AcDbCircle
 10
0.9685
 20
-1.468499999999999
 30
0.0
 40
0.21875
  0
CIRCLE
  5
133
330
128
100
AcDbEntity
  8
DAMAN
100
AcDbCircle
 10
0.9685
 20
-0.6559999999999999
 30
0.0
 40
0.21875
  0
CIRCLE
  5
134
330
128
100
AcDbEntity
  8
DAMAN
100
AcDbCircle
 10
0.0
 20
0.0
 30
0.0
 40
0.1405
  0
INSERT
  5
135
330
128
100
AcDbEntity
  8
DAMAN
100
AcDbBlockReference
  2
050CROSS
 10
0.0
 20
0.0
 30
0.0
 41
0.4060000000000001
 42
0.4060000000000001
  0
INSERT
  5
136
330
128
100
AcDbEntity
  8
DAMAN
100
AcDbBlockReference
  2
100CROSS
 10
0.5310000000000001
 20
-0.125
 30
0.0
 41
0.4379999999999999
 42
0.4379999999999999
  0
CIRCLE
  5
137
330
128
100
AcDbEntity
  8
DAMAN
100
AcDbCircle
 10
0.5310000000000001
 20
-0.125
 30
0.0
 40
0.21875
  0
INSERT
  5
138
330
128
100
AcDbEntity
  8
DAMAN
100
AcDbBlockReference
  2
100CROSS
 10
1.5625
 20
-1.062249999999999
 30
0.0
 41
0.4379999999999999
 42
0.4379999999999999
  0
CIRCLE
  5
139
330
128
100
AcDbEntity
  8
DAMAN
100
AcDbCircle
 10
1.5625
 20
-1.062249999999999
 30
0.0
 40
0.21875
  0
INSERT
  5
13A
330
128
100
AcDbEntity
  8
DAMAN
100
AcDbBlockReference
  2
050CROSS
 10
1.8125
 20
0.0
 30
0.0
 41
0.4060000000000001
 42
0.4060000000000001
  0
CIRCLE
  5
13B
330
128
100
AcDbEntity
  8
DAMAN
100
AcDbCircle
 10
1.8125
 20
0.0
 30
0.0
 40
0.1405
  0
ENDBLK
  5
13C
330
128
100
AcDbEntity
  8
0
100
AcDbBlockEnd
  0
BLOCK
  5
13E
330
13D
100
AcDbEntity
  8
0
100
AcDbBlockBegin
  2
D05HE
 70
     0
 10
0.0
 20
0.0
 30
0.0
  3
D05HE
  1

  0
INSERT
  5
13F
330
13D
100
AcDbEntity
  8
DAMAN
100
AcDbBlockReference
  2
100CROSS
 10
6.40625
 20
3.28175
 30
0.0
 41
0.25
 42
0.25
  0
CIRCLE
  5
140
330
13D
100
AcDbEntity
  8
DAMAN
  6
HIDDEN
100
AcDbCircle
 10
6.84375
 20
5.71875
 30
0.0
 40
0.125
  0
CIRCLE
  5
141
330
13D
100
AcDbEntity
  8
DAMAN
  6
HIDDEN
100
AcDbCircle
 10
6.84375
 20
3.59375
 30
0.0
 40
0.125
  0
CIRCLE
  5
142
330
13D
100
AcDbEntity
  8
DAMAN
  6
HIDDEN
100
AcDbCircle
 10
5.03125
 20
5.71875
 30
0.0
 40
0.125
  0
CIRCLE
  5
143
330
13D
100
AcDbEntity
  8
DAMAN
  6
HIDDEN
100
AcDbCircle
 10
5.03125
 20
3.59375
 30
0.0
 40
0.125
  0
INSERT
  5
144
330
13D
100
AcDbEntity
  8
DAMAN
100
AcDbBlockReference
  2
100CROSS
 10
5.03125
 20
5.71875
 30
0.0
 41
0.25
 42
0.25
  0
CIRCLE
  5
145
330
13D
100
AcDbEntity
  8
DAMAN
100
AcDbCircle
 10
5.03125
 20
5.71875
 30
0.0
 40
0.1055
  0
CIRCLE
  5
146
330
13D
100
AcDbEntity
  8
DAMAN
100
AcDbCircle
 10
5.03125
 20
3.59375
 30
0.0
 40
0.1055
  0
INSERT
  5
147
330
13D
100
AcDbEntity
  8
DAMAN
100
AcDbBlockReference
  2
100CROSS
 10
5.03125
 20
3.59375
 30
0.0
 41
0.25
 42
0.25
  0
CIRCLE
  5
148
330
13D
100
AcDbEntity
  8
DAMAN
100
AcDbCircle
 10
6.84375
 20
5.71875
 30
0.0
 40
0.1055
  0
INSERT
  5
149
330
13D
100
AcDbEntity
  8
DAMAN
100
AcDbBlockReference
  2
100CROSS
 10
6.84375
 20
5.71875
 30
0.0
 41
0.25
 42
0.25
  0
CIRCLE
  5
14A
330
13D
100
AcDbEntity
  8
DAMAN
100
AcDbCircle
 10
6.84375
 20
3.59375
 30
0.0
 40
0.1055
  0
INSERT
  5
14B
330
13D
100
AcDbEntity
  8
DAMAN
100
AcDbBlockReference
  2
100CROSS
 10
6.84375
 20
3.59375
 30
0.0
 41
0.25
 42
0.25
  0
INSERT
  5
14C
330
13D
100
AcDbEntity
  8
DAMAN
100
AcDbBlockReference
  2
100CROSS
 10
5.562249999999999
 20
5.59375
 30
0.0
 41
0.4379999999999999
 42
0.4379999999999999
  0
CIRCLE
  5
14D
330
13D
100
AcDbEntity
  8
DAMAN
100
AcDbCircle
 10
5.562249999999999
 20
5.59375
 30
0.0
 40
0.21875
  0
CIRCLE
  5
14E
330
13D
100
AcDbEntity
  8
DAMAN
100
AcDbCircle
 10
5.999749999999999
 20
5.06275
 30
0.0
 40
0.21875
  0
INSERT
  5
14F
330
13D
100
AcDbEntity
  8
DAMAN
100
AcDbBlockReference
  2
100CROSS
 10
5.999749999999999
 20
5.06275
 30
0.0
 41
0.4379999999999999
 42
0.4379999999999999
  0
INSERT
  5
150
330
13D
100
AcDbEntity
  8
DAMAN
100
AcDbBlockReference
  2
100CROSS
 10
5.999749999999999
 20
4.25025
 30
0.0
 41
0.4379999999999999
 42
0.4379999999999999
  0
CIRCLE
  5
151
330
13D
100
AcDbEntity
  8
DAMAN
100
AcDbCircle
 10
5.999749999999999
 20
4.25025
 30
0.0
 40
0.21875
  0
CIRCLE
  5
152
330
13D
100
AcDbEntity
  8
DAMAN
100
AcDbCircle
 10
6.59375
 20
4.6565
 30
0.0
 40
0.21875
  0
INSERT
  5
153
330
13D
100
AcDbEntity
  8
DAMAN
100
AcDbBlockReference
  2
100CROSS
 10
6.59375
 20
4.6565
 30
0.0
 41
0.4379999999999999
 42
0.4379999999999999
  0
CIRCLE
  5
154
330
13D
100
AcDbEntity
  8
DAMAN
100
AcDbCircle
 10
5.562249999999999
 20
3.71925
 30
0.0
 40
0.21875
  0
INSERT
  5
155
330
13D
100
AcDbEntity
  8
DAMAN
100
AcDbBlockReference
  2
100CROSS
 10
5.562249999999999
 20
3.71925
 30
0.0
 41
-0.4379999999999999
 42
0.4379999999999999
 50
180.0
  0
CIRCLE
  5
156
330
13D
100
AcDbEntity
  8
DAMAN
100
AcDbCircle
 10
6.40625
 20
3.28175
 30
0.0
 40
0.136
  0
CIRCLE
  5
157
330
13D
100
AcDbEntity
  8
DAMAN
100
AcDbCircle
 10
6.40625
 20
6.03125
 30
0.0
 40
0.136
  0
INSERT
  5
158
330
13D
100
AcDbEntity
  8
DAMAN
100
AcDbBlockReference
  2
100CROSS
 10
6.40625
 20
6.03125
 30
0.0
 41
-0.25
 42
0.25
 50
180.0
  0
ENDBLK
  5
159
330
13D
100
AcDbEntity
  8
0
100
AcDbBlockEnd
  0
BLOCK
  5
15B
330
15A
100
AcDbEntity
  8
0
100
AcDbBlockBegin
  2
D05HH
 70
     0
 10
0.0
 20
0.0
 30
0.0
  3
D05HH
  1

  0
CIRCLE
  5
15C
330
15A
100
AcDbEntity
  8
DAMAN
  6
HIDDEN
100
AcDbCircle
 10
1.8125
 20
0.0
 30
0.0
 40
0.125
  0
CIRCLE
  5
15D
330
15A
100
AcDbEntity
  8
DAMAN
  6
HIDDEN
100
AcDbCircle
 10
1.8125
 20
-2.125
 30
0.0
 40
0.125
  0
CIRCLE
  5
15E
330
15A
100
AcDbEntity
  8
DAMAN
  6
HIDDEN
100
AcDbCircle
 10
0.0
 20
0.0
 30
0.0
 40
0.125
  0
CIRCLE
  5
15F
330
15A
100
AcDbEntity
  8
DAMAN
  6
HIDDEN
100
AcDbCircle
 10
0.0
 20
-2.125
 30
0.0
 40
0.125
  0
INSERT
  5
160
330
15A
100
AcDbEntity
  8
DAMAN
100
AcDbBlockReference
  2
100CROSS
 10
0.0
 20
0.0
 30
0.0
 41
0.25
 42
0.25
  0
CIRCLE
  5
161
330
15A
100
AcDbEntity
  8
DAMAN
100
AcDbCircle
 10
0.0
 20
0.0
 30
0.0
 40
0.1055
  0
CIRCLE
  5
162
330
15A
100
AcDbEntity
  8
DAMAN
100
AcDbCircle
 10
0.0
 20
-2.125
 30
0.0
 40
0.1055
  0
INSERT
  5
163
330
15A
100
AcDbEntity
  8
DAMAN
100
AcDbBlockReference
  2
100CROSS
 10
0.0
 20
-2.125
 30
0.0
 41
0.25
 42
0.25
  0
CIRCLE
  5
164
330
15A
100
AcDbEntity
  8
DAMAN
100
AcDbCircle
 10
1.8125
 20
0.0
 30
0.0
 40
0.1055
  0
INSERT
  5
165
330
15A
100
AcDbEntity
  8
DAMAN
100
AcDbBlockReference
  2
100CROSS
 10
1.8125
 20
0.0
 30
0.0
 41
0.25
 42
0.25
  0
CIRCLE
  5
166
330
15A
100
AcDbEntity
  8
DAMAN
100
AcDbCircle
 10
1.8125
 20
-2.125
 30
0.0
 40
0.1055
  0
INSERT
  5
167
330
15A
100
AcDbEntity
  8
DAMAN
100
AcDbBlockReference
  2
100CROSS
 10
1.8125
 20
-2.125
 30
0.0
 41
0.25
 42
0.25
  0
INSERT
  5
168
330
15A
100
AcDbEntity
  8
DAMAN
100
AcDbBlockReference
  2
100CROSS
 10
0.5310000000000001
 20
-0.125
 30
0.0
 41
0.4379999999999999
 42
0.4379999999999999
  0
CIRCLE
  5
169
330
15A
100
AcDbEntity
  8
DAMAN
100
AcDbCircle
 10
0.5310000000000001
 20
-0.125
 30
0.0
 40
0.21875
  0
CIRCLE
  5
16A
330
15A
100
AcDbEntity
  8
DAMAN
100
AcDbCircle
 10
0.9685
 20
-0.6559999999999999
 30
0.0
 40
0.21875
  0
INSERT
  5
16B
330
15A
100
AcDbEntity
  8
DAMAN
100
AcDbBlockReference
  2
100CROSS
 10
0.9685
 20
-0.6559999999999999
 30
0.0
 41
0.4379999999999999
 42
0.4379999999999999
  0
INSERT
  5
16C
330
15A
100
AcDbEntity
  8
DAMAN
100
AcDbBlockReference
  2
100CROSS
 10
0.9685
 20
-1.468499999999999
 30
0.0
 41
0.4379999999999999
 42
0.4379999999999999
  0
CIRCLE
  5
16D
330
15A
100
AcDbEntity
  8
DAMAN
100
AcDbCircle
 10
0.9685
 20
-1.468499999999999
 30
0.0
 40
0.21875
  0
CIRCLE
  5
16E
330
15A
100
AcDbEntity
  8
DAMAN
100
AcDbCircle
 10
1.5625
 20
-1.062249999999999
 30
0.0
 40
0.21875
  0
INSERT
  5
16F
330
15A
100
AcDbEntity
  8
DAMAN
100
AcDbBlockReference
  2
100CROSS
 10
1.5625
 20
-1.062249999999999
 30
0.0
 41
0.4379999999999999
 42
0.4379999999999999
  0
CIRCLE
  5
170
330
15A
100
AcDbEntity
  8
DAMAN
100
AcDbCircle
 10
0.5310000000000001
 20
-1.9995
 30
0.0
 40
0.21875
  0
INSERT
  5
171
330
15A
100
AcDbEntity
  8
DAMAN
100
AcDbBlockReference
  2
100CROSS
 10
0.5310000000000001
 20
-1.9995
 30
0.0
 41
-0.4379999999999999
 42
0.4379999999999999
 50
180.0
  0
ENDBLK
  5
172
330
15A
100
AcDbEntity
  8
0
100
AcDbBlockEnd
  0
BLOCK
  5
174
330
173
100
AcDbEntity
  8
0
100
AcDbBlockBegin
  2
D05SF
 70
     0
 10
0.0
 20
0.0
 30
0.0
  3
D05SF
  1

  0
INSERT
  5
176
330
173
100
AcDbEntity
  8
DAMAN
100
AcDbBlockReference
  2
D02I
 10
1.8125
 20
0.0
 30
0.0
 41
-1.0
  0
SOLID
  5
177
330
173
100
AcDbEntity
  8
DAMAN
100
AcDbTrace
 10
-0.8764879999999999
 20
-0.883675
 30
0.0
 11
-0.9360129999999998
 21
-0.883675
 31
0.0
 12
-0.90625
 22
-1.062249999999999
 32
0.0
 13
-0.90625
 23
-1.062249999999999
 33
0.0
  0
ENDBLK
  5
178
330
173
100
AcDbEntity
  8
0
100
AcDbBlockEnd
  0
BLOCK
  5
179
330
175
100
AcDbEntity
  8
0
100
AcDbBlockBegin
  2
D02I
 70
     0
 10
10.03125
 20
6.625
 30
0.0
  3
D02I
  1

  0
CIRCLE
  5
17A
330
175
100
AcDbEntity
  8
CSOLID
100
AcDbCircle
 10
10.56225
 20
4.625
 30
0.0
 40
0.21875
  0
CIRCLE
  5
17B
330
175
100
AcDbEntity
  8
CSOLID
100
AcDbCircle
 10
10.5625
 20
4.625
 30
0.0
 40
0.3125
  0
CIRCLE
  5
17C
330
175
100
AcDbEntity
  8
CSOLID
100
AcDbCircle
 10
11.0
 20
5.15625
 30
0.0
 40
0.3125
  0
CIRCLE
  5
17D
330
175
100
AcDbEntity
  8
CSOLID
100
AcDbCircle
 10
11.59375
 20
5.5625
 30
0.0
 40
0.3125
  0
CIRCLE
  5
17E
330
175
100
AcDbEntity
  8
CSOLID
100
AcDbCircle
 10
11.0
 20
5.96875
 30
0.0
 40
0.3125
  0
CIRCLE
  5
17F
330
175
100
AcDbEntity
  8
CSOLID
100
AcDbCircle
 10
10.5625
 20
6.5
 30
0.0
 40
0.3125
  0
CIRCLE
  5
180
330
175
100
AcDbEntity
  8
CSOLID
100
AcDbCircle
 10
11.84374999999999
 20
4.5
 30
0.0
 40
0.1405
  0
CIRCLE
  5
181
330
175
100
AcDbEntity
  8
CSOLID
100
AcDbCircle
 10
11.84374999999999
 20
6.625
 30
0.0
 40
0.1405
  0
CIRCLE
  5
182
330
175
100
AcDbEntity
  8
CSOLID
100
AcDbCircle
 10
10.03125
 20
4.5
 30
0.0
 40
0.1405
  0
CIRCLE
  5
183
330
175
100
AcDbEntity
  8
CSOLID
100
AcDbCircle
 10
10.03125
 20
6.625
 30
0.0
 40
0.1405
  0
CIRCLE
  5
184
330
175
100
AcDbEntity
  8
CSOLID
100
AcDbCircle
 10
10.56225
 20
6.5
 30
0.0
 40
0.21875
  0
CIRCLE
  5
185
330
175
100
AcDbEntity
  8
CSOLID
100
AcDbCircle
 10
10.99975
 20
5.968999999999999
 30
0.0
 40
0.21875
  0
CIRCLE
  5
186
330
175
100
AcDbEntity
  8
CSOLID
100
AcDbCircle
 10
10.99975
 20
5.1565
 30
0.0
 40
0.21875
  0
CIRCLE
  5
187
330
175
100
AcDbEntity
  8
CSOLID
100
AcDbCircle
 10
11.59375
 20
5.56275
 30
0.0
 40
0.21875
  0
INSERT
  5
188
330
175
100
AcDbEntity
  8
CCENTER
100
AcDbBlockReference
  2
100CROSS
 10
10.56225
 20
6.5
 30
0.0
 41
0.4379999999999999
 42
0.4379999999999999
  0
INSERT
  5
189
330
175
100
AcDbEntity
  8
CCENTER
100
AcDbBlockReference
  2
100CROSS
 10
10.99975
 20
5.968999999999999
 30
0.0
 41
0.4379999999999999
 42
0.4379999999999999
  0
INSERT
  5
18A
330
175
100
AcDbEntity
  8
CCENTER
100
AcDbBlockReference
  2
100CROSS
 10
11.59375
 20
5.56275
 30
0.0
 41
0.4379999999999999
 42
0.4379999999999999
  0
INSERT
  5
18B
330
175
100
AcDbEntity
  8
CCENTER
100
AcDbBlockReference
  2
100CROSS
 10
10.99975
 20
5.1565
 30
0.0
 41
0.4379999999999999
 42
0.4379999999999999
  0
INSERT
  5
18C
330
175
100
AcDbEntity
  8
CCENTER
100
AcDbBlockReference
  2
100CROSS
 10
10.56225
 20
4.625
 30
0.0
 41
0.4379999999999999
 42
0.4379999999999999
  0
INSERT
  5
18D
330
175
100
AcDbEntity
  8
CCENTER
100
AcDbBlockReference
  2
100CROSS
 10
10.03125
 20
4.5
 30
0.0
 41
0.4060000000000001
 42
0.4060000000000001
 43
0.4060000000000001
  0
INSERT
  5
18E
330
175
100
AcDbEntity
  8
CCENTER
100
AcDbBlockReference
  2
100CROSS
 10
10.03125
 20
6.625
 30
0.0
 41
0.4060000000000001
 42
0.4060000000000001
 43
0.4060000000000001
  0
INSERT
  5
18F
330
175
100
AcDbEntity
  8
CCENTER
100
AcDbBlockReference
  2
100CROSS
 10
11.84374999999999
 20
4.5
 30
0.0
 41
0.4060000000000001
 42
0.4060000000000001
 43
0.4060000000000001
  0
INSERT
  5
190
330
175
100
AcDbEntity
  8
CCENTER
100
AcDbBlockReference
  2
100CROSS
 10
11.84374999999999
 20
6.625
 30
0.0
 41
0.4060000000000001
 42
0.4060000000000001
 43
0.4060000000000001
  0
ENDBLK
  5
191
330
175
100
AcDbEntity
  8
0
100
AcDbBlockEnd
  0
BLOCK
  5
193
330
192
100
AcDbEntity
  8
0
100
AcDbBlockBegin
  2
375SHCS
 70
     0
 10
0.0
 20
0.0
 30
0.0
  3
375SHCS
  1

  0
LINE
  5
194
330
192
100
AcDbEntity
  8
DAMAN
100
AcDbLine
 10
-0.28125
 20
0.0
 30
0.0
 11
-0.28125
 21
0.328125
 31
0.0
  0
LINE
  5
195
330
192
100
AcDbEntity
  8
DAMAN
100
AcDbLine
 10
-0.234375
 20
0.375
 30
0.0
 11
0.234375
 21
0.375
 31
0.0
  0
LINE
  5
196
330
192
100
AcDbEntity
  8
DAMAN
100
AcDbLine
 10
0.28125
 20
0.328125
 30
0.0
 11
0.28125
 21
0.0
 31
0.0
  0
LINE
  5
197
330
192
100
AcDbEntity
  8
DAMAN
100
AcDbLine
 10
-0.28125
 20
0.328125
 30
0.0
 11
0.28125
 21
0.328125
 31
0.0
  0
LINE
  5
198
330
192
100
AcDbEntity
  8
DAMAN
100
AcDbLine
 10
0.28125
 20
0.0
 30
0.0
 11
-0.28125
 21
0.0
 31
0.0
  0
LINE
  5
199
330
192
100
AcDbEntity
  8
DAMAN
100
AcDbLine
 10
0.234375
 20
0.375
 30
0.0
 11
0.28125
 21
0.328125
 31
0.0
  0
LINE
  5
19A
330
192
100
AcDbEntity
  8
DAMAN
100
AcDbLine
 10
-0.234375
 20
0.375
 30
0.0
 11
-0.28125
 21
0.328125
 31
0.0
  0
ENDBLK
  5
19B
330
192
100
AcDbEntity
  8
0
100
AcDbBlockEnd
  0
BLOCK
  5
19D
330
19C
100
AcDbEntity
  8
0
100
AcDbBlockBegin
  2
038THDT
 70
     0
 10
0.0
 20
0.0
 30
0.0
  3
038THDT
  1

  0
CIRCLE
  5
19E
330
19C
100
AcDbEntity
  8
DAMAN
100
AcDbCircle
 10
3.0
 20
6.375
 30
0.0
 40
0.1875
  0
CIRCLE
  5
19F
330
19C
100
AcDbEntity
  8
DAMAN
100
AcDbCircle
 10
3.0
 20
6.375
 30
0.0
 40
0.15625
  0
INSERT
  5
1A0
330
19C
100
AcDbEntity
  8
DAMAN
100
AcDbBlockReference
  2
100CROSS
 10
3.0
 20
6.375
 30
0.0
 41
0.375
 42
0.375
  0
INSERT
  5
1A1
330
19C
100
AcDbEntity
  8
DAMAN
100
AcDbBlockReference
  2
100CROSS
 10
5.75
 20
6.375
 30
0.0
 41
0.375
 42
0.375
  0
CIRCLE
  5
1A2
330
19C
100
AcDbEntity
  8
DAMAN
100
AcDbCircle
 10
5.75
 20
6.375
 30
0.0
 40
0.1875
  0
CIRCLE
  5
1A3
330
19C
100
AcDbEntity
  8
DAMAN
100
AcDbCircle
 10
5.75
 20
6.375
 30
0.0
 40
0.15625
  0
ENDBLK
  5
1A4
330
19C
100
AcDbEntity
  8
0
100
AcDbBlockEnd
  0
BLOCK
  5
1A6
330
1A5
100
AcDbEntity
  8
0
100
AcDbBlockBegin
  2
038TOP
 70
     0
 10
0.0
 20
0.0
 30
0.0
  3
038TOP
  1

  0
CIRCLE
  5
1A7
330
1A5
100
AcDbEntity
  8
CHIDDEN
100
AcDbCircle
 10
0.0
 20
0.0
 30
0.0
 40
0.1875
  0
CIRCLE
  5
1A8
330
1A5
100
AcDbEntity
  8
CSOLID
100
AcDbCircle
 10
0.0
 20
0.0
 30
0.0
 40
0.15625
  0
INSERT
  5
1A9
330
1A5
100
AcDbEntity
  8
CCENTER
100
AcDbBlockReference
  2
100CROSS
 10
0.0
 20
0.0
 30
0.0
 41
0.375
 42
0.375
  0
ENDBLK
  5
1AA
330
1A5
100
AcDbEntity
  8
0
100
AcDbBlockEnd
  0
BLOCK
  5
1AC
330
1AB
100
AcDbEntity
  8
0
100
AcDbBlockBegin
  2
06SAET
 70
     0
 10
0.0
 20
0.0
 30
0.0
  3
06SAET
  1

  0
INSERT
  5
1AD
330
1AB
100
AcDbEntity
  8
DAMAN
100
AcDbBlockReference
  2
100CROSS
 10
0.0
 20
0.0
 30
0.0
  0
CIRCLE
  5
1AE
330
1AB
100
AcDbEntity
  8
DAMAN
100
AcDbCircle
 10
0.0
 20
0.0
 30
0.0
 40
0.28125
  0
CIRCLE
  5
1AF
330
1AB
100
AcDbEntity
  8
DAMAN
100
AcDbCircle
 10
0.0
 20
0.0
 30
0.0
 40
0.5
  0
CIRCLE
  5
1B0
330
1AB
100
AcDbEntity
  8
DAMAN
100
AcDbCircle
 10
0.0
 20
0.0
 30
0.0
 40
0.25
  0
ENDBLK
  5
1B1
330
1AB
100
AcDbEntity
  8
0
100
AcDbBlockEnd
  0
BLOCK
  5
1B3
330
1B2
100
AcDbEntity
  8
0
100
AcDbBlockBegin
  2
025NPTFT
 70
     0
 10
0.0
 20
0.0
 30
0.0
  3
025NPTFT
  1

  0
INSERT
  5
1B5
330
1B2
100
AcDbEntity
  8
DAMAN
100
AcDbBlockReference
  2
250NPTFT
 10
0.0
 20
0.0
 30
0.0
  0
ENDBLK
  5
1B6
330
1B2
100
AcDbEntity
  8
0
100
AcDbBlockEnd
  0
BLOCK
  5
2B4
330
1B4
100
AcDbEntity
  8
0
100
AcDbBlockBegin
  2
250NPTFT
 70
     0
 10
0.0
 20
0.0
 30
0.0
  3
250NPTFT
  1

  0
CIRCLE
  5
2B5
330
1B4
100
AcDbEntity
  8
DAMAN
100
AcDbCircle
 10
0.0
 20
0.0
 30
0.0
 40
0.273
  0
CIRCLE
  5
2B6
330
1B4
100
AcDbEntity
  8
DAMAN
100
AcDbCircle
 10
0.0
 20
0.0
 30
0.0
 40
0.211
  0
INSERT
  5
2B7
330
1B4
100
AcDbEntity
  8
DAMAN
100
AcDbBlockReference
  2
100CROSS
 10
0.0
 20
0.0
 30
0.0
 41
0.4220000000000001
 42
0.4220000000000001
  0
CIRCLE
  5
2B8
330
1B4
100
AcDbEntity
  8
DAMAN
100
AcDbCircle
 10
0.0
 20
0.0
 30
0.0
 40
0.242251
  0
POINT
  5
2B9
330
1B4
100
AcDbEntity
  8
CHIDDEN
100
AcDbPoint
 10
-0.087928
 20
0.191806
 30
0.0
  0
POINT
  5
2BA
330
1B4
100
AcDbEntity
  8
CHIDDEN
100
AcDbPoint
 10
-0.137717
 20
-0.15986
 30
0.0
  0
POINT
  5
2BB
330
1B4
100
AcDbEntity
  8
CHIDDEN
100
AcDbPoint
 10
0.202707
 20
-0.058572
 30
0.0
  0
ENDBLK
  5
2BC
330
1B4
100
AcDbEntity
  8
0
100
AcDbBlockEnd
  0
BLOCK
  5
1B8
330
1B7
100
AcDbEntity
  8
0
100
AcDbBlockBegin
  2
24CD61
 70
     0
 10
0.0
 20
0.0
 30
0.0
  3
24CD61
  1

  0
CIRCLE
  5
1B9
330
1B7
100
AcDbEntity
  8
DAMAN
100
AcDbCircle
 10
1.908694999999999
 20
2.748498
 30
0.0
 40
0.75
  0
INSERT
  5
1BA
330
1B7
100
AcDbEntity
  8
DAMAN
100
AcDbBlockReference
  2
100CROSS
 10
1.205695
 20
4.123498
 30
0.0
 41
0.49957
 42
0.49957
  0
CIRCLE
  5
1BB
330
1B7
100
AcDbEntity
  8
DAMAN
100
AcDbCircle
 10
1.205695
 20
4.123498
 30
0.0
 40
0.249785
  0
CIRCLE
  5
1BC
330
1B7
100
AcDbEntity
  8
DAMAN
100
AcDbCircle
 10
1.205695
 20
4.123498
 30
0.0
 40
0.208154
  0
CIRCLE
  5
1BD
330
1B7
100
AcDbEntity
  8
DAMAN
100
AcDbCircle
 10
2.611695
 20
4.123498
 30
0.0
 40
0.249785
  0
CIRCLE
  5
1BE
330
1B7
100
AcDbEntity
  8
DAMAN
100
AcDbCircle
 10
2.611695
 20
4.123498
 30
0.0
 40
0.208154
  0
INSERT
  5
1BF
330
1B7
100
AcDbEntity
  8
DAMAN
100
AcDbBlockReference
  2
100CROSS
 10
2.611695
 20
4.123498
 30
0.0
 41
0.49957
 42
0.49957
  0
CIRCLE
  5
1C0
330
1B7
100
AcDbEntity
  8
DAMAN
100
AcDbCircle
 10
2.611695
 20
1.373497999999999
 30
0.0
 40
0.249785
  0
CIRCLE
  5
1C1
330
1B7
100
AcDbEntity
  8
DAMAN
100
AcDbCircle
 10
2.611695
 20
1.373497999999999
 30
0.0
 40
0.208154
  0
INSERT
  5
1C2
330
1B7
100
AcDbEntity
  8
DAMAN
100
AcDbBlockReference
  2
100CROSS
 10
2.611695
 20
1.373497999999999
 30
0.0
 41
0.49957
 42
0.49957
  0
CIRCLE
  5
1C3
330
1B7
100
AcDbEntity
  8
DAMAN
100
AcDbCircle
 10
1.205695
 20
1.373497999999999
 30
0.0
 40
0.249785
  0
CIRCLE
  5
1C4
330
1B7
100
AcDbEntity
  8
DAMAN
100
AcDbCircle
 10
1.205695
 20
1.373497999999999
 30
0.0
 40
0.208154
  0
INSERT
  5
1C5
330
1B7
100
AcDbEntity
  8
DAMAN
100
AcDbBlockReference
  2
100CROSS
 10
1.205695
 20
1.373497999999999
 30
0.0
 41
0.49957
 42
0.49957
  0
INSERT
  5
1C6
330
1B7
100
AcDbEntity
  8
DAMAN
100
AcDbBlockReference
  2
100CROSS
 10
1.908694999999999
 20
2.748498
 30
0.0
 41
1.40625
 42
1.40625
  0
ENDBLK
  5
1C7
330
1B7
100
AcDbEntity
  8
0
100
AcDbBlockEnd
  0
BLOCK
  5
1C9
330
1C8
100
AcDbEntity
  8
0
100
AcDbBlockBegin
  2
24CD62
 70
     0
 10
0.0
 20
0.0
 30
0.0
  3
24CD62
  1

  0
CIRCLE
  5
1CA
330
1C8
100
AcDbEntity
  8
DAMAN
100
AcDbCircle
 10
1.908694999999999
 20
2.748498
 30
0.0
 40
0.75
  0
CIRCLE
  5
1CB
330
1C8
100
AcDbEntity
  8
DAMAN
100
AcDbCircle
 10
2.627194999999999
 20
1.185997999999999
 30
0.0
 40
0.312231
  0
CIRCLE
  5
1CC
330
1C8
100
AcDbEntity
  8
DAMAN
100
AcDbCircle
 10
2.627194999999999
 20
1.185997999999999
 30
0.0
 40
0.260193
  0
INSERT
  5
1CD
330
1C8
100
AcDbEntity
  8
DAMAN
100
AcDbBlockReference
  2
100CROSS
 10
2.627194999999999
 20
1.185997999999999
 30
0.0
 41
0.624462
 42
0.624462
  0
INSERT
  5
1CE
330
1C8
100
AcDbEntity
  8
DAMAN
100
AcDbBlockReference
  2
100CROSS
 10
1.908694999999999
 20
2.748498
 30
0.0
 41
1.40625
 42
1.40625
  0
CIRCLE
  5
1CF
330
1C8
100
AcDbEntity
  8
DAMAN
100
AcDbCircle
 10
1.190195
 20
1.185997999999999
 30
0.0
 40
0.312231
  0
INSERT
  5
1D0
330
1C8
100
AcDbEntity
  8
DAMAN
100
AcDbBlockReference
  2
100CROSS
 10
1.190195
 20
1.185997999999999
 30
0.0
 41
0.624462
 42
0.624462
  0
CIRCLE
  5
1D1
330
1C8
100
AcDbEntity
  8
DAMAN
100
AcDbCircle
 10
1.190195
 20
1.185997999999999
 30
0.0
 40
0.260193
  0
CIRCLE
  5
1D2
330
1C8
100
AcDbEntity
  8
DAMAN
100
AcDbCircle
 10
1.190195
 20
4.310998
 30
0.0
 40
0.312231
  0
INSERT
  5
1D3
330
1C8
100
AcDbEntity
  8
DAMAN
100
AcDbBlockReference
  2
100CROSS
 10
1.190195
 20
4.310998
 30
0.0
 41
0.624462
 42
0.624462
  0
CIRCLE
  5
1D4
330
1C8
100
AcDbEntity
  8
DAMAN
100
AcDbCircle
 10
1.190195
 20
4.310998
 30
0.0
 40
0.260193
  0
CIRCLE
  5
1D5
330
1C8
100
AcDbEntity
  8
DAMAN
100
AcDbCircle
 10
2.627194999999999
 20
4.310998
 30
0.0
 40
0.312231
  0
INSERT
  5
1D6
330
1C8
100
AcDbEntity
  8
DAMAN
100
AcDbBlockReference
  2
100CROSS
 10
2.627194999999999
 20
4.310998
 30
0.0
 41
0.624462
 42
0.624462
  0
CIRCLE
  5
1D7
330
1C8
100
AcDbEntity
  8
DAMAN
100
AcDbCircle
 10
2.627194999999999
 20
4.310998
 30
0.0
 40
0.260193
  0
ENDBLK
  5
1D8
330
1C8
100
AcDbEntity
  8
0
100
AcDbBlockEnd
  0
BLOCK
  5
1DA
330
1D9
100
AcDbEntity
  8
0
100
AcDbBlockBegin
  2
40CD61
 70
     0
 10
0.0
 20
0.0
 30
0.0
  3
40CD61
  1

  0
INSERT
  5
1DB
330
1D9
100
AcDbEntity
  8
DAMAN
100
AcDbBlockReference
  2
100CROSS
 10
2.095733
 20
2.887387
 30
0.0
 41
1.933593999999999
 42
1.933593999999999
  0
CIRCLE
  5
1DC
330
1D9
100
AcDbEntity
  8
DAMAN
100
AcDbCircle
 10
2.095733
 20
2.887387
 30
0.0
 40
1.25
  0
CIRCLE
  5
1DD
330
1D9
100
AcDbEntity
  8
DAMAN
100
AcDbCircle
 10
3.095733
 20
4.637387
 30
0.0
 40
0.208281
  0
CIRCLE
  5
1DE
330
1D9
100
AcDbEntity
  8
DAMAN
100
AcDbCircle
 10
3.095733
 20
4.637387
 30
0.0
 40
0.249938
  0
INSERT
  5
1DF
330
1D9
100
AcDbEntity
  8
DAMAN
100
AcDbBlockReference
  2
100CROSS
 10
3.095733
 20
4.637387
 30
0.0
 41
0.4998750000000001
 42
0.4998750000000001
  0
CIRCLE
  5
1E0
330
1D9
100
AcDbEntity
  8
DAMAN
100
AcDbCircle
 10
1.095733
 20
4.637387
 30
0.0
 40
0.208281
  0
CIRCLE
  5
1E1
330
1D9
100
AcDbEntity
  8
DAMAN
100
AcDbCircle
 10
1.095733
 20
4.637387
 30
0.0
 40
0.249938
  0
INSERT
  5
1E2
330
1D9
100
AcDbEntity
  8
DAMAN
100
AcDbBlockReference
  2
100CROSS
 10
1.095733
 20
4.637387
 30
0.0
 41
0.4998750000000001
 42
0.4998750000000001
  0
CIRCLE
  5
1E3
330
1D9
100
AcDbEntity
  8
DAMAN
100
AcDbCircle
 10
1.095733
 20
1.137387
 30
0.0
 40
0.208281
  0
CIRCLE
  5
1E4
330
1D9
100
AcDbEntity
  8
DAMAN
100
AcDbCircle
 10
1.095733
 20
1.137387
 30
0.0
 40
0.249938
  0
INSERT
  5
1E5
330
1D9
100
AcDbEntity
  8
DAMAN
100
AcDbBlockReference
  2
100CROSS
 10
1.095733
 20
1.137387
 30
0.0
 41
0.4998750000000001
 42
0.4998750000000001
  0
CIRCLE
  5
1E6
330
1D9
100
AcDbEntity
  8
DAMAN
100
AcDbCircle
 10
3.095733
 20
1.137387
 30
0.0
 40
0.208281
  0
CIRCLE
  5
1E7
330
1D9
100
AcDbEntity
  8
DAMAN
100
AcDbCircle
 10
3.095733
 20
1.137387
 30
0.0
 40
0.249938
  0
INSERT
  5
1E8
330
1D9
100
AcDbEntity
  8
DAMAN
100
AcDbBlockReference
  2
100CROSS
 10
3.095733
 20
1.137387
 30
0.0
 41
0.4998750000000001
 42
0.4998750000000001
  0
ENDBLK
  5
1E9
330
1D9
100
AcDbEntity
  8
0
100
AcDbBlockEnd
  0
BLOCK
  5
1EB
330
1EA
100
AcDbEntity
  8
0
100
AcDbBlockBegin
  2
40MMDIN
 70
     0
 10
0.0
 20
0.0
 30
0.0
  3
40MMDIN
  1

  0
CIRCLE
  5
1EC
330
1EA
100
AcDbEntity
  8
DAMAN
100
AcDbCircle
 10
3.733258999999999
 20
3.626126
 30
0.0
 40
1.475
  0
CIRCLE
  5
1ED
330
1EA
100
AcDbEntity
  8
DAMAN
100
AcDbCircle
 10
3.733258999999999
 20
3.626126
 30
0.0
 40
1.08
  0
CIRCLE
  5
1EE
330
1EA
100
AcDbEntity
  8
DAMAN
100
AcDbCircle
 10
3.733258999999999
 20
3.626126
 30
0.0
 40
0.7850000000000001
  0
CIRCLE
  5
1EF
330
1EA
100
AcDbEntity
  8
DAMAN
100
AcDbCircle
 10
2.063258999999999
 20
5.296126
 30
0.0
 40
0.374063
  0
CIRCLE
  5
1F0
330
1EA
100
AcDbEntity
  8
DAMAN
100
AcDbCircle
 10
2.063258999999999
 20
5.296126
 30
0.0
 40
0.311719
  0
INSERT
  5
1F1
330
1EA
100
AcDbEntity
  8
DAMAN
100
AcDbBlockReference
  2
100CROSS
 10
2.063258999999999
 20
5.296126
 30
0.0
 41
0.7481250000000001
 42
0.7481250000000001
  0
CIRCLE
  5
1F2
330
1EA
100
AcDbEntity
  8
DAMAN
100
AcDbCircle
 10
2.063258999999999
 20
1.956125999999999
 30
0.0
 40
0.374063
  0
CIRCLE
  5
1F3
330
1EA
100
AcDbEntity
  8
DAMAN
100
AcDbCircle
 10
2.063258999999999
 20
1.956125999999999
 30
0.0
 40
0.311719
  0
INSERT
  5
1F4
330
1EA
100
AcDbEntity
  8
DAMAN
100
AcDbBlockReference
  2
100CROSS
 10
2.063258999999999
 20
1.956125999999999
 30
0.0
 41
0.7481250000000001
 42
0.7481250000000001
  0
CIRCLE
  5
1F5
330
1EA
100
AcDbEntity
  8
DAMAN
100
AcDbCircle
 10
5.403258999999999
 20
1.956125999999999
 30
0.0
 40
0.374063
  0
CIRCLE
  5
1F6
330
1EA
100
AcDbEntity
  8
DAMAN
100
AcDbCircle
 10
5.403258999999999
 20
1.956125999999999
 30
0.0
 40
0.311719
  0
INSERT
  5
1F7
330
1EA
100
AcDbEntity
  8
DAMAN
100
AcDbBlockReference
  2
100CROSS
 10
5.403258999999999
 20
1.956125999999999
 30
0.0
 41
0.7481250000000001
 42
0.7481250000000001
  0
CIRCLE
  5
1F8
330
1EA
100
AcDbEntity
  8
DAMAN
100
AcDbCircle
 10
5.403258999999999
 20
5.296126
 30
0.0
 40
0.374063
  0
CIRCLE
  5
1F9
330
1EA
100
AcDbEntity
  8
DAMAN
100
AcDbCircle
 10
5.403258999999999
 20
5.296126
 30
0.0
 40
0.311719
  0
INSERT
  5
1FA
330
1EA
100
AcDbEntity
  8
DAMAN
100
AcDbBlockReference
  2
100CROSS
 10
5.403258999999999
 20
5.296126
 30
0.0
 41
0.7481250000000001
 42
0.7481250000000001
  0
CIRCLE
  5
1FB
330
1EA
100
AcDbEntity
  8
DAMAN
100
AcDbCircle
 10
2.830258999999999
 20
5.296126
 30
0.0
 40
0.12
  0
CIRCLE
  5
1FC
330
1EA
100
AcDbEntity
  8
DAMAN
100
AcDbCircle
 10
3.733258999999999
 20
5.591126
 30
0.0
 40
0.1965
  0
CIRCLE
  5
1FD
330
1EA
100
AcDbEntity
  8
DAMAN
100
AcDbCircle
 10
1.768259
 20
3.626126
 30
0.0
 40
0.1965
  0
CIRCLE
  5
1FE
330
1EA
100
AcDbEntity
  8
DAMAN
100
AcDbCircle
 10
3.733258999999999
 20
1.661125999999999
 30
0.0
 40
0.1965
  0
CIRCLE
  5
1FF
330
1EA
100
AcDbEntity
  8
DAMAN
100
AcDbCircle
 10
5.698258999999999
 20
3.626126
 30
0.0
 40
0.1965
  0
INSERT
  5
200
330
1EA
100
AcDbEntity
  8
DAMAN
100
AcDbBlockReference
  2
100CROSS
 10
1.768259
 20
3.626126
 30
0.0
 41
0.6234380000000001
 42
0.6234380000000001
  0
INSERT
  5
201
330
1EA
100
AcDbEntity
  8
DAMAN
100
AcDbBlockReference
  2
100CROSS
 10
3.733258999999999
 20
5.591126
 30
0.0
 41
0.6234380000000001
 42
0.6234380000000001
  0
INSERT
  5
202
330
1EA
100
AcDbEntity
  8
DAMAN
100
AcDbBlockReference
  2
100CROSS
 10
5.698258999999999
 20
3.626126
 30
0.0
 41
0.6234380000000001
 42
0.6234380000000001
  0
INSERT
  5
203
330
1EA
100
AcDbEntity
  8
DAMAN
100
AcDbBlockReference
  2
100CROSS
 10
3.733258999999999
 20
1.661125999999999
 30
0.0
 41
0.467578
 42
0.467578
  0
INSERT
  5
204
330
1EA
100
AcDbEntity
  8
DAMAN
100
AcDbBlockReference
  2
100CROSS
 10
3.733258999999999
 20
3.626126
 30
0.0
 41
1.954811
 42
1.954811
  0
ENDBLK
  5
205
330
1EA
100
AcDbEntity
  8
0
100
AcDbBlockEnd
  0
BLOCK
  5
207
330
206
100
AcDbEntity
  8
0
100
AcDbBlockBegin
  2
32CD61
 70
     0
 10
0.0
 20
0.0
 30
0.0
  3
32CD61
  1

  0
CIRCLE
  5
208
330
206
100
AcDbEntity
  8
DAMAN
100
AcDbCircle
 10
1.866629999999999
 20
2.599849999999999
 30
0.0
 40
1.0
  0
INSERT
  5
209
330
206
100
AcDbEntity
  8
DAMAN
100
AcDbBlockReference
  2
100CROSS
 10
1.022629999999999
 20
4.130849999999999
 30
0.0
 41
0.49932
 42
0.49932
  0
CIRCLE
  5
20A
330
206
100
AcDbEntity
  8
DAMAN
100
AcDbCircle
 10
1.022629999999999
 20
4.130849999999999
 30
0.0
 40
0.24966
  0
CIRCLE
  5
20B
330
206
100
AcDbEntity
  8
DAMAN
100
AcDbCircle
 10
1.022629999999999
 20
4.130849999999999
 30
0.0
 40
0.20805
  0
INSERT
  5
20C
330
206
100
AcDbEntity
  8
DAMAN
100
AcDbBlockReference
  2
100CROSS
 10
2.71063
 20
4.130849999999999
 30
0.0
 41
0.49932
 42
0.49932
  0
CIRCLE
  5
20D
330
206
100
AcDbEntity
  8
DAMAN
100
AcDbCircle
 10
2.71063
 20
4.130849999999999
 30
0.0
 40
0.24966
  0
CIRCLE
  5
20E
330
206
100
AcDbEntity
  8
DAMAN
100
AcDbCircle
 10
2.71063
 20
4.130849999999999
 30
0.0
 40
0.20805
  0
INSERT
  5
20F
330
206
100
AcDbEntity
  8
DAMAN
100
AcDbBlockReference
  2
100CROSS
 10
2.71063
 20
1.06885
 30
0.0
 41
0.49932
 42
0.49932
  0
CIRCLE
  5
210
330
206
100
AcDbEntity
  8
DAMAN
100
AcDbCircle
 10
2.71063
 20
1.06885
 30
0.0
 40
0.24966
  0
CIRCLE
  5
211
330
206
100
AcDbEntity
  8
DAMAN
100
AcDbCircle
 10
2.71063
 20
1.06885
 30
0.0
 40
0.20805
  0
INSERT
  5
212
330
206
100
AcDbEntity
  8
DAMAN
100
AcDbBlockReference
  2
100CROSS
 10
1.022629999999999
 20
1.06885
 30
0.0
 41
0.49932
 42
0.49932
  0
CIRCLE
  5
213
330
206
100
AcDbEntity
  8
DAMAN
100
AcDbCircle
 10
1.022629999999999
 20
1.06885
 30
0.0
 40
0.24966
  0
CIRCLE
  5
214
330
206
100
AcDbEntity
  8
DAMAN
100
AcDbCircle
 10
1.022629999999999
 20
1.06885
 30
0.0
 40
0.20805
  0
INSERT
  5
215
330
206
100
AcDbEntity
  8
DAMAN
100
AcDbBlockReference
  2
100CROSS
 10
1.866629999999999
 20
2.599849999999999
 30
0.0
 41
1.40625
 42
1.40625
  0
ENDBLK
  5
216
330
206
100
AcDbEntity
  8
0
100
AcDbBlockEnd
  0
BLOCK
  5
218
330
217
100
AcDbEntity
  8
0
100
AcDbBlockBegin
  2
50MMDIN
 70
     0
 10
0.0
 20
0.0
 30
0.0
  3
50MMDIN
  1

  0
CIRCLE
  5
219
330
217
100
AcDbEntity
  8
DAMAN
100
AcDbCircle
 10
3.598051
 20
3.911411
 30
0.0
 40
1.77
  0
CIRCLE
  5
21A
330
217
100
AcDbEntity
  8
DAMAN
100
AcDbCircle
 10
3.598051
 20
3.911411
 30
0.0
 40
1.34
  0
CIRCLE
  5
21B
330
217
100
AcDbEntity
  8
DAMAN
100
AcDbCircle
 10
3.598051
 20
3.911411
 30
0.0
 40
0.98
  0
INSERT
  5
21C
330
217
100
AcDbEntity
  8
DAMAN
100
AcDbBlockReference
  2
100CROSS
 10
1.628050999999999
 20
1.941411
 30
0.0
 41
0.7481250000000001
 42
0.7481250000000001
  0
CIRCLE
  5
21D
330
217
100
AcDbEntity
  8
DAMAN
100
AcDbCircle
 10
1.628050999999999
 20
1.941411
 30
0.0
 40
0.311719
  0
CIRCLE
  5
21E
330
217
100
AcDbEntity
  8
DAMAN
100
AcDbCircle
 10
1.628050999999999
 20
1.941411
 30
0.0
 40
0.374063
  0
INSERT
  5
21F
330
217
100
AcDbEntity
  8
DAMAN
100
AcDbBlockReference
  2
100CROSS
 10
5.568051
 20
1.941411
 30
0.0
 41
0.7481250000000001
 42
0.7481250000000001
  0
CIRCLE
  5
220
330
217
100
AcDbEntity
  8
DAMAN
100
AcDbCircle
 10
5.568051
 20
1.941411
 30
0.0
 40
0.311719
  0
CIRCLE
  5
221
330
217
100
AcDbEntity
  8
DAMAN
100
AcDbCircle
 10
5.568051
 20
1.941411
 30
0.0
 40
0.374063
  0
CIRCLE
  5
222
330
217
100
AcDbEntity
  8
DAMAN
100
AcDbCircle
 10
5.568051
 20
5.881410999999999
 30
0.0
 40
0.311719
  0
CIRCLE
  5
223
330
217
100
AcDbEntity
  8
DAMAN
100
AcDbCircle
 10
5.568051
 20
5.881410999999999
 30
0.0
 40
0.374063
  0
INSERT
  5
224
330
217
100
AcDbEntity
  8
DAMAN
100
AcDbBlockReference
  2
100CROSS
 10
1.628050999999999
 20
5.881410999999999
 30
0.0
 41
0.7481250000000001
 42
0.7481250000000001
  0
CIRCLE
  5
225
330
217
100
AcDbEntity
  8
DAMAN
100
AcDbCircle
 10
1.628050999999999
 20
5.881410999999999
 30
0.0
 40
0.311719
  0
CIRCLE
  5
226
330
217
100
AcDbEntity
  8
DAMAN
100
AcDbCircle
 10
1.628050999999999
 20
5.881410999999999
 30
0.0
 40
0.374063
  0
CIRCLE
  5
227
330
217
100
AcDbEntity
  8
DAMAN
100
AcDbCircle
 10
3.598051
 20
6.195411
 30
0.0
 40
0.197
  0
CIRCLE
  5
228
330
217
100
AcDbEntity
  8
DAMAN
100
AcDbCircle
 10
2.415051
 20
5.881410999999999
 30
0.0
 40
0.1575
  0
CIRCLE
  5
229
330
217
100
AcDbEntity
  8
DAMAN
100
AcDbCircle
 10
1.314051
 20
3.911411
 30
0.0
 40
0.197
  0
CIRCLE
  5
22A
330
217
100
AcDbEntity
  8
DAMAN
100
AcDbCircle
 10
3.598051
 20
1.627411
 30
0.0
 40
0.197
  0
CIRCLE
  5
22B
330
217
100
AcDbEntity
  8
DAMAN
100
AcDbCircle
 10
5.882051
 20
3.911411
 30
0.0
 40
0.197
  0
INSERT
  5
22C
330
217
100
AcDbEntity
  8
DAMAN
100
AcDbBlockReference
  2
100CROSS
 10
5.568051
 20
5.881410999999999
 30
0.0
 41
0.7481250000000001
 42
0.7481250000000001
  0
INSERT
  5
22D
330
217
100
AcDbEntity
  8
DAMAN
100
AcDbBlockReference
  2
100CROSS
 10
3.598051
 20
3.911411
 30
0.0
 41
2.443513999999999
 42
2.443513999999999
  0
INSERT
  5
22E
330
217
100
AcDbEntity
  8
DAMAN
100
AcDbBlockReference
  2
100CROSS
 10
1.314051
 20
3.911411
 30
0.0
 41
0.467578
 42
0.467578
  0
INSERT
  5
22F
330
217
100
AcDbEntity
  8
DAMAN
100
AcDbBlockReference
  2
100CROSS
 10
3.598051
 20
1.627411
 30
0.0
 41
0.467578
 42
0.467578
  0
INSERT
  5
230
330
217
100
AcDbEntity
  8
DAMAN
100
AcDbBlockReference
  2
100CROSS
 10
5.882051
 20
3.911411
 30
0.0
 41
0.467578
 42
0.467578
  0
INSERT
  5
231
330
217
100
AcDbEntity
  8
DAMAN
100
AcDbBlockReference
  2
100CROSS
 10
2.415051
 20
5.881410999999999
 30
0.0
 41
0.467578
 42
0.467578
  0
INSERT
  5
232
330
217
100
AcDbEntity
  8
DAMAN
100
AcDbBlockReference
  2
100CROSS
 10
3.598051
 20
6.195411
 30
0.0
 41
0.467578
 42
0.467578
  0
ENDBLK
  5
233
330
217
100
AcDbEntity
  8
0
100
AcDbBlockEnd
  0
BLOCK
  5
235
330
234
100
AcDbEntity
  8
0
100
AcDbBlockBegin
  2
40CD62
 70
     0
 10
0.0
 20
0.0
 30
0.0
  3
40CD62
  1

  0
INSERT
  5
236
330
234
100
AcDbEntity
  8
DAMAN
100
AcDbBlockReference
  2
100CROSS
 10
2.895025
 20
3.368891
 30
0.0
 41
1.933593999999999
 42
1.933593999999999
  0
CIRCLE
  5
237
330
234
100
AcDbEntity
  8
DAMAN
100
AcDbCircle
 10
2.895025
 20
3.368891
 30
0.0
 40
1.25
  0
CIRCLE
  5
238
330
234
100
AcDbEntity
  8
DAMAN
100
AcDbCircle
 10
4.051025
 20
5.806391
 30
0.0
 40
0.364492
  0
CIRCLE
  5
239
330
234
100
AcDbEntity
  8
DAMAN
100
AcDbCircle
 10
4.051025
 20
5.806391
 30
0.0
 40
0.437391
  0
CIRCLE
  5
23A
330
234
100
AcDbEntity
  8
DAMAN
100
AcDbCircle
 10
1.739024999999999
 20
5.806391
 30
0.0
 40
0.364492
  0
CIRCLE
  5
23B
330
234
100
AcDbEntity
  8
DAMAN
100
AcDbCircle
 10
1.739024999999999
 20
5.806391
 30
0.0
 40
0.437391
  0
INSERT
  5
23C
330
234
100
AcDbEntity
  8
DAMAN
100
AcDbBlockReference
  2
100CROSS
 10
1.739024999999999
 20
5.806391
 30
0.0
 41
0.8747809999999999
 42
0.8747809999999999
  0
CIRCLE
  5
23D
330
234
100
AcDbEntity
  8
DAMAN
100
AcDbCircle
 10
1.739024999999999
 20
0.9313909999999999
 30
0.0
 40
0.364492
  0
CIRCLE
  5
23E
330
234
100
AcDbEntity
  8
DAMAN
100
AcDbCircle
 10
1.739024999999999
 20
0.9313909999999999
 30
0.0
 40
0.437391
  0
INSERT
  5
23F
330
234
100
AcDbEntity
  8
DAMAN
100
AcDbBlockReference
  2
100CROSS
 10
1.739024999999999
 20
0.9313909999999999
 30
0.0
 41
0.8747809999999999
 42
0.8747809999999999
  0
CIRCLE
  5
240
330
234
100
AcDbEntity
  8
DAMAN
100
AcDbCircle
 10
4.051025
 20
0.9313909999999999
 30
0.0
 40
0.364492
  0
CIRCLE
  5
241
330
234
100
AcDbEntity
  8
DAMAN
100
AcDbCircle
 10
4.051025
 20
0.9313909999999999
 30
0.0
 40
0.437391
  0
INSERT
  5
242
330
234
100
AcDbEntity
  8
DAMAN
100
AcDbBlockReference
  2
100CROSS
 10
4.051025
 20
0.9313909999999999
 30
0.0
 41
0.8747809999999999
 42
0.8747809999999999
  0
CIRCLE
  5
243
330
234
100
AcDbEntity
  8
DAMAN
100
AcDbCircle
 10
4.051025
 20
5.806391
 30
0.0
 40
0.364492
  0
INSERT
  5
244
330
234
100
AcDbEntity
  8
DAMAN
100
AcDbBlockReference
  2
100CROSS
 10
4.051025
 20
5.806391
 30
0.0
 41
0.8747809999999999
 42
0.8747809999999999
  0
ENDBLK
  5
245
330
234
100
AcDbEntity
  8
0
100
AcDbBlockEnd
  0
BLOCK
  5
247
330
246
100
AcDbEntity
  8
0
100
AcDbBlockBegin
  2
64CD61
 70
     0
 10
0.0
 20
0.0
 30
0.0
  3
64CD61
  1

  0
CIRCLE
  5
248
330
246
100
AcDbEntity
  8
DAMAN
100
AcDbCircle
 10
3.776075
 20
4.500751
 30
0.0
 40
2.0
  0
CIRCLE
  5
249
330
246
100
AcDbEntity
  8
DAMAN
100
AcDbCircle
 10
2.246074999999999
 20
7.063650999999999
 30
0.0
 40
0.312563
  0
CIRCLE
  5
24A
330
246
100
AcDbEntity
  8
DAMAN
100
AcDbCircle
 10
2.246074999999999
 20
7.063650999999999
 30
0.0
 40
0.260469
  0
INSERT
  5
24B
330
246
100
AcDbEntity
  8
DAMAN
100
AcDbBlockReference
  2
100CROSS
 10
2.246074999999999
 20
7.063650999999999
 30
0.0
 41
0.6251250000000001
 42
0.6251250000000001
  0
INSERT
  5
24C
330
246
100
AcDbEntity
  8
DAMAN
100
AcDbBlockReference
  2
100CROSS
 10
2.246074999999999
 20
1.937850999999999
 30
0.0
 41
0.6251250000000001
 42
0.6251250000000001
  0
CIRCLE
  5
24D
330
246
100
AcDbEntity
  8
DAMAN
100
AcDbCircle
 10
2.246074999999999
 20
1.937850999999999
 30
0.0
 40
0.260469
  0
CIRCLE
  5
24E
330
246
100
AcDbEntity
  8
DAMAN
100
AcDbCircle
 10
2.246074999999999
 20
1.937850999999999
 30
0.0
 40
0.312563
  0
INSERT
  5
24F
330
246
100
AcDbEntity
  8
DAMAN
100
AcDbBlockReference
  2
100CROSS
 10
5.306074999999999
 20
1.937850999999999
 30
0.0
 41
0.6251250000000001
 42
0.6251250000000001
  0
CIRCLE
  5
250
330
246
100
AcDbEntity
  8
DAMAN
100
AcDbCircle
 10
5.306074999999999
 20
1.937850999999999
 30
0.0
 40
0.260469
  0
CIRCLE
  5
251
330
246
100
AcDbEntity
  8
DAMAN
100
AcDbCircle
 10
5.306074999999999
 20
1.937850999999999
 30
0.0
 40
0.312563
  0
INSERT
  5
252
330
246
100
AcDbEntity
  8
DAMAN
100
AcDbBlockReference
  2
100CROSS
 10
5.306074999999999
 20
7.063650999999999
 30
0.0
 41
0.6251250000000001
 42
0.6251250000000001
  0
CIRCLE
  5
253
330
246
100
AcDbEntity
  8
DAMAN
100
AcDbCircle
 10
5.306074999999999
 20
7.063650999999999
 30
0.0
 40
0.260469
  0
CIRCLE
  5
254
330
246
100
AcDbEntity
  8
DAMAN
100
AcDbCircle
 10
5.306074999999999
 20
7.063650999999999
 30
0.0
 40
0.312563
  0
INSERT
  5
255
330
246
100
AcDbEntity
  8
DAMAN
100
AcDbBlockReference
  2
100CROSS
 10
3.776075
 20
4.500751
 30
0.0
 41
3.125624999999999
 42
3.125624999999999
  0
ENDBLK
  5
256
330
246
100
AcDbEntity
  8
0
100
AcDbBlockEnd
  0
BLOCK
  5
258
330
257
100
AcDbEntity
  8
0
100
AcDbBlockBegin
  2
63MMDIN
 70
     0
 10
0.0
 20
0.0
 30
0.0
  3
63MMDIN
  1

  0
CIRCLE
  5
259
330
257
100
AcDbEntity
  8
DAMAN
100
AcDbCircle
 10
4.27184
 20
3.939188999999999
 30
0.0
 40
2.379999999999999
  0
CIRCLE
  5
25A
330
257
100
AcDbEntity
  8
DAMAN
100
AcDbCircle
 10
4.27184
 20
3.939188999999999
 30
0.0
 40
1.77
  0
CIRCLE
  5
25B
330
257
100
AcDbEntity
  8
DAMAN
100
AcDbCircle
 10
4.27184
 20
3.939188999999999
 30
0.0
 40
1.239999999999999
  0
CIRCLE
  5
25C
330
257
100
AcDbEntity
  8
DAMAN
100
AcDbCircle
 10
1.81184
 20
6.399188999999999
 30
0.0
 40
0.5195420000000001
  0
CIRCLE
  5
25D
330
257
100
AcDbEntity
  8
DAMAN
100
AcDbCircle
 10
1.81184
 20
6.399188999999999
 30
0.0
 40
0.62345
  0
INSERT
  5
25E
330
257
100
AcDbEntity
  8
DAMAN
100
AcDbBlockReference
  2
100CROSS
 10
1.81184
 20
6.399188999999999
 30
0.0
 41
1.246899999999999
 42
1.246899999999999
  0
CIRCLE
  5
25F
330
257
100
AcDbEntity
  8
DAMAN
100
AcDbCircle
 10
1.81184
 20
1.479188999999999
 30
0.0
 40
0.5195420000000001
  0
CIRCLE
  5
260
330
257
100
AcDbEntity
  8
DAMAN
100
AcDbCircle
 10
1.81184
 20
1.479188999999999
 30
0.0
 40
0.62345
  0
INSERT
  5
261
330
257
100
AcDbEntity
  8
DAMAN
100
AcDbBlockReference
  2
100CROSS
 10
1.81184
 20
1.479188999999999
 30
0.0
 41
1.246899999999999
 42
1.246899999999999
  0
CIRCLE
  5
262
330
257
100
AcDbEntity
  8
DAMAN
100
AcDbCircle
 10
6.731839999999999
 20
1.479188999999999
 30
0.0
 40
0.5195420000000001
  0
CIRCLE
  5
263
330
257
100
AcDbEntity
  8
DAMAN
100
AcDbCircle
 10
6.731839999999999
 20
1.479188999999999
 30
0.0
 40
0.62345
  0
INSERT
  5
264
330
257
100
AcDbEntity
  8
DAMAN
100
AcDbBlockReference
  2
100CROSS
 10
6.731839999999999
 20
1.479188999999999
 30
0.0
 41
1.246899999999999
 42
1.246899999999999
  0
CIRCLE
  5
265
330
257
100
AcDbEntity
  8
DAMAN
100
AcDbCircle
 10
6.731839999999999
 20
6.399188999999999
 30
0.0
 40
0.5195420000000001
  0
CIRCLE
  5
266
330
257
100
AcDbEntity
  8
DAMAN
100
AcDbCircle
 10
6.731839999999999
 20
6.399188999999999
 30
0.0
 40
0.62345
  0
INSERT
  5
267
330
257
100
AcDbEntity
  8
DAMAN
100
AcDbBlockReference
  2
100CROSS
 10
6.731839999999999
 20
6.399188999999999
 30
0.0
 41
1.246899999999999
 42
1.246899999999999
  0
CIRCLE
  5
268
330
257
100
AcDbEntity
  8
DAMAN
100
AcDbCircle
 10
4.27184
 20
6.889189
 30
0.0
 40
0.235
  0
CIRCLE
  5
269
330
257
100
AcDbEntity
  8
DAMAN
100
AcDbCircle
 10
1.321839999999999
 20
3.939188999999999
 30
0.0
 40
0.235
  0
CIRCLE
  5
26A
330
257
100
AcDbEntity
  8
DAMAN
100
AcDbCircle
 10
4.27184
 20
0.989189
 30
0.0
 40
0.235
  0
CIRCLE
  5
26B
330
257
100
AcDbEntity
  8
DAMAN
100
AcDbCircle
 10
7.221839999999999
 20
3.939188999999999
 30
0.0
 40
0.235
  0
CIRCLE
  5
26C
330
257
100
AcDbEntity
  8
DAMAN
100
AcDbCircle
 10
2.77584
 20
6.399188999999999
 30
0.0
 40
0.157
  0
INSERT
  5
26D
330
257
100
AcDbEntity
  8
DAMAN
100
AcDbBlockReference
  2
100CROSS
 10
1.321839999999999
 20
3.939188999999999
 30
0.0
 41
0.561094
 42
0.561094
  0
INSERT
  5
26E
330
257
100
AcDbEntity
  8
DAMAN
100
AcDbBlockReference
  2
100CROSS
 10
4.27184
 20
0.989189
 30
0.0
 41
0.561094
 42
0.561094
  0
INSERT
  5
26F
330
257
100
AcDbEntity
  8
DAMAN
100
AcDbBlockReference
  2
100CROSS
 10
7.221839999999999
 20
3.939188999999999
 30
0.0
 41
0.561094
 42
0.561094
  0
INSERT
  5
270
330
257
100
AcDbEntity
  8
DAMAN
100
AcDbBlockReference
  2
100CROSS
 10
2.77584
 20
6.399188999999999
 30
0.0
 41
0.42082
 42
0.42082
  0
INSERT
  5
271
330
257
100
AcDbEntity
  8
DAMAN
100
AcDbBlockReference
  2
100CROSS
 10
4.27184
 20
6.889189
 30
0.0
 41
0.561094
 42
0.561094
  0
INSERT
  5
272
330
257
100
AcDbEntity
  8
DAMAN
100
AcDbBlockReference
  2
100CROSS
 10
4.27184
 20
3.939188999999999
 30
0.0
 41
3.054391999999999
 42
3.054391999999999
  0
ENDBLK
  5
273
330
257
100
AcDbEntity
  8
0
100
AcDbBlockEnd
  0
BLOCK
  5
275
330
274
100
AcDbEntity
  8
0
100
AcDbBlockBegin
  2
08SAET
 70
     0
 10
0.0
 20
0.0
 30
0.0
  3
08SAET
  1

  0
CIRCLE
  5
276
330
274
100
AcDbEntity
  8
DAMAN
100
AcDbCircle
 10
0.0
 20
0.0
 30
0.0
 40
0.375
  0
CIRCLE
  5
277
330
274
100
AcDbEntity
  8
DAMAN
100
AcDbCircle
 10
0.0
 20
0.0
 30
0.0
 40
0.3125
  0
CIRCLE
  5
278
330
274
100
AcDbEntity
  8
DAMAN
  6
HIDDEN
100
AcDbCircle
 10
0.0
 20
0.0
 30
0.0
 40
0.3439999999999999
  0
INSERT
  5
279
330
274
100
AcDbEntity
  8
DAMAN
100
AcDbBlockReference
  2
100CROSS
 10
0.0
 20
0.0
 30
0.0
 41
0.88
 42
0.88
  0
CIRCLE
  5
27A
330
274
100
AcDbEntity
  8
DAMAN
100
AcDbCircle
 10
0.0
 20
0.0
 30
0.0
 40
0.594
  0
ENDBLK
  5
27B
330
274
100
AcDbEntity
  8
0
100
AcDbBlockEnd
  0
BLOCK
  5
27D
330
27C
100
AcDbEntity
  8
0
100
AcDbBlockBegin
  2
48CD61
 70
     0
 10
0.0
 20
0.0
 30
0.0
  3
48CD61
  1

  0
INSERT
  5
27E
330
27C
100
AcDbEntity
  8
DAMAN
100
AcDbBlockReference
  2
100CROSS
 10
2.928767999999999
 20
3.641891999999999
 30
0.0
 41
2.175292999999999
 42
2.175292999999999
  0
CIRCLE
  5
27F
330
27C
100
AcDbEntity
  8
DAMAN
100
AcDbCircle
 10
2.928767999999999
 20
3.641891999999999
 30
0.0
 40
1.5
  0
INSERT
  5
280
330
27C
100
AcDbEntity
  8
DAMAN
100
AcDbBlockReference
  2
100CROSS
 10
1.709767999999999
 20
5.735891999999999
 30
0.0
 41
0.7289550000000001
 42
0.7289550000000001
  0
CIRCLE
  5
281
330
27C
100
AcDbEntity
  8
DAMAN
100
AcDbCircle
 10
1.709767999999999
 20
5.735891999999999
 30
0.0
 40
0.364478
  0
CIRCLE
  5
282
330
27C
100
AcDbEntity
  8
DAMAN
100
AcDbCircle
 10
1.709767999999999
 20
5.735891999999999
 30
0.0
 40
0.303731
  0
CIRCLE
  5
283
330
27C
100
AcDbEntity
  8
DAMAN
100
AcDbCircle
 10
1.709767999999999
 20
5.735891999999999
 30
0.0
 40
0.303731
  0
INSERT
  5
284
330
27C
100
AcDbEntity
  8
DAMAN
100
AcDbBlockReference
  2
100CROSS
 10
4.147768
 20
5.735891999999999
 30
0.0
 41
0.7289550000000001
 42
0.7289550000000001
  0
CIRCLE
  5
285
330
27C
100
AcDbEntity
  8
DAMAN
100
AcDbCircle
 10
4.147768
 20
5.735891999999999
 30
0.0
 40
0.364478
  0
CIRCLE
  5
286
330
27C
100
AcDbEntity
  8
DAMAN
100
AcDbCircle
 10
4.147768
 20
5.735891999999999
 30
0.0
 40
0.303731
  0
CIRCLE
  5
287
330
27C
100
AcDbEntity
  8
DAMAN
100
AcDbCircle
 10
4.147768
 20
5.735891999999999
 30
0.0
 40
0.303731
  0
INSERT
  5
288
330
27C
100
AcDbEntity
  8
DAMAN
100
AcDbBlockReference
  2
100CROSS
 10
4.147768
 20
1.547892
 30
0.0
 41
0.7289550000000001
 42
0.7289550000000001
  0
CIRCLE
  5
289
330
27C
100
AcDbEntity
  8
DAMAN
100
AcDbCircle
 10
4.147768
 20
1.547892
 30
0.0
 40
0.364478
  0
CIRCLE
  5
28A
330
27C
100
AcDbEntity
  8
DAMAN
100
AcDbCircle
 10
4.147768
 20
1.547892
 30
0.0
 40
0.303731
  0
CIRCLE
  5
28B
330
27C
100
AcDbEntity
  8
DAMAN
100
AcDbCircle
 10
4.147768
 20
1.547892
 30
0.0
 40
0.303731
  0
INSERT
  5
28C
330
27C
100
AcDbEntity
  8
DAMAN
100
AcDbBlockReference
  2
100CROSS
 10
1.709767999999999
 20
1.547892
 30
0.0
 41
0.7289550000000001
 42
0.7289550000000001
  0
CIRCLE
  5
28D
330
27C
100
AcDbEntity
  8
DAMAN
100
AcDbCircle
 10
1.709767999999999
 20
1.547892
 30
0.0
 40
0.364478
  0
CIRCLE
  5
28E
330
27C
100
AcDbEntity
  8
DAMAN
100
AcDbCircle
 10
1.709767999999999
 20
1.547892
 30
0.0
 40
0.303731
  0
CIRCLE
  5
28F
330
27C
100
AcDbEntity
  8
DAMAN
100
AcDbCircle
 10
1.709767999999999
 20
1.547892
 30
0.0
 40
0.303731
  0
ENDBLK
  5
290
330
27C
100
AcDbEntity
  8
0
100
AcDbBlockEnd
  0
BLOCK
  5
292
330
291
100
AcDbEntity
  8
0
100
AcDbBlockBegin
  2
80CD61
 70
     0
 10
0.0
 20
0.0
 30
0.0
  3
80CD61
  1

  0
CIRCLE
  5
293
330
291
100
AcDbEntity
  8
DAMAN
100
AcDbCircle
 10
4.057008999999999
 20
4.946697
 30
0.0
 40
2.5
  0
INSERT
  5
294
330
291
100
AcDbEntity
  8
DAMAN
100
AcDbBlockReference
  2
100CROSS
 10
2.247008999999999
 20
7.946697
 30
0.0
 41
0.6251250000000001
 42
0.6251250000000001
  0
CIRCLE
  5
295
330
291
100
AcDbEntity
  8
DAMAN
100
AcDbCircle
 10
2.247008999999999
 20
7.946697
 30
0.0
 40
0.312563
  0
CIRCLE
  5
296
330
291
100
AcDbEntity
  8
DAMAN
100
AcDbCircle
 10
2.247008999999999
 20
7.946697
 30
0.0
 40
0.260469
  0
INSERT
  5
297
330
291
100
AcDbEntity
  8
DAMAN
100
AcDbBlockReference
  2
100CROSS
 10
5.867008999999999
 20
7.946697
 30
0.0
 41
0.6251250000000001
 42
0.6251250000000001
  0
CIRCLE
  5
298
330
291
100
AcDbEntity
  8
DAMAN
100
AcDbCircle
 10
5.867008999999999
 20
7.946697
 30
0.0
 40
0.312563
  0
CIRCLE
  5
299
330
291
100
AcDbEntity
  8
DAMAN
100
AcDbCircle
 10
5.867008999999999
 20
7.946697
 30
0.0
 40
0.260469
  0
INSERT
  5
29A
330
291
100
AcDbEntity
  8
DAMAN
100
AcDbBlockReference
  2
100CROSS
 10
5.867008999999999
 20
1.946697
 30
0.0
 41
0.6251250000000001
 42
0.6251250000000001
  0
CIRCLE
  5
29B
330
291
100
AcDbEntity
  8
DAMAN
100
AcDbCircle
 10
5.867008999999999
 20
1.946697
 30
0.0
 40
0.312563
  0
CIRCLE
  5
29C
330
291
100
AcDbEntity
  8
DAMAN
100
AcDbCircle
 10
5.867008999999999
 20
1.946697
 30
0.0
 40
0.260469
  0
INSERT
  5
29D
330
291
100
AcDbEntity
  8
DAMAN
100
AcDbBlockReference
  2
100CROSS
 10
2.247008999999999
 20
1.946697
 30
0.0
 41
0.6251250000000001
 42
0.6251250000000001
  0
CIRCLE
  5
29E
330
291
100
AcDbEntity
  8
DAMAN
100
AcDbCircle
 10
2.247008999999999
 20
1.946697
 30
0.0
 40
0.312563
  0
CIRCLE
  5
29F
330
291
100
AcDbEntity
  8
DAMAN
100
AcDbCircle
 10
2.247008999999999
 20
1.946697
 30
0.0
 40
0.260469
  0
INSERT
  5
2A0
330
291
100
AcDbEntity
  8
DAMAN
100
AcDbBlockReference
  2
100CROSS
 10
4.057008999999999
 20
4.946697
 30
0.0
 41
3.907030999999999
 42
3.907030999999999
  0
ENDBLK
  5
2A1
330
291
100
AcDbEntity
  8
0
100
AcDbBlockEnd
  0
BLOCK
  5
2A3
330
2A2
100
AcDbEntity
  8
0
100
AcDbBlockBegin
  2
48CD62
 70
     0
 10
0.0
 20
0.0
 30
0.0
  3
48CD62
  1

  0
INSERT
  5
2A4
330
2A2
100
AcDbEntity
  8
DAMAN
100
AcDbBlockReference
  2
100CROSS
 10
3.580698999999999
 20
4.748916
 30
0.0
 41
2.175292999999999
 42
2.175292999999999
  0
INSERT
  5
2A5
330
2A2
100
AcDbEntity
  8
DAMAN
100
AcDbBlockReference
  2
100CROSS
 10
4.986698999999999
 20
1.748915999999999
 30
0.0
 41
1.312119
 42
1.312119
  0
CIRCLE
  5
2A6
330
2A2
100
AcDbEntity
  8
DAMAN
100
AcDbCircle
 10
4.986698999999999
 20
1.748915999999999
 30
0.0
 40
0.6560600000000001
  0
CIRCLE
  5
2A7
330
2A2
100
AcDbEntity
  8
DAMAN
100
AcDbCircle
 10
4.986698999999999
 20
1.748915999999999
 30
0.0
 40
0.546716
  0
CIRCLE
  5
2A8
330
2A2
100
AcDbEntity
  8
DAMAN
100
AcDbCircle
 10
4.986698999999999
 20
1.748915999999999
 30
0.0
 40
0.546716
  0
CIRCLE
  5
2A9
330
2A2
100
AcDbEntity
  8
DAMAN
100
AcDbCircle
 10
4.986698999999999
 20
7.748916
 30
0.0
 40
0.6560600000000001
  0
CIRCLE
  5
2AA
330
2A2
100
AcDbEntity
  8
DAMAN
100
AcDbCircle
 10
4.986698999999999
 20
7.748916
 30
0.0
 40
0.546716
  0
INSERT
  5
2AB
330
2A2
100
AcDbEntity
  8
DAMAN
100
AcDbBlockReference
  2
100CROSS
 10
4.986698999999999
 20
7.748916
 30
0.0
 41
1.312119
 42
1.312119
  0
CIRCLE
  5
2AC
330
2A2
100
AcDbEntity
  8
DAMAN
100
AcDbCircle
 10
2.174699
 20
7.748916
 30
0.0
 40
0.6560600000000001
  0
CIRCLE
  5
2AD
330
2A2
100
AcDbEntity
  8
DAMAN
100
AcDbCircle
 10
2.174699
 20
7.748916
 30
0.0
 40
0.546716
  0
INSERT
  5
2AE
330
2A2
100
AcDbEntity
  8
DAMAN
100
AcDbBlockReference
  2
100CROSS
 10
2.174699
 20
7.748916
 30
0.0
 41
1.312119
 42
1.312119
  0
CIRCLE
  5
2AF
330
2A2
100
AcDbEntity
  8
DAMAN
100
AcDbCircle
 10
2.174699
 20
1.748915999999999
 30
0.0
 40
0.6560600000000001
  0
CIRCLE
  5
2B0
330
2A2
100
AcDbEntity
  8
DAMAN
100
AcDbCircle
 10
2.174699
 20
1.748915999999999
 30
0.0
 40
0.546716
  0
INSERT
  5
2B1
330
2A2
100
AcDbEntity
  8
DAMAN
100
AcDbBlockReference
  2
100CROSS
 10
2.174699
 20
1.748915999999999
 30
0.0
 41
1.312119
 42
1.312119
  0
CIRCLE
  5
2B2
330
2A2
100
AcDbEntity
  8
DAMAN
100
AcDbCircle
 10
3.580698999999999
 20
4.748916
 30
0.0
 40
1.5
  0
ENDBLK
  5
2B3
330
2A2
100
AcDbEntity
  8
0
100
AcDbBlockEnd
  0
BLOCK
  5
2BE
330
2BD
100
AcDbEntity
  8
0
100
AcDbBlockBegin
  2
M10T
 70
     0
 10
0.0
 20
0.0
 30
0.0
  3
M10T
  1

  0
INSERT
  5
2BF
330
2BD
100
AcDbEntity
  8
DAMAN
100
AcDbBlockReference
  2
100CROSS
 10
0.0
 20
0.0
 30
0.0
 41
0.59
 42
0.59
 43
0.59
  0
CIRCLE
  5
2C0
330
2BD
100
AcDbEntity
  8
DAMAN
100
AcDbCircle
 10
0.0
 20
0.0
 30
0.0
 40
0.3145
  0
CIRCLE
  5
2C1
330
2BD
100
AcDbEntity
  8
DAMAN
100
AcDbCircle
 10
0.0
 20
0.0
 30
0.0
 40
0.3935
  0
CIRCLE
  5
2C2
330
2BD
100
AcDbEntity
  8
DAMAN
100
AcDbCircle
 10
0.0
 20
0.0
 30
0.0
 40
0.2185
  0
CIRCLE
  5
2C3
330
2BD
100
AcDbEntity
  8
DAMAN
  6
HIDDEN
100
AcDbCircle
 10
0.0
 20
0.0
 30
0.0
 40
0.19685
  0
CIRCLE
  5
2C4
330
2BD
100
AcDbEntity
  8
DAMAN
100
AcDbCircle
 10
0.0
 20
0.0
 30
0.0
 40
0.1775
  0
ENDBLK
  5
2C5
330
2BD
100
AcDbEntity
  8
0
100
AcDbBlockEnd
  0
BLOCK
  5
2C7
330
2C6
100
AcDbEntity
  8
0
100
AcDbBlockBegin
  2
050NPTFT
 70
     0
 10
0.0
 20
0.0
 30
0.0
  3
050NPTFT
  1

  0
INSERT
  5
2C9
330
2C6
100
AcDbEntity
  8
DAMAN
100
AcDbBlockReference
  2
500NPTFT
 10
0.0
 20
0.0
 30
0.0
  0
ENDBLK
  5
2CA
330
2C6
100
AcDbEntity
  8
0
100
AcDbBlockEnd
  0
BLOCK
  5
2CB
330
2C8
100
AcDbEntity
  8
0
100
AcDbBlockBegin
  2
500NPTFT
 70
     0
 10
0.0
 20
0.0
 30
0.0
  3
500NPTFT
  1

  0
INSERT
  5
2CC
330
2C8
100
AcDbEntity
  8
DAMAN
 62
     5
100
AcDbBlockReference
  2
100CROSS
 10
0.0
 20
0.0
 30
0.0
 41
0.84
 42
0.84
  0
CIRCLE
  5
2CD
330
2C8
100
AcDbEntity
  8
DAMAN
 62
     5
100
AcDbCircle
 10
0.0
 20
0.0
 30
0.0
 40
0.384627
  0
CIRCLE
  5
2CE
330
2C8
100
AcDbEntity
  8
DAMAN
 62
     5
100
AcDbCircle
 10
0.0
 20
0.0
 30
0.0
 40
0.3439999999999999
  0
CIRCLE
  5
2CF
330
2C8
100
AcDbEntity
  8
DAMAN
 62
     5
100
AcDbCircle
 10
0.0
 20
0.0
 30
0.0
 40
0.4295
  0
ENDBLK
  5
2D0
330
2C8
100
AcDbEntity
  8
0
100
AcDbBlockEnd
  0
BLOCK
  5
2D2
330
2D1
100
AcDbEntity
  8
0
100
AcDbBlockBegin
  2
0500BSPPT
 70
     0
 10
0.0
 20
0.0
 30
0.0
  3
0500BSPPT
  1

  0
CIRCLE
  5
2D3
330
2D1
100
AcDbEntity
  8
DAMAN
100
AcDbCircle
 10
0.0
 20
0.0
 30
0.0
 40
0.3795
  0
INSERT
  5
2D4
330
2D1
100
AcDbEntity
  8
DAMAN
100
AcDbBlockReference
  2
100CROSS
 10
0.0
 20
0.0
 30
0.0
 41
1.199999999999999
 42
1.199999999999999
  0
CIRCLE
  5
2D5
330
2D1
100
AcDbEntity
  8
DAMAN
100
AcDbCircle
 10
0.0
 20
0.0
 30
0.0
 40
0.605
  0
CIRCLE
  5
2D6
330
2D1
100
AcDbEntity
  8
DAMAN
  6
HIDDEN
100
AcDbCircle
 10
0.0
 20
0.0
 30
0.0
 40
0.4125
  0
CIRCLE
  5
2D7
330
2D1
100
AcDbEntity
  8
DAMAN
100
AcDbCircle
 10
0.0
 20
0.0
 30
0.0
 40
0.4175
  0
ENDBLK
  5
2D8
330
2D1
100
AcDbEntity
  8
0
100
AcDbBlockEnd
  0
BLOCK
  5
2DA
330
2D9
100
AcDbEntity
  8
0
100
AcDbBlockBegin
  2
M18T
 70
     0
 10
0.0
 20
0.0
 30
0.0
  3
M18T
  1

  0
CIRCLE
  5
2DB
330
2D9
100
AcDbEntity
  8
DAMAN
  6
HIDDEN
100
AcDbCircle
 10
0.0
 20
0.0
 30
0.0
 40
0.35433
  0
CIRCLE
  5
2DC
330
2D9
100
AcDbEntity
  8
DAMAN
100
AcDbCircle
 10
0.0
 20
0.0
 30
0.0
 40
0.38976
  0
CIRCLE
  5
2DD
330
2D9
100
AcDbEntity
  8
DAMAN
100
AcDbCircle
 10
0.0
 20
0.0
 30
0.0
 40
0.32555
  0
CIRCLE
  5
2DE
330
2D9
100
AcDbEntity
  8
DAMAN
100
AcDbCircle
 10
0.0
 20
0.0
 30
0.0
 40
0.5911
  0
INSERT
  5
2DF
330
2D9
100
AcDbEntity
  8
DAMAN
100
AcDbBlockReference
  2
100CROSS
 10
0.0
 20
0.0
 30
0.0
 41
0.88
 42
0.88
  0
CIRCLE
  5
2E0
330
2D9
100
AcDbEntity
  8
DAMAN
100
AcDbCircle
 10
0.0
 20
0.0
 30
0.0
 40
0.51181
  0
ENDBLK
  5
2E1
330
2D9
100
AcDbEntity
  8
0
100
AcDbBlockEnd
  0
BLOCK
  5
2E3
330
2E2
100
AcDbEntity
  8
0
100
AcDbBlockBegin
  2
075NPTFT
 70
     0
 10
0.0
 20
0.0
 30
0.0
  3
075NPTFT
  1

  0
INSERT
  5
2E5
330
2E2
100
AcDbEntity
  8
DAMAN
100
AcDbBlockReference
  2
750NPTFT
 10
-6.410892999999999
 20
-4.555543
 30
0.0
  0
ENDBLK
  5
2E6
330
2E2
100
AcDbEntity
  8
0
100
AcDbBlockEnd
  0
BLOCK
  5
2E7
330
2E4
100
AcDbEntity
  8
0
100
AcDbBlockBegin
  2
750NPTFT
 70
     0
 10
0.0
 20
0.0
 30
0.0
  3
750NPTFT
  1

  0
INSERT
  5
2E8
330
2E4
100
AcDbEntity
  8
DAMAN
 62
     5
100
AcDbBlockReference
  2
100CROSS
 10
6.410892999999999
 20
4.555543
 30
0.0
 41
0.98
 42
0.98
  0
CIRCLE
  5
2E9
330
2E4
100
AcDbEntity
  8
DAMAN
 62
     5
100
AcDbCircle
 10
6.410892999999999
 20
4.555543
 30
0.0
 40
0.4910670000000001
  0
CIRCLE
  5
2EA
330
2E4
100
AcDbEntity
  8
DAMAN
 62
     5
100
AcDbCircle
 10
6.410892999999999
 20
4.555543
 30
0.0
 40
0.453
  0
CIRCLE
  5
2EB
330
2E4
100
AcDbEntity
  8
DAMAN
 62
     5
100
AcDbCircle
 10
6.410892999999999
 20
4.555543
 30
0.0
 40
0.53125
  0
ENDBLK
  5
2EC
330
2E4
100
AcDbEntity
  8
0
100
AcDbBlockEnd
  0
BLOCK
  5
2EE
330
2ED
100
AcDbEntity
  8
0
100
AcDbBlockBegin
  2
12SAET
 70
     0
 10
0.0
 20
0.0
 30
0.0
  3
12SAET
  1

  0
CIRCLE
  5
2EF
330
2ED
100
AcDbEntity
  8
DAMAN
100
AcDbCircle
 10
0.0
 20
0.0
 30
0.0
 40
0.53125
  0
INSERT
  5
2F0
330
2ED
100
AcDbEntity
  8
DAMAN
100
AcDbBlockReference
  2
100CROSS
 10
0.0
 20
0.0
 30
0.0
 41
1.33
 42
1.33
  0
CIRCLE
  5
2F1
330
2ED
100
AcDbEntity
  8
DAMAN
100
AcDbCircle
 10
0.0
 20
0.0
 30
0.0
 40
0.8125
  0
CIRCLE
  5
2F2
330
2ED
100
AcDbEntity
  8
DAMAN
100
AcDbCircle
 10
0.0
 20
0.0
 30
0.0
 40
0.453
  0
CIRCLE
  5
2F3
330
2ED
100
AcDbEntity
  8
DAMAN
100
AcDbCircle
 10
0.0
 20
0.0
 30
0.0
 40
0.4920000000000001
  0
ENDBLK
  5
2F4
330
2ED
100
AcDbEntity
  8
0
100
AcDbBlockEnd
  0
BLOCK
  5
2F6
330
2F5
100
AcDbEntity
  8
0
100
AcDbBlockBegin
  2
075BSPPT
 70
     0
 10
0.0
 20
0.0
 30
0.0
  3
075BSPPT
  1

  0
CIRCLE
  5
2F7
330
2F5
100
AcDbEntity
  8
DAMAN
100
AcDbCircle
 10
0.0
 20
0.0
 30
0.0
 40
0.453
  0
CIRCLE
  5
2F8
330
2F5
100
AcDbEntity
  8
DAMAN
100
AcDbCircle
 10
0.0
 20
0.0
 30
0.0
 40
0.475
  0
CIRCLE
  5
2F9
330
2F5
100
AcDbEntity
  8
DAMAN
100
AcDbCircle
 10
0.0
 20
0.0
 30
0.0
 40
0.72
  0
LINE
  5
2FA
330
2F5
100
AcDbEntity
  8
DAMAN
  6
CENTER
100
AcDbLine
 10
-0.8125
 20
0.0
 30
0.0
 11
0.8125
 21
0.0
 31
0.0
  0
CIRCLE
  5
2FB
330
2F5
100
AcDbEntity
  8
DAMAN
  6
HIDDEN
100
AcDbCircle
 10
0.0
 20
0.0
 30
0.0
 40
0.5200000000000001
  0
LINE
  5
2FC
330
2F5
100
AcDbEntity
  8
DAMAN
  6
CENTER
100
AcDbLine
 10
0.0
 20
0.8125
 30
0.0
 11
0.0
 21
-0.8125
 31
0.0
  0
ENDBLK
  5
2FD
330
2F5
100
AcDbEntity
  8
0
100
AcDbBlockEnd
  0
BLOCK
  5
2FF
330
2FE
100
AcDbEntity
  8
0
100
AcDbBlockBegin
  2
M27T
 70
     0
 10
0.0
 20
0.0
 30
0.0
  3
M27T
  1

  0
CIRCLE
  5
300
330
2FE
100
AcDbEntity
  8
DAMAN
100
AcDbCircle
 10
0.0
 20
0.0
 30
0.0
 40
0.5787
  0
CIRCLE
  5
301
330
2FE
100
AcDbEntity
  8
DAMAN
  6
HIDDEN
100
AcDbCircle
 10
0.0
 20
0.0
 30
0.0
 40
0.53145
  0
CIRCLE
  5
302
330
2FE
100
AcDbEntity
  8
DAMAN
100
AcDbCircle
 10
0.0
 20
0.0
 30
0.0
 40
0.7874
  0
INSERT
  5
303
330
2FE
100
AcDbEntity
  8
DAMAN
100
AcDbBlockReference
  2
100CROSS
 10
0.0
 20
0.0
 30
0.0
 41
1.33
 42
1.33
  0
CIRCLE
  5
304
330
2FE
100
AcDbEntity
  8
DAMAN
100
AcDbCircle
 10
0.0
 20
0.0
 30
0.0
 40
0.66929
  0
CIRCLE
  5
305
330
2FE
100
AcDbEntity
  8
DAMAN
100
AcDbCircle
 10
0.0
 20
0.0
 30
0.0
 40
0.4955
  0
ENDBLK
  5
306
330
2FE
100
AcDbEntity
  8
0
100
AcDbBlockEnd
  0
BLOCK
  5
308
330
307
100
AcDbEntity
  8
0
100
AcDbBlockBegin
  2
106SAET
 70
     0
 10
0.0
 20
0.0
 30
0.0
  3
106SAET
  1

  0
CIRCLE
  5
309
330
307
100
AcDbEntity
  8
CSOLID
100
AcDbCircle
 10
0.0
 20
0.0
 30
0.0
 40
0.4920000000000001
  0
CIRCLE
  5
30A
330
307
100
AcDbEntity
  8
CSOLID
100
AcDbCircle
 10
0.0
 20
0.0
 30
0.0
 40
0.453
  0
CIRCLE
  5
30B
330
307
100
AcDbEntity
  8
CSOLID
100
AcDbCircle
 10
0.0
 20
0.0
 30
0.0
 40
0.8125
  0
INSERT
  5
30C
330
307
100
AcDbEntity
  8
CCENTER
100
AcDbBlockReference
  2
100CROSS
 10
0.0
 20
0.0
 30
0.0
 41
1.33
 42
1.33
  0
CIRCLE
  5
30D
330
307
100
AcDbEntity
  8
CHIDDEN
100
AcDbCircle
 10
0.0
 20
0.0
 30
0.0
 40
0.53125
  0
CIRCLE
  5
30E
330
307
100
AcDbEntity
  8
PHANTOM
100
AcDbCircle
 10
0.0
 20
0.0
 30
0.0
 40
0.725
  0
ENDBLK
  5
30F
330
307
100
AcDbEntity
  8
0
100
AcDbBlockEnd
  0
BLOCK
  5
311
330
310
100
AcDbEntity
  8
0
100
AcDbBlockBegin
  2
C102T
 70
     0
 10
0.0
 20
0.0
 30
0.0
  3
C102T
  1

  0
CIRCLE
  5
312
330
310
100
AcDbEntity
  8
DAMAN
100
AcDbCircle
 10
0.0
 20
0.0
 30
0.0
 40
0.4060000000000001
  0
INSERT
  5
313
330
310
100
AcDbEntity
  8
DAMAN
100
AcDbBlockReference
  2
100CROSS
 10
0.0
 20
0.0
 30
0.0
 41
1.199999999999999
 42
1.199999999999999
  0
CIRCLE
  5
314
330
310
100
AcDbEntity
  8
DAMAN
100
AcDbCircle
 10
0.0
 20
0.0
 30
0.0
 40
0.594
  0
CIRCLE
  5
315
330
310
100
AcDbEntity
  8
DAMAN
  6
HIDDEN
100
AcDbCircle
 10
0.0
 20
0.0
 30
0.0
 40
0.4375
  0
CIRCLE
  5
316
330
310
100
AcDbEntity
  8
DAMAN
100
AcDbCircle
 10
0.0
 20
0.0
 30
0.0
 40
0.4725
  0
CIRCLE
  5
317
330
310
100
AcDbEntity
  8
DAMAN
100
AcDbCircle
 10
0.0
 20
0.0
 30
0.0
 40
0.3125
  0
ENDBLK
  5
318
330
310
100
AcDbEntity
  8
0
100
AcDbBlockEnd
  0
ENDSEC
  0
SECTION
  2
ENTITIES
  0
INSERT
  5
319
330
1E
100
AcDbEntity
  8
DAMAN
100
AcDbBlockReference
  2
100CROSS
 10
5.351074999999999
 20
3.047131
 30
0.0
 41
0.585938
 42
0.585938
  0
TEXT
  5
31A
330
1E
100
AcDbEntity
  8
DAMAN
100
AcDbText
 10
1.552907773374562
 20
4.781537352901406
 30
0.0
 40
0.2
  1
DAMAN ****
 50
270.0
100
AcDbText
  0
TEXT
  5
31B
330
1E
100
AcDbEntity
  8
DAMAN
100
AcDbText
 10
10.13149199999999
 20
4.996720999999999
 30
0.0
 40
0.2
  1
A
 50
90.0
100
AcDbText
  0
TEXT
  5
31C
330
1E
100
AcDbEntity
  8
DAMAN
100
AcDbText
 10
12.367441
 20
4.121311
 30
0.0
 40
0.2
  1
B
 50
90.0
100
AcDbText
  0
TEXT
  5
31D
330
1E
100
AcDbEntity
  8
DAMAN
100
AcDbText
 10
2.962674
 20
3.534426
 30
0.0
 40
0.2
  1
P
 50
270.0
100
AcDbText
  0
TEXT
  5
31E
330
1E
100
AcDbEntity
  8
DAMAN
100
AcDbText
 10
2.357343999999999
 20
6.008197
 30
0.0
 40
0.2
  1
T
 50
270.0
100
AcDbText
  0
LINE
  5
31F
330
1E
100
AcDbEntity
  8
DAMAN
100
AcDbLine
 10
0.9760749999999999
 20
2.672131
 30
0.0
 11
0.9760749999999999
 21
6.172130999999999
 31
0.0
  0
LINE
  5
320
330
1E
100
AcDbEntity
  8
DAMAN
100
AcDbLine
 10
0.9760749999999999
 20
6.172130999999999
 30
0.0
 11
3.976074999999999
 21
6.172130999999999
 31
0.0
  0
LINE
  5
321
330
1E
100
AcDbEntity
  8
DAMAN
100
AcDbLine
 10
3.976074999999999
 20
2.672131
 30
0.0
 11
3.976074999999999
 21
6.172130999999999
 31
0.0
  0
LINE
  5
322
330
1E
100
AcDbEntity
  8
DAMAN
100
AcDbLine
 10
0.9760749999999999
 20
2.672131
 30
0.0
 11
3.976074999999999
 21
2.672131
 31
0.0
  0
LINE
  5
323
330
1E
100
AcDbEntity
  8
DAMAN
100
AcDbLine
 10
4.976074999999999
 20
2.672131
 30
0.0
 11
4.976074999999999
 21
6.172130999999999
 31
0.0
  0
LINE
  5
324
330
1E
100
AcDbEntity
  8
DAMAN
100
AcDbLine
 10
8.476074999999999
 20
2.672131
 30
0.0
 11
8.476074999999999
 21
6.172130999999999
 31
0.0
  0
LINE
  5
325
330
1E
100
AcDbEntity
  8
DAMAN
100
AcDbLine
 10
9.476074999999999
 20
2.672131
 30
0.0
 11
9.476074999999999
 21
6.172130999999999
 31
0.0
  0
LINE
  5
326
330
1E
100
AcDbEntity
  8
DAMAN
100
AcDbLine
 10
12.47607499999999
 20
2.672131
 30
0.0
 11
12.47607499999999
 21
6.172130999999999
 31
0.0
  0
LINE
  5
327
330
1E
100
AcDbEntity
  8
DAMAN
100
AcDbLine
 10
13.476075
 20
2.672131
 30
0.0
 11
13.476075
 21
6.172130999999999
 31
0.0
  0
LINE
  5
328
330
1E
100
AcDbEntity
  8
DAMAN
100
AcDbLine
 10
16.976075
 20
2.672131
 30
0.0
 11
16.976075
 21
6.172130999999999
 31
0.0
  0
LINE
  5
329
330
1E
100
AcDbEntity
  8
DAMAN
100
AcDbLine
 10
4.976074999999999
 20
2.672131
 30
0.0
 11
8.476074999999999
 21
2.672131
 31
0.0
  0
LINE
  5
32A
330
1E
100
AcDbEntity
  8
DAMAN
100
AcDbLine
 10
9.476074999999999
 20
2.672131
 30
0.0
 11
12.47607499999999
 21
2.672131
 31
0.0
  0
LINE
  5
32B
330
1E
100
AcDbEntity
  8
DAMAN
100
AcDbLine
 10
13.476075
 20
2.672131
 30
0.0
 11
16.976075
 21
2.672131
 31
0.0
  0
LINE
  5
32C
330
1E
100
AcDbEntity
  8
DAMAN
100
AcDbLine
 10
13.476075
 20
6.172130999999999
 30
0.0
 11
16.976075
 21
6.172130999999999
 31
0.0
  0
LINE
  5
32D
330
1E
100
AcDbEntity
  8
DAMAN
100
AcDbLine
 10
12.47607499999999
 20
6.172130999999999
 30
0.0
 11
9.476074999999999
 21
6.172130999999999
 31
0.0
  0
LINE
  5
32E
330
1E
100
AcDbEntity
  8
DAMAN
100
AcDbLine
 10
8.476074999999999
 20
6.172130999999999
 30
0.0
 11
4.976074999999999
 21
6.172130999999999
 31
0.0
  0
LINE
  5
32F
330
1E
100
AcDbEntity
  8
DAMAN
100
AcDbLine
 10
8.476074999999999
 20
7.172130999999999
 30
0.0
 11
4.976074999999999
 21
7.172130999999999
 31
0.0
  0
LINE
  5
330
330
1E
100
AcDbEntity
  8
DAMAN
100
AcDbLine
 10
8.476074999999999
 20
10.17213099999999
 30
0.0
 11
4.976074999999999
 21
10.17213099999999
 31
0.0
  0
LINE
  5
331
330
1E
100
AcDbEntity
  8
DAMAN
100
AcDbLine
 10
4.976074999999999
 20
7.172130999999999
 30
0.0
 11
4.976074999999999
 21
10.17213099999999
 31
0.0
  0
LINE
  5
332
330
1E
100
AcDbEntity
  8
DAMAN
100
AcDbLine
 10
8.476074999999999
 20
10.17213099999999
 30
0.0
 11
8.476074999999999
 21
7.172130999999999
 31
0.0
  0
INSERT
  5
333
330
1E
100
AcDbEntity
  8
DAMAN
100
AcDbBlockReference
  2
C102T
 10
6.066074999999999
 20
9.172131
 30
0.0
  0
INSERT
  5
334
330
1E
100
AcDbEntity
  8
DAMAN
100
AcDbBlockReference
  2
D03
 10
6.108258999999999
 20
4.823769999999999
 30
0.0
  0
CIRCLE
  5
335
330
1E
100
AcDbEntity
  8
DAMAN
100
AcDbCircle
 10
8.101074999999999
 20
5.797130999999999
 30
0.0
 40
0.203
  0
CIRCLE
  5
336
330
1E
100
AcDbEntity
  8
DAMAN
100
AcDbCircle
 10
8.101074999999999
 20
5.797130999999999
 30
0.0
 40
0.3125
  0
CIRCLE
  5
337
330
1E
100
AcDbEntity
  8
DAMAN
100
AcDbCircle
 10
5.351074999999999
 20
3.047131
 30
0.0
 40
0.3125
  0
CIRCLE
  5
338
330
1E
100
AcDbEntity
  8
DAMAN
100
AcDbCircle
 10
5.351074999999999
 20
3.047131
 30
0.0
 40
0.203
  0
INSERT
  5
339
330
1E
100
AcDbEntity
  8
DAMAN
100
AcDbBlockReference
  2
100CROSS
 10
8.101074999999999
 20
5.797130999999999
 30
0.0
 41
0.585938
 42
0.585938
  0
CIRCLE
  5
33A
330
1E
100
AcDbEntity
  8
DAMAN
100
AcDbCircle
 10
13.851075
 20
5.797130999999999
 30
0.0
 40
0.203
  0
INSERT
  5
33B
330
1E
100
AcDbEntity
  8
DAMAN
100
AcDbBlockReference
  2
100CROSS
 10
13.851075
 20
5.797130999999999
 30
0.0
 41
-0.585938
 42
0.585938
  0
INSERT
  5
33C
330
1E
100
AcDbEntity
  8
DAMAN
100
AcDbBlockReference
  2
100CROSS
 10
16.601075
 20
3.047131
 30
0.0
 41
-0.585938
 42
0.585938
  0
CIRCLE
  5
33D
330
1E
100
AcDbEntity
  8
DAMAN
100
AcDbCircle
 10
16.601075
 20
3.047131
 30
0.0
 40
0.203
  0
TEXT
  5
33E
330
1E
100
AcDbEntity
  8
DAMAN
100
AcDbText
 10
14.02332499999999
 20
4.759005999999999
 30
0.0
 40
0.2
  1
T
100
AcDbText
  0
TEXT
  5
33F
330
1E
100
AcDbEntity
  8
DAMAN
100
AcDbText
 10
16.42653
 20
4.417046
 30
0.0
 40
0.2
  1
P
100
AcDbText
  0
INSERT
  5
340
330
1E
100
AcDbEntity
  8
DAMAN
100
AcDbBlockReference
  2
08SAET
 10
2.976074999999999
 20
5.359630999999999
 30
0.0
  0
INSERT
  5
341
330
1E
100
AcDbEntity
  8
DAMAN
100
AcDbBlockReference
  2
08SAET
 10
2.476074999999999
 20
3.984630999999999
 30
0.0
  0
INSERT
  5
342
330
1E
100
AcDbEntity
  8
DAMAN
100
AcDbBlockReference
  2
08SAET
 10
10.56607499999999
 20
4.452130999999999
 30
0.0
  0
INSERT
  5
343
330
1E
100
AcDbEntity
  8
DAMAN
100
AcDbBlockReference
  2
08SAET
 10
11.632075
 20
3.642130999999999
 30
0.0
  0
INSERT
  5
344
330
1E
100
AcDbEntity
  8
DAMAN
100
AcDbBlockReference
  2
08SAET
 10
14.726075
 20
5.359630999999999
 30
0.0
  0
INSERT
  5
345
330
1E
100
AcDbEntity
  8
DAMAN
100
AcDbBlockReference
  2
08SAET
 10
15.886075
 20
3.984630999999999
 30
0.0
  0
ENDSEC
  0
SECTION
  2
OBJECTS
  0
DICTIONARY
  5
C
330
0
100
AcDbDictionary
  3
ACAD_GROUP
350
D
  3
ACAD_LAYOUT
350
19
  3
ACAD_MLINESTYLE
350
16
  3
ACAD_PLOTSETTINGS
350
18
  3
ACAD_PLOTSTYLENAME
350
E
  3
ACDBHEADERROUNDTRIPXREC
350
34A
  0
DICTIONARY
  5
36C
330
1E
100
AcDbDictionary
280
     1
  3
ACAD_LAYOUTSELFREF
360
36D
  0
DICTIONARY
  5
36A
330
1A
100
AcDbDictionary
280
     1
  3
ACAD_LAYOUTSELFREF
360
36B
  0
DICTIONARY
  5
D
102
{ACAD_REACTORS
330
C
102
}
330
C
100
AcDbDictionary
  0
DICTIONARY
  5
19
102
{ACAD_REACTORS
330
C
102
}
330
C
100
AcDbDictionary
  0
DICTIONARY
  5
16
102
{ACAD_REACTORS
330
C
102
}
330
C
100
AcDbDictionary
  3
STANDARD
350
17
  0
DICTIONARY
  5
18
102
{ACAD_REACTORS
330
C
102
}
330
C
100
AcDbDictionary
  0
ACDBDICTIONARYWDFLT
  5
E
102
{ACAD_REACTORS
330
C
102
}
330
C
100
AcDbDictionary
281
     1
  3
Normal
350
F
100
AcDbDictionaryWithDefault
340
F
  0
DICTIONARY
  5
34A
102
{ACAD_REACTORS
330
C
102
}
330
C
100
AcDbDictionary
  3
CEPSNTYPE
350
354
  3
FINGERPRINTGUID
350
355
  3
HYPERLINKBASE
350
34D
  3
INSUNITS
350
353
  3
LAYOUTDICT
350
34F
  3
LWETCUNION
350
352
  3
PLOTSETDICT
350
350
  3
PLOTSTYLNAMDICT
350
351
  3
PSVPSCALE
350
357
  3
PUCSBASE
350
35A
  3
PUCSORGBACK
350
360
  3
PUCSORGBOTTOM
350
35C
  3
PUCSORGFRONT
350
35F
  3
PUCSORGLEFT
350
35D
  3
PUCSORGRIGHT
350
35E
  3
PUCSORGTOP
350
35B
  3
PUCSORTHOREF
350
358
  3
PUCSORTHOVIEW
350
359
  3
STYLESHEET
350
34E
  3
TSTACKALIGN
350
34B
  3
TSTACKSIZE
350
34C
  3
UCSBASE
350
363
  3
UCSORGBACK
350
369
  3
UCSORGBOTTOM
350
365
  3
UCSORGFRONT
350
368
  3
UCSORGLEFT
350
366
  3
UCSORGRIGHT
350
367
  3
UCSORGTOP
350
364
  3
UCSORTHOREF
350
361
  3
UCSORTHOVIEW
350
362
  3
VERSIONGUID
350
356
  0
XRECORD
  5
36D
102
{ACAD_REACTORS
330
36C
102
}
330
36C
100
AcDbXrecord
340
1E
  0
XRECORD
  5
36B
102
{ACAD_REACTORS
330
36A
102
}
330
36A
100
AcDbXrecord
340
1A
  0
MLINESTYLE
  5
17
102
{ACAD_REACTORS
330
16
102
}
330
16
100
AcDbMlineStyle
  2
STANDARD
 70
     0
  3

 62
   256
 51
90.0
 52
90.0
 71
     2
 49
0.5
 62
   256
  6
BYLAYER
 49
-0.5
 62
   256
  6
BYLAYER
  0
ACDBPLACEHOLDER
  5
F
102
{ACAD_REACTORS
330
E
102
}
330
E
100
AcDbPlaceHolder
280
     0
  0
XRECORD
  5
354
102
{ACAD_REACTORS
330
34A
102
}
330
34A
100
AcDbXrecord
 90
        0
  0
XRECORD
  5
355
102
{ACAD_REACTORS
330
34A
102
}
330
34A
100
AcDbXrecord
  1
{57E93DE9-780F-4606-B854-D9D5F8200FE9}
  0
XRECORD
  5
34D
102
{ACAD_REACTORS
330
34A
102
}
330
34A
100
AcDbXrecord
  1

  0
XRECORD
  5
353
102
{ACAD_REACTORS
330
34A
102
}
330
34A
100
AcDbXrecord
 90
        0
  0
XRECORD
  5
34F
102
{ACAD_REACTORS
330
34A
102
}
330
34A
100
AcDbXrecord
340
19
  0
XRECORD
  5
352
102
{ACAD_REACTORS
330
34A
102
}
330
34A
100
AcDbXrecord
 90
    10781
  0
XRECORD
  5
350
102
{ACAD_REACTORS
330
34A
102
}
330
34A
100
AcDbXrecord
340
18
  0
XRECORD
  5
351
102
{ACAD_REACTORS
330
34A
102
}
330
34A
100
AcDbXrecord
340
E
  0
XRECORD
  5
357
102
{ACAD_REACTORS
330
34A
102
}
330
34A
100
AcDbXrecord
 40
0.0
  0
XRECORD
  5
35A
102
{ACAD_REACTORS
330
34A
102
}
330
34A
100
AcDbXrecord
340
0
  0
XRECORD
  5
360
102
{ACAD_REACTORS
330
34A
102
}
330
34A
100
AcDbXrecord
 10
0.0
 20
0.0
 30
0.0
  0
XRECORD
  5
35C
102
{ACAD_REACTORS
330
34A
102
}
330
34A
100
AcDbXrecord
 10
0.0
 20
0.0
 30
0.0
  0
XRECORD
  5
35F
102
{ACAD_REACTORS
330
34A
102
}
330
34A
100
AcDbXrecord
 10
0.0
 20
0.0
 30
0.0
  0
XRECORD
  5
35D
102
{ACAD_REACTORS
330
34A
102
}
330
34A
100
AcDbXrecord
 10
0.0
 20
0.0
 30
0.0
  0
XRECORD
  5
35E
102
{ACAD_REACTORS
330
34A
102
}
330
34A
100
AcDbXrecord
 10
0.0
 20
0.0
 30
0.0
  0
XRECORD
  5
35B
102
{ACAD_REACTORS
330
34A
102
}
330
34A
100
AcDbXrecord
 10
0.0
 20
0.0
 30
0.0
  0
XRECORD
  5
358
102
{ACAD_REACTORS
330
34A
102
}
330
34A
100
AcDbXrecord
340
0
  0
XRECORD
  5
359
102
{ACAD_REACTORS
330
34A
102
}
330
34A
100
AcDbXrecord
 70
     0
  0
XRECORD
  5
34E
102
{ACAD_REACTORS
330
34A
102
}
330
34A
100
AcDbXrecord
  1

  0
XRECORD
  5
34B
102
{ACAD_REACTORS
330
34A
102
}
330
34A
100
AcDbXrecord
 90
        1
  0
XRECORD
  5
34C
102
{ACAD_REACTORS
330
34A
102
}
330
34A
100
AcDbXrecord
 90
       70
  0
XRECORD
  5
363
102
{ACAD_REACTORS
330
34A
102
}
330
34A
100
AcDbXrecord
340
0
  0
XRECORD
  5
369
102
{ACAD_REACTORS
330
34A
102
}
330
34A
100
AcDbXrecord
 10
0.0
 20
0.0
 30
0.0
  0
XRECORD
  5
365
102
{ACAD_REACTORS
330
34A
102
}
330
34A
100
AcDbXrecord
 10
0.0
 20
0.0
 30
0.0
  0
XRECORD
  5
368
102
{ACAD_REACTORS
330
34A
102
}
330
34A
100
AcDbXrecord
 10
0.0
 20
0.0
 30
0.0
  0
XRECORD
  5
366
102
{ACAD_REACTORS
330
34A
102
}
330
34A
100
AcDbXrecord
 10
0.0
 20
0.0
 30
0.0
  0
XRECORD
  5
367
102
{ACAD_REACTORS
330
34A
102
}
330
34A
100
AcDbXrecord
 10
0.0
 20
0.0
 30
0.0
  0
XRECORD
  5
364
102
{ACAD_REACTORS
330
34A
102
}
330
34A
100
AcDbXrecord
 10
0.0
 20
0.0
 30
0.0
  0
XRECORD
  5
361
102
{ACAD_REACTORS
330
34A
102
}
330
34A
100
AcDbXrecord
340
0
  0
XRECORD
  5
362
102
{ACAD_REACTORS
330
34A
102
}
330
34A
100
AcDbXrecord
 70
     0
  0
XRECORD
  5
356
102
{ACAD_REACTORS
330
34A
102
}
330
34A
100
AcDbXrecord
  1
{C9A6EA9F-BBBE-4295-9690-D58163A7051D}
  0
ENDSEC
  0
EOF
