  0
SECTION
  2
HEADER
  9
$ACADVER
  1
AC1014
  9
$ACADMAINTVER
 70
     9
  9
$DWGCODEPAGE
  3
ANSI_1252
  9
$INSBASE
 10
0.0
 20
0.0
 30
0.0
  9
$EXTMIN
 10
-1.030835794301395
 20
-1.031816431910435
 30
-0.0000000349181948
  9
$EXTMAX
 10
19.53210193567063
 20
7.000902654665033
 30
0.0000000814935747
  9
$LIMMIN
 10
0.0
 20
0.0
  9
$LIMMAX
 10
12.0
 20
9.0
  9
$ORTHOMODE
 70
     0
  9
$REGENMODE
 70
     1
  9
$FILLMODE
 70
     1
  9
$QTEXTMODE
 70
     0
  9
$MIRRTEXT
 70
     1
  9
$DRAGMODE
 70
     2
  9
$LTSCALE
 40
1.0
  9
$OSMODE
 70
    37
  9
$ATTMODE
 70
     1
  9
$TEXTSIZE
 40
0.2
  9
$TRACEWID
 40
0.05
  9
$TEXTSTYLE
  7
STANDARD
  9
$CLAYER
  8
0
  9
$CELTYPE
  6
CONTINUOUS
  9
$CECOLOR
 62
   256
  9
$CELTSCALE
 40
1.0
  9
$DELOBJ
 70
     1
  9
$DISPSILH
 70
     0
  9
$DIMSCALE
 40
1.0
  9
$DIMASZ
 40
0.18
  9
$DIMEXO
 40
0.0625
  9
$DIMDLI
 40
0.38
  9
$DIMRND
 40
0.0
  9
$DIMDLE
 40
0.0
  9
$DIMEXE
 40
0.18
  9
$DIMTP
 40
0.0
  9
$DIMTM
 40
0.0
  9
$DIMTXT
 40
0.18
  9
$DIMCEN
 40
0.09
  9
$DIMTSZ
 40
0.0
  9
$DIMTOL
 70
     0
  9
$DIMLIM
 70
     0
  9
$DIMTIH
 70
     1
  9
$DIMTOH
 70
     1
  9
$DIMSE1
 70
     0
  9
$DIMSE2
 70
     0
  9
$DIMTAD
 70
     0
  9
$DIMZIN
 70
     0
  9
$DIMBLK
  1

  9
$DIMASO
 70
     1
  9
$DIMSHO
 70
     1
  9
$DIMPOST
  1

  9
$DIMAPOST
  1

  9
$DIMALT
 70
     0
  9
$DIMALTD
 70
     2
  9
$DIMALTF
 40
25.4
  9
$DIMLFAC
 40
1.0
  9
$DIMTOFL
 70
     0
  9
$DIMTVP
 40
0.0
  9
$DIMTIX
 70
     0
  9
$DIMSOXD
 70
     0
  9
$DIMSAH
 70
     0
  9
$DIMBLK1
  1

  9
$DIMBLK2
  1

  9
$DIMSTYLE
  2
STANDARD
  9
$DIMCLRD
 70
     0
  9
$DIMCLRE
 70
     0
  9
$DIMCLRT
 70
     0
  9
$DIMTFAC
 40
1.0
  9
$DIMGAP
 40
0.09
  9
$DIMJUST
 70
     0
  9
$DIMSD1
 70
     0
  9
$DIMSD2
 70
     0
  9
$DIMTOLJ
 70
     1
  9
$DIMTZIN
 70
     0
  9
$DIMALTZ
 70
     0
  9
$DIMALTTZ
 70
     0
  9
$DIMFIT
 70
     3
  9
$DIMUPT
 70
     0
  9
$DIMUNIT
 70
     2
  9
$DIMDEC
 70
     4
  9
$DIMTDEC
 70
     4
  9
$DIMALTU
 70
     2
  9
$DIMALTTD
 70
     2
  9
$DIMTXSTY
  7
STANDARD
  9
$DIMAUNIT
 70
     0
  9
$LUNITS
 70
     2
  9
$LUPREC
 70
     4
  9
$SKETCHINC
 40
0.1
  9
$FILLETRAD
 40
0.0
  9
$AUNITS
 70
     0
  9
$AUPREC
 70
     0
  9
$MENU
  1
.
  9
$ELEVATION
 40
0.0
  9
$PELEVATION
 40
0.0
  9
$THICKNESS
 40
0.0
  9
$LIMCHECK
 70
     0
  9
$BLIPMODE
 70
     0
  9
$CHAMFERA
 40
0.0
  9
$CHAMFERB
 40
0.0
  9
$CHAMFERC
 40
0.0
  9
$CHAMFERD
 40
0.0
  9
$SKPOLY
 70
     0
  9
$TDCREATE
 40
2453411.596429143
  9
$TDUPDATE
 40
2453411.606293888
  9
$TDINDWG
 40
0.0046463542
  9
$TDUSRTIMER
 40
0.0046463542
  9
$USRTIMER
 70
     1
  9
$ANGBASE
 50
0.0
  9
$ANGDIR
 70
     0
  9
$PDMODE
 70
     0
  9
$PDSIZE
 40
0.0
  9
$PLINEWID
 40
0.0
  9
$COORDS
 70
     1
  9
$SPLFRAME
 70
     0
  9
$SPLINETYPE
 70
     6
  9
$SPLINESEGS
 70
     8
  9
$ATTDIA
 70
     0
  9
$ATTREQ
 70
     1
  9
$HANDLING
 70
-16383
  9
$HANDSEED
  5
510
  9
$SURFTAB1
 70
     6
  9
$SURFTAB2
 70
     6
  9
$SURFTYPE
 70
     6
  9
$SURFU
 70
     6
  9
$SURFV
 70
     6
  9
$UCSNAME
  2

  9
$UCSORG
 10
0.0
 20
0.0
 30
0.0
  9
$UCSXDIR
 10
1.0
 20
0.0
 30
0.0
  9
$UCSYDIR
 10
0.0
 20
1.0
 30
0.0
  9
$PUCSNAME
  2

  9
$PUCSORG
 10
0.0
 20
0.0
 30
0.0
  9
$PUCSXDIR
 10
1.0
 20
0.0
 30
0.0
  9
$PUCSYDIR
 10
0.0
 20
1.0
 30
0.0
  9
$USERI1
 70
     0
  9
$USERI2
 70
     0
  9
$USERI3
 70
     0
  9
$USERI4
 70
     0
  9
$USERI5
 70
     0
  9
$USERR1
 40
0.0
  9
$USERR2
 40
0.0
  9
$USERR3
 40
0.0
  9
$USERR4
 40
0.0
  9
$USERR5
 40
0.0
  9
$WORLDVIEW
 70
     1
  9
$SHADEDGE
 70
     3
  9
$SHADEDIF
 70
    70
  9
$TILEMODE
 70
     1
  9
$MAXACTVP
 70
    64
  9
$PINSBASE
 10
0.0
 20
0.0
 30
0.0
  9
$PLIMCHECK
 70
     0
  9
$PEXTMIN
 10
1.000000000000000E+20
 20
1.000000000000000E+20
 30
1.000000000000000E+20
  9
$PEXTMAX
 10
-1.000000000000000E+20
 20
-1.000000000000000E+20
 30
-1.000000000000000E+20
  9
$PLIMMIN
 10
0.0
 20
0.0
  9
$PLIMMAX
 10
12.0
 20
9.0
  9
$UNITMODE
 70
     0
  9
$VISRETAIN
 70
     1
  9
$PLINEGEN
 70
     0
  9
$PSLTSCALE
 70
     1
  9
$TREEDEPTH
 70
  3020
  9
$PICKSTYLE
 70
     1
  9
$CMLSTYLE
  2
STANDARD
  9
$CMLJUST
 70
     0
  9
$CMLSCALE
 40
1.0
  9
$PROXYGRAPHICS
 70
     1
  9
$MEASUREMENT
 70
     0
  0
ENDSEC
  0
SECTION
  2
CLASSES
  0
CLASS
  1
ACDBDICTIONARYWDFLT
  2
AcDbDictionaryWithDefault
  3
AutoCAD 2000
 90
        0
280
     0
281
     0
  0
CLASS
  1
ACDBPLACEHOLDER
  2
AcDbPlaceHolder
  3
AutoCAD 2000
 90
        0
280
     0
281
     0
  0
CLASS
  1
LAYOUT
  2
AcDbLayout
  3
AutoCAD 2000
 90
        0
280
     0
281
     0
  0
CLASS
  1
LONG_TRANSACTION
  2
AcDbLongTransaction
  3
AutoCAD 2000
 90
        0
280
     0
281
     0
  0
CLASS
  1
LWPOLYLINE
  2
AcDbPolyline
  3
AutoCAD 2000
 90
        0
280
     0
281
     1
  0
CLASS
  1
HATCH
  2
AcDbHatch
  3
AutoCAD 2000
 90
        0
280
     0
281
     1
  0
CLASS
  1
XRECORD
  2
AcDbXrecord
  3
AutoCAD 2000
 90
        0
280
     0
281
     0
  0
CLASS
  1
LONG_TRANSACTION
  2
AcDbLongTransaction
  3
AutoCAD 2000
 90
        0
280
     0
281
     0
  0
CLASS
  1
LWPOLYLINE
  2
AcDbPolyline
  3
AutoCAD 2000
 90
        0
280
     0
281
     1
  0
CLASS
  1
HATCH
  2
AcDbHatch
  3
AutoCAD 2000
 90
        0
280
     0
281
     1
  0
CLASS
  1
XRECORD
  2
AcDbXrecord
  3
AutoCAD 2000
 90
        0
280
     0
281
     0
  0
ENDSEC
  0
SECTION
  2
TABLES
  0
TABLE
  2
VPORT
  5
8
330
0
100
AcDbSymbolTable
 70
     2
  0
VPORT
  5
4ED
330
8
100
AcDbSymbolTableRecord
100
AcDbViewportTableRecord
  2
*ACTIVE
 70
     0
 10
0.0
 20
0.0
 11
1.0
 21
1.0
 12
9.250633070684617
 22
2.984543111377298
 13
0.0
 23
0.0
 14
1.0
 24
1.0
 15
0.0
 25
0.0
 16
0.0
 26
0.0
 36
1.0
 17
0.0
 27
0.0
 37
0.0
 40
12.55954370770482
 41
1.647569444444444
 42
50.0
 43
0.0
 44
0.0
 50
0.0
 51
0.0
 71
     0
 72
   100
 73
     1
 74
     1
 75
     0
 76
     0
 77
     0
 78
     0
  0
ENDTAB
  0
TABLE
  2
LTYPE
  5
5
330
0
100
AcDbSymbolTable
 70
    12
  0
LTYPE
  5
13
330
5
100
AcDbSymbolTableRecord
100
AcDbLinetypeTableRecord
  2
BYBLOCK
 70
     0
  3

 72
    65
 73
     0
 40
0.0
  0
LTYPE
  5
14
330
5
100
AcDbSymbolTableRecord
100
AcDbLinetypeTableRecord
  2
BYLAYER
 70
     0
  3

 72
    65
 73
     0
 40
0.0
  0
LTYPE
  5
15
330
5
100
AcDbSymbolTableRecord
100
AcDbLinetypeTableRecord
  2
CONTINUOUS
 70
     0
  3
Solid line
 72
    65
 73
     0
 40
0.0
  0
LTYPE
  5
22
330
5
100
AcDbSymbolTableRecord
100
AcDbLinetypeTableRecord
  2
DASHED
 70
     0
  3
__ __ __ __ __ __ __ __ __ __ __ __ __ __ __
 72
    65
 73
     2
 40
0.241926
 49
0.090722
 74
     0
 49
-0.045361
 74
     0
  0
LTYPE
  5
23
330
5
100
AcDbSymbolTableRecord
100
AcDbLinetypeTableRecord
  2
DOT
 70
     0
  3
...............................................
 72
    65
 73
     2
 40
0.045361
 49
0.0
 74
     0
 49
-0.045361
 74
     0
  0
LTYPE
  5
24
330
5
100
AcDbSymbolTableRecord
100
AcDbLinetypeTableRecord
  2
DASHDOT
 70
     0
  3
__ . __ . __ . __ . __ . __ . __ . __ . __ . __
 72
    65
 73
     4
 40
0.181444
 49
0.090722
 74
     0
 49
-0.045361
 74
     0
 49
0.0
 74
     0
 49
-0.045361
 74
     0
  0
LTYPE
  5
25
330
5
100
AcDbSymbolTableRecord
100
AcDbLinetypeTableRecord
  2
CENTER
 70
     0
  3
____ _ ____ _ ____ _ ____ _ ____ _ ____ _ ____
 72
    65
 73
     4
 40
0.362889
 49
0.226806
 74
     0
 49
-0.045361
 74
     0
 49
0.045361
 74
     0
 49
-0.045361
 74
     0
  0
LTYPE
  5
26
330
5
100
AcDbSymbolTableRecord
100
AcDbLinetypeTableRecord
  2
PHANTOM
 70
     0
  3
_____ _ _ _____ _ _ _____ _ _ _____ _ _ ____
 72
    65
 73
     6
 40
0.453611
 49
0.226806
 74
     0
 49
-0.045361
 74
     0
 49
0.045361
 74
     0
 49
-0.045361
 74
     0
 49
0.045361
 74
     0
 49
-0.045361
 74
     0
  0
LTYPE
  5
27
330
5
100
AcDbSymbolTableRecord
100
AcDbLinetypeTableRecord
  2
HIDDEN
 70
     0
  3
_ _ _ _ _ _ _ _ _ _ _ _ _ _ _ _ _ _ _ _ _ _ _
 72
    65
 73
     2
 40
0.181444
 49
0.120963
 74
     0
 49
-0.060481
 74
     0
  0
LTYPE
  5
28
330
5
100
AcDbSymbolTableRecord
100
AcDbLinetypeTableRecord
  2
BORDER
 70
     0
  3
__ __ . __ __ . __ __ . __ __ . __ __ . __ __
 72
    65
 73
     6
 40
0.317581
 49
0.045361
 74
     0
 49
-0.045361
 74
     0
 49
0.090722
 74
     0
 49
-0.045361
 74
     0
 49
0.0
 74
     0
 49
-0.045361
 74
     0
  0
LTYPE
  5
29
330
5
100
AcDbSymbolTableRecord
100
AcDbLinetypeTableRecord
  2
DIVIDE
 70
     0
  3
__ . . __ . . __ . . __ . . __ . . __ . . __
 72
    65
 73
     6
 40
-0.045361
 49
-0.045361
 74
     0
 49
-0.045361
 74
     0
 49
0.0
 74
     0
 49
-0.045361
 74
     0
 49
0.0
 74
     0
 49
-0.045361
 74
     0
  0
LTYPE
  5
2A
330
5
100
AcDbSymbolTableRecord
100
AcDbLinetypeTableRecord
  2
POINT31
 70
     0
  3
+                                          +
 72
    65
 73
     0
 40
0.0
  0
LTYPE
  5
2B
330
5
100
AcDbSymbolTableRecord
100
AcDbLinetypeTableRecord
  2
POINT63
 70
     0
  3
*                                          *
 72
    65
 73
     0
 40
0.0
  0
LTYPE
  5
2C
330
5
100
AcDbSymbolTableRecord
100
AcDbLinetypeTableRecord
  2
DBLDASH
 70
     0
  3
-- -- -- -- -- -- -- -- -- -- -- -- -- -- --
 72
    65
 73
     4
 40
0.15879
 49
0.045361
 74
     0
 49
-0.045361
 74
     0
 49
0.045361
 74
     0
 49
-0.045361
 74
     0
  0
ENDTAB
  0
TABLE
  2
LAYER
  5
2
330
0
100
AcDbSymbolTable
 70
     2
  0
LAYER
  5
10
330
2
100
AcDbSymbolTableRecord
100
AcDbLayerTableRecord
  2
0
 70
     0
 62
     5
  6
CONTINUOUS
  0
LAYER
  5
2D
330
2
100
AcDbSymbolTableRecord
100
AcDbLayerTableRecord
  2
4
 70
     0
 62
     5
  6
CONTINUOUS
  0
ENDTAB
  0
TABLE
  2
STYLE
  5
3
330
0
100
AcDbSymbolTable
 70
     1
  0
STYLE
  5
11
330
3
100
AcDbSymbolTableRecord
100
AcDbTextStyleTableRecord
  2
STANDARD
 70
     0
 40
0.0
 41
1.0
 50
0.0
 71
     0
 42
0.2
  3
txt
  4

  0
ENDTAB
  0
TABLE
  2
VIEW
  5
6
330
0
100
AcDbSymbolTable
 70
     0
  0
ENDTAB
  0
TABLE
  2
UCS
  5
7
330
0
100
AcDbSymbolTable
 70
     0
  0
ENDTAB
  0
TABLE
  2
APPID
  5
9
330
0
100
AcDbSymbolTable
 70
     1
  0
APPID
  5
12
330
9
100
AcDbSymbolTableRecord
100
AcDbRegAppTableRecord
  2
ACAD
 70
     0
  0
ENDTAB
  0
TABLE
  2
DIMSTYLE
  5
A
330
0
100
AcDbSymbolTable
 70
     1
  0
DIMSTYLE
105
343
330
A
100
AcDbSymbolTableRecord
100
AcDbDimStyleTableRecord
  2
STANDARD
 70
     0
  3

  4

  5

  6

  7

 40
1.0
 41
0.18
 42
0.0625
 43
0.38
 44
0.18
 45
0.0
 46
0.0
 47
0.0
 48
0.0
140
0.18
141
0.09
142
0.0
143
25.4
144
1.0
145
0.0
146
1.0
147
0.09
 71
     0
 72
     0
 73
     1
 74
     1
 75
     0
 76
     0
 77
     0
 78
     0
170
     0
171
     2
172
     0
173
     0
174
     0
175
     0
176
     0
177
     0
178
     0
270
     2
271
     4
272
     4
273
     2
274
     2
340
11
275
     0
280
     0
281
     0
282
     0
283
     1
284
     0
285
     0
286
     0
287
     3
288
     0
  0
ENDTAB
  0
TABLE
  2
BLOCK_RECORD
  5
1
330
0
100
AcDbSymbolTable
 70
     0
  0
BLOCK_RECORD
  5
1E
102
{ACAD_XDICTIONARY
360
4E5
102
}
330
1
100
AcDbSymbolTableRecord
100
AcDbBlockTableRecord
  2
*MODEL_SPACE
  0
BLOCK_RECORD
  5
1A
102
{ACAD_XDICTIONARY
360
4E3
102
}
330
1
100
AcDbSymbolTableRecord
100
AcDbBlockTableRecord
  2
*PAPER_SPACE
  0
ENDTAB
  0
ENDSEC
  0
SECTION
  2
BLOCKS
  0
BLOCK
  5
1F
330
1E
100
AcDbEntity
  8
0
100
AcDbBlockBegin
  2
*MODEL_SPACE
 70
     0
 10
0.0
 20
0.0
 30
0.0
  3
*MODEL_SPACE
  1

  0
ENDBLK
  5
20
330
1E
100
AcDbEntity
  8
0
100
AcDbBlockEnd
  0
BLOCK
  5
1B
330
1A
100
AcDbEntity
 67
     1
  8
0
100
AcDbBlockBegin
  2
*PAPER_SPACE
 70
     0
 10
0.0
 20
0.0
 30
0.0
  3
*PAPER_SPACE
  1

  0
ENDBLK
  5
1C
330
1A
100
AcDbEntity
 67
     1
  8
0
100
AcDbBlockEnd
  0
ENDSEC
  0
SECTION
  2
ENTITIES
  0
LINE
  5
30
330
1E
100
AcDbEntity
  8
0
  6
CONTINUOUS
 62
     5
100
AcDbLine
 10
19.34324999999998
 20
6.84375
 30
0.0
 11
19.37449999999998
 21
6.8125
 31
0.0
  0
LINE
  5
31
330
1E
100
AcDbEntity
  8
0
  6
HIDDEN
 62
     5
100
AcDbLine
 10
19.37449999999998
 20
6.8125
 30
0.0
 11
18.87449999999998
 21
6.8125
 31
0.0
  0
LINE
  5
32
330
1E
100
AcDbEntity
  8
0
  6
CONTINUOUS
 62
     5
100
AcDbLine
 10
18.87449999999998
 20
6.84375
 30
0.0
 11
19.34324999999998
 21
6.84375
 31
0.0
  0
LINE
  5
33
330
1E
100
AcDbEntity
  8
0
  6
CONTINUOUS
 62
     5
100
AcDbLine
 10
19.37449999999998
 20
6.5625
 30
0.0
 11
19.34324999999998
 21
6.53125
 31
0.0
  0
LINE
  5
34
330
1E
100
AcDbEntity
  8
0
  6
CONTINUOUS
 62
     5
100
AcDbLine
 10
19.34324999999998
 20
6.53125
 30
0.0
 11
18.87449999999998
 21
6.53125
 31
0.0
  0
LINE
  5
35
330
1E
100
AcDbEntity
  8
0
  6
HIDDEN
 62
     5
100
AcDbLine
 10
18.87449999999998
 20
6.5625
 30
0.0
 11
19.37449999999998
 21
6.5625
 31
0.0
  0
LINE
  5
36
330
1E
100
AcDbEntity
  8
0
  6
CONTINUOUS
 62
     5
100
AcDbLine
 10
19.37449999999998
 20
6.8125
 30
0.0
 11
19.37449999999998
 21
6.5625
 31
0.0
  0
LINE
  5
37
330
1E
100
AcDbEntity
  8
0
  6
CONTINUOUS
 62
     5
100
AcDbLine
 10
19.34324999999998
 20
6.84375
 30
0.0
 11
19.34324999999998
 21
6.53125
 31
0.0
  0
LINE
  5
38
330
1E
100
AcDbEntity
  8
0
  6
CONTINUOUS
 62
     5
100
AcDbLine
 10
18.18799999999999
 20
6.772499999999999
 30
0.0
 11
18.18799999999999
 21
6.96375
 31
0.0
  0
LINE
  5
39
330
1E
100
AcDbEntity
  8
0
  6
CONTINUOUS
 62
     5
100
AcDbLine
 10
18.43949999999999
 20
6.831338
 30
0.0
 11
18.1895
 21
6.975674999999998
 31
0.0
  0
LINE
  5
3A
330
1E
100
AcDbEntity
  8
0
  6
CONTINUOUS
 62
     5
100
AcDbLine
 10
18.2305
 20
6.6875
 30
0.0
 11
18.14549999999998
 21
6.6875
 31
0.0
  0
LINE
  5
3B
330
1E
100
AcDbEntity
  8
0
  6
CONTINUOUS
 62
     5
100
AcDbLine
 10
18.474875
 20
6.6875
 30
0.0
 11
18.283625
 21
6.6875
 31
0.0
  0
LINE
  5
3C
330
1E
100
AcDbEntity
  8
0
  6
CONTINUOUS
 62
     5
100
AcDbLine
 10
18.092375
 20
6.6875
 30
0.0
 11
17.92237499999999
 21
6.6875
 31
0.0
  0
LINE
  5
3D
330
1E
100
AcDbEntity
  8
0
  6
CONTINUOUS
 62
     5
100
AcDbLine
 10
18.18799999999999
 20
6.411249999999999
 30
0.0
 11
18.18799999999999
 21
6.6025
 31
0.0
  0
LINE
  5
3E
330
1E
100
AcDbEntity
  8
0
  6
CONTINUOUS
 62
     5
100
AcDbLine
 10
18.18799999999999
 20
6.655624999999998
 30
0.0
 11
18.18799999999999
 21
6.719375
 31
0.0
  0
CIRCLE
  5
3F
330
1E
100
AcDbEntity
  8
0
  6
CONTINUOUS
 62
     5
100
AcDbCircle
 10
18.18699999999998
 20
6.6875
 30
0.0
 40
0.249501
  0
LWPOLYLINE
  5
40
330
1E
100
AcDbEntity
  8
0
  6
CONTINUOUS
 62
     5
100
AcDbPolyline
 90
        6
 70
     0
 43
0.0
 10
18.4375
 20
6.831338
 10
18.4375
 20
6.542661999999999
 10
18.1875
 20
6.398324999999998
 10
17.9375
 20
6.542661999999999
 10
17.9375
 20
6.831338
 10
18.1875
 20
6.975674999999998
  0
LINE
  5
48
330
1E
100
AcDbEntity
  8
0
  6
CONTINUOUS
 62
     5
100
AcDbLine
 10
18.49949999999998
 20
6.4375
 30
0.0
 11
18.49949999999998
 21
6.9375
 31
0.0
  0
LINE
  5
49
330
1E
100
AcDbEntity
  8
0
  6
CONTINUOUS
 62
     5
100
AcDbLine
 10
18.53074999999998
 20
6.976174999999998
 30
0.0
 11
18.74949999999998
 21
6.976174999999998
 31
0.0
  0
LINE
  5
4A
330
1E
100
AcDbEntity
  8
0
  6
CONTINUOUS
 62
     5
100
AcDbLine
 10
18.74949999999998
 20
6.831838
 30
0.0
 11
18.53074999999998
 21
6.831838
 31
0.0
  0
LINE
  5
4B
330
1E
100
AcDbEntity
  8
0
  6
CONTINUOUS
 62
     5
100
AcDbLine
 10
18.53074999999998
 20
6.543162
 30
0.0
 11
18.74949999999998
 21
6.543162
 31
0.0
  0
LINE
  5
4C
330
1E
100
AcDbEntity
  8
0
  6
CONTINUOUS
 62
     5
100
AcDbLine
 10
18.74949999999998
 20
6.398825
 30
0.0
 11
18.53074999999998
 21
6.398825
 31
0.0
  0
LINE
  5
4D
330
1E
100
AcDbEntity
  8
0
  6
CONTINUOUS
 62
     5
100
AcDbLine
 10
18.53074999999998
 20
6.976174999999998
 30
0.0
 11
18.49949999999998
 21
6.9375
 31
0.0
  0
ARC
  5
4E
330
1E
100
AcDbEntity
  8
0
  6
CONTINUOUS
 62
     5
100
AcDbCircle
 10
18.59845799999999
 20
6.904005999999998
 30
0.0
 40
0.098958
100
AcDbArc
 50
133.173551
 51
226.826446
  0
LINE
  5
4F
330
1E
100
AcDbEntity
  8
0
  6
CONTINUOUS
 62
     5
100
AcDbLine
 10
18.37449999999998
 20
6.6875
 30
0.0
 11
19.53074999999998
 21
6.6875
 31
0.0
  0
LINE
  5
50
330
1E
100
AcDbEntity
  8
0
  6
CONTINUOUS
 62
     5
100
AcDbLine
 10
17.87549999999999
 20
7.0
 30
0.0
 11
18.8755
 21
7.0
 31
0.0
  0
LINE
  5
51
330
1E
100
AcDbEntity
  8
0
  6
CONTINUOUS
 62
     5
100
AcDbLine
 10
18.53074999999998
 20
6.398825
 30
0.0
 11
18.49949999999998
 21
6.4375
 31
0.0
  0
ARC
  5
52
330
1E
100
AcDbEntity
  8
0
  6
CONTINUOUS
 62
     5
100
AcDbCircle
 10
18.59845799999999
 20
6.470994
 30
0.0
 40
0.098958
100
AcDbArc
 50
133.173551
 51
226.826446
  0
ARC
  5
53
330
1E
100
AcDbEntity
  8
0
  6
CONTINUOUS
 62
     5
100
AcDbCircle
 10
18.84845799999999
 20
6.6875
 30
0.0
 40
0.348958
100
AcDbArc
 50
155.567302
 51
204.4326949999999
  0
LINE
  5
54
330
1E
100
AcDbEntity
  8
0
  6
CONTINUOUS
 62
     5
100
AcDbLine
 10
17.0
 20
5.687999999999998
 30
0.0
 11
17.0
 21
6.717999999999999
 31
0.0
  0
CIRCLE
  5
55
330
1E
100
AcDbEntity
  8
0
  6
CONTINUOUS
 62
     5
100
AcDbCircle
 10
17.0
 20
6.202999999999999
 30
0.0
 40
0.3439999999999999
  0
CIRCLE
  5
56
330
1E
100
AcDbEntity
  8
0
  6
CONTINUOUS
 62
     5
100
AcDbCircle
 10
17.0
 20
6.202999999999999
 30
0.0
 40
0.308
  0
ARC
  5
57
330
1E
100
AcDbEntity
  8
0
  6
CONTINUOUS
 62
     5
100
AcDbCircle
 10
17.0
 20
6.202999999999999
 30
0.0
 40
0.361
100
AcDbArc
 50
85.00000099999999
 51
5.0
  0
CIRCLE
  5
58
330
1E
100
AcDbEntity
  8
0
  6
CONTINUOUS
 62
     5
100
AcDbCircle
 10
17.0
 20
6.202999999999999
 30
0.0
 40
0.43
  0
TEXT
  5
59
330
1E
100
AcDbEntity
  8
0
 62
     5
100
AcDbText
 10
16.327566
 20
6.671372999999999
 30
0.0
 40
0.188
  1
T
 50
90.0
 41
0.9000000000000071
 72
     5
 11
16.327566
 21
6.784173
 31
0.0
100
AcDbText
  0
LINE
  5
5A
330
1E
100
AcDbEntity
  8
0
  6
CONTINUOUS
 62
     5
100
AcDbLine
 10
16.485
 20
6.202999999999999
 30
0.0
 11
17.515
 21
6.202999999999999
 31
0.0
  0
LINE
  5
5B
330
1E
100
AcDbEntity
  8
0
  6
CONTINUOUS
 62
     5
100
AcDbLine
 10
18.5
 20
7.0
 30
0.0
 11
15.5
 21
7.0
 31
0.0
  0
LINE
  5
82
330
1E
100
AcDbEntity
  8
0
  6
CONTINUOUS
 62
     5
100
AcDbLine
 10
14.187
 20
6.772499999999999
 30
0.0
 11
14.187
 21
6.96375
 31
0.0
  0
LINE
  5
83
330
1E
100
AcDbEntity
  8
0
  6
CONTINUOUS
 62
     5
100
AcDbLine
 10
14.1445
 20
6.6875
 30
0.0
 11
14.2295
 21
6.6875
 31
0.0
  0
ARC
  5
84
330
1E
100
AcDbEntity
  8
0
  6
CONTINUOUS
 62
     5
100
AcDbCircle
 10
13.776542
 20
6.904005999999998
 30
0.0
 40
0.098958
100
AcDbArc
 50
313.173554
 51
46.82644899999999
  0
LINE
  5
85
330
1E
100
AcDbEntity
  8
0
  6
CONTINUOUS
 62
     5
100
AcDbLine
 10
13.84425
 20
6.976174999999998
 30
0.0
 11
13.8755
 21
6.9375
 31
0.0
  0
LINE
  5
86
330
1E
100
AcDbEntity
  8
0
  6
CONTINUOUS
 62
     5
100
AcDbLine
 10
13.9335
 20
6.831338
 30
0.0
 11
14.1835
 21
6.975674999999998
 31
0.0
  0
LINE
  5
87
330
1E
100
AcDbEntity
  8
0
  6
CONTINUOUS
 62
     5
100
AcDbLine
 10
13.900125
 20
6.6875
 30
0.0
 11
14.09137499999999
 21
6.6875
 31
0.0
  0
LINE
  5
88
330
1E
100
AcDbEntity
  8
0
  6
CONTINUOUS
 62
     5
100
AcDbLine
 10
14.187
 20
6.411249999999999
 30
0.0
 11
14.187
 21
6.6025
 31
0.0
  0
ARC
  5
89
330
1E
100
AcDbEntity
  8
0
  6
CONTINUOUS
 62
     5
100
AcDbCircle
 10
13.776542
 20
6.470994
 30
0.0
 40
0.098958
100
AcDbArc
 50
313.173554
 51
46.82644899999999
  0
LINE
  5
8A
330
1E
100
AcDbEntity
  8
0
  6
CONTINUOUS
 62
     5
100
AcDbLine
 10
13.84425
 20
6.398825
 30
0.0
 11
13.8755
 21
6.4375
 31
0.0
  0
LINE
  5
8B
330
1E
100
AcDbEntity
  8
0
  6
CONTINUOUS
 62
     5
100
AcDbLine
 10
14.187
 20
6.655624999999998
 30
0.0
 11
14.187
 21
6.719375
 31
0.0
  0
LINE
  5
8C
330
1E
100
AcDbEntity
  8
0
  6
CONTINUOUS
 62
     5
100
AcDbLine
 10
13.8755
 20
6.4375
 30
0.0
 11
13.8755
 21
6.9375
 31
0.0
  0
ARC
  5
8D
330
1E
100
AcDbEntity
  8
0
  6
CONTINUOUS
 62
     5
100
AcDbCircle
 10
13.52654199999999
 20
6.6875
 30
0.0
 40
0.348958
100
AcDbArc
 50
335.567305
 51
24.432698
  0
LINE
  5
8E
330
1E
100
AcDbEntity
  8
0
  6
CONTINUOUS
 62
     5
100
AcDbLine
 10
13.84425
 20
6.976174999999998
 30
0.0
 11
13.6255
 21
6.976174999999998
 31
0.0
  0
LINE
  5
8F
330
1E
100
AcDbEntity
  8
0
  6
CONTINUOUS
 62
     5
100
AcDbLine
 10
13.6255
 20
6.831838
 30
0.0
 11
13.84425
 21
6.831838
 31
0.0
  0
LINE
  5
90
330
1E
100
AcDbEntity
  8
0
  6
CONTINUOUS
 62
     5
100
AcDbLine
 10
13.6255
 20
6.398825
 30
0.0
 11
13.84425
 21
6.398825
 31
0.0
  0
LINE
  5
91
330
1E
100
AcDbEntity
  8
0
  6
CONTINUOUS
 62
     5
100
AcDbLine
 10
13.84425
 20
6.543162
 30
0.0
 11
13.6255
 21
6.543162
 31
0.0
  0
LINE
  5
92
330
1E
100
AcDbEntity
  8
0
  6
CONTINUOUS
 62
     5
100
AcDbLine
 10
14.0005
 20
6.6875
 30
0.0
 11
13.430419
 21
6.6875
 31
0.0
  0
LINE
  5
93
330
1E
100
AcDbEntity
  8
0
  6
CONTINUOUS
 62
     5
100
AcDbLine
 10
14.28262499999999
 20
6.6875
 30
0.0
 11
14.452625
 21
6.6875
 31
0.0
  0
CIRCLE
  5
94
330
1E
100
AcDbEntity
  8
0
  6
CONTINUOUS
 62
     5
100
AcDbCircle
 10
14.188
 20
6.6875
 30
0.0
 40
0.249501
  0
LWPOLYLINE
  5
95
330
1E
100
AcDbEntity
  8
0
  6
CONTINUOUS
 62
     5
100
AcDbPolyline
 90
        6
 70
     0
 43
0.0
 10
13.9375
 20
6.831338
 10
13.9375
 20
6.542661999999999
 10
14.1875
 20
6.398324999999998
 10
14.4375
 20
6.542661999999999
 10
14.4375
 20
6.831338
 10
14.1875
 20
6.975674999999998
  0
LINE
  5
9D
330
1E
100
AcDbEntity
  8
0
  6
CONTINUOUS
 62
     5
100
AcDbLine
 10
14.4995
 20
7.0
 30
0.0
 11
13.49949999999999
 21
7.0
 31
0.0
  0
LINE
  5
9E
330
1E
100
AcDbEntity
  8
0
  6
CONTINUOUS
 62
     5
100
AcDbLine
 10
8.682
 20
6.405999999999998
 30
0.0
 11
8.91
 21
6.405999999999998
 31
0.0
  0
CIRCLE
  5
9F
330
1E
100
AcDbEntity
  8
0
  6
CONTINUOUS
 62
     5
100
AcDbCircle
 10
8.795999999999999
 20
6.405999999999998
 30
0.0
 40
0.075
  0
LINE
  5
A0
330
1E
100
AcDbEntity
  8
0
  6
CONTINUOUS
 62
     5
100
AcDbLine
 10
8.698
 20
5.642
 30
0.0
 11
8.680999999999999
 21
5.657999999999999
 31
0.0
  0
LINE
  5
A1
330
1E
100
AcDbEntity
  8
0
  6
CONTINUOUS
 62
     5
100
AcDbLine
 10
8.727999999999997
 20
5.583999999999998
 30
0.0
 11
8.721999999999999
 21
5.605
 31
0.0
  0
LINE
  5
A2
330
1E
100
AcDbEntity
  8
0
  6
CONTINUOUS
 62
     5
100
AcDbLine
 10
8.73
 20
5.562
 30
0.0
 11
8.727999999999997
 21
5.583999999999998
 31
0.0
  0
LINE
  5
A3
330
1E
100
AcDbEntity
  8
0
  6
CONTINUOUS
 62
     5
100
AcDbLine
 10
8.727999999999997
 20
5.54
 30
0.0
 11
8.73
 21
5.562
 31
0.0
  0
LINE
  5
A4
330
1E
100
AcDbEntity
  8
0
  6
CONTINUOUS
 62
     5
100
AcDbLine
 10
8.711999999999997
 20
5.625
 30
0.0
 11
8.698
 21
5.642
 31
0.0
  0
LINE
  5
A5
330
1E
100
AcDbEntity
  8
0
  6
CONTINUOUS
 62
     5
100
AcDbLine
 10
8.721999999999999
 20
5.605
 30
0.0
 11
8.711999999999997
 21
5.625
 31
0.0
  0
LINE
  5
A6
330
1E
100
AcDbEntity
  8
0
  6
CONTINUOUS
 62
     5
100
AcDbLine
 10
8.592
 20
5.687
 30
0.0
 11
8.568999999999999
 21
5.684999999999998
 31
0.0
  0
LINE
  5
A7
330
1E
100
AcDbEntity
  8
0
  6
CONTINUOUS
 62
     5
100
AcDbLine
 10
8.615999999999999
 20
5.684999999999998
 30
0.0
 11
8.592
 21
5.687
 31
0.0
  0
LINE
  5
A8
330
1E
100
AcDbEntity
  8
0
  6
CONTINUOUS
 62
     5
100
AcDbLine
 10
8.503999999999999
 20
5.657999999999999
 30
0.0
 11
8.487
 21
5.642
 31
0.0
  0
LINE
  5
A9
330
1E
100
AcDbEntity
  8
0
  6
CONTINUOUS
 62
     5
100
AcDbLine
 10
8.523999999999999
 20
5.669999999999999
 30
0.0
 11
8.503999999999999
 21
5.657999999999999
 31
0.0
  0
LINE
  5
AA
330
1E
100
AcDbEntity
  8
0
  6
CONTINUOUS
 62
     5
100
AcDbLine
 10
8.544999999999998
 20
5.678999999999999
 30
0.0
 11
8.523999999999999
 21
5.669999999999999
 31
0.0
  0
LINE
  5
AB
330
1E
100
AcDbEntity
  8
0
  6
CONTINUOUS
 62
     5
100
AcDbLine
 10
8.568999999999999
 20
5.684999999999998
 30
0.0
 11
8.544999999999998
 21
5.678999999999999
 31
0.0
  0
LINE
  5
AC
330
1E
100
AcDbEntity
  8
0
  6
CONTINUOUS
 62
     5
100
AcDbLine
 10
8.455
 20
5.562
 30
0.0
 11
8.457
 21
5.54
 31
0.0
  0
LINE
  5
AD
330
1E
100
AcDbEntity
  8
0
  6
CONTINUOUS
 62
     5
100
AcDbLine
 10
8.457
 20
5.583999999999998
 30
0.0
 11
8.455
 21
5.562
 31
0.0
  0
LINE
  5
AE
330
1E
100
AcDbEntity
  8
0
  6
CONTINUOUS
 62
     5
100
AcDbLine
 10
8.462999999999999
 20
5.605
 30
0.0
 11
8.457
 21
5.583999999999998
 31
0.0
  0
LINE
  5
AF
330
1E
100
AcDbEntity
  8
0
  6
CONTINUOUS
 62
     5
100
AcDbLine
 10
8.487
 20
5.642
 30
0.0
 11
8.472999999999998
 21
5.625
 31
0.0
  0
LINE
  5
B0
330
1E
100
AcDbEntity
  8
0
  6
CONTINUOUS
 62
     5
100
AcDbLine
 10
8.472999999999998
 20
5.625
 30
0.0
 11
8.462999999999999
 21
5.605
 31
0.0
  0
LINE
  5
B1
330
1E
100
AcDbEntity
  8
0
  6
CONTINUOUS
 62
     5
100
AcDbLine
 10
8.680999999999999
 20
5.657999999999999
 30
0.0
 11
8.660999999999999
 21
5.669999999999999
 31
0.0
  0
LINE
  5
B2
330
1E
100
AcDbEntity
  8
0
  6
CONTINUOUS
 62
     5
100
AcDbLine
 10
8.660999999999999
 20
5.669999999999999
 30
0.0
 11
8.64
 21
5.678999999999999
 31
0.0
  0
LINE
  5
B3
330
1E
100
AcDbEntity
  8
0
  6
CONTINUOUS
 62
     5
100
AcDbLine
 10
8.64
 20
5.678999999999999
 30
0.0
 11
8.615999999999999
 21
5.684999999999998
 31
0.0
  0
LINE
  5
B4
330
1E
100
AcDbEntity
  8
0
  6
CONTINUOUS
 62
     5
100
AcDbLine
 10
8.442999999999999
 20
5.562
 30
0.0
 11
8.742
 21
5.562
 31
0.0
  0
LINE
  5
B5
330
1E
100
AcDbEntity
  8
0
  6
CONTINUOUS
 62
     5
100
AcDbLine
 10
8.294999999999998
 20
5.969999999999998
 30
0.0
 11
8.282
 21
5.988999999999998
 31
0.0
  0
LINE
  5
B6
330
1E
100
AcDbEntity
  8
0
  6
CONTINUOUS
 62
     5
100
AcDbLine
 10
8.304
 20
5.95
 30
0.0
 11
8.294999999999998
 21
5.969999999999998
 31
0.0
  0
LINE
  5
B7
330
1E
100
AcDbEntity
  8
0
  6
CONTINUOUS
 62
     5
100
AcDbLine
 10
8.308999999999999
 20
5.927999999999999
 30
0.0
 11
8.304
 21
5.95
 31
0.0
  0
LINE
  5
B8
330
1E
100
AcDbEntity
  8
0
  6
CONTINUOUS
 62
     5
100
AcDbLine
 10
8.304
 20
5.860999999999998
 30
0.0
 11
8.308999999999999
 21
5.882999999999999
 31
0.0
  0
LINE
  5
B9
330
1E
100
AcDbEntity
  8
0
  6
CONTINUOUS
 62
     5
100
AcDbLine
 10
8.294999999999998
 20
5.841
 30
0.0
 11
8.304
 21
5.860999999999998
 31
0.0
  0
LINE
  5
BA
330
1E
100
AcDbEntity
  8
0
  6
CONTINUOUS
 62
     5
100
AcDbLine
 10
8.282
 20
5.822999999999999
 30
0.0
 11
8.294999999999998
 21
5.841
 31
0.0
  0
LINE
  5
BB
330
1E
100
AcDbEntity
  8
0
  6
CONTINUOUS
 62
     5
100
AcDbLine
 10
8.266999999999999
 20
5.807
 30
0.0
 11
8.282
 21
5.822999999999999
 31
0.0
  0
LINE
  5
BC
330
1E
100
AcDbEntity
  8
0
  6
CONTINUOUS
 62
     5
100
AcDbLine
 10
8.310999999999998
 20
5.905999999999998
 30
0.0
 11
8.308999999999999
 21
5.927999999999999
 31
0.0
  0
LINE
  5
BD
330
1E
100
AcDbEntity
  8
0
  6
CONTINUOUS
 62
     5
100
AcDbLine
 10
8.308999999999999
 20
5.882999999999999
 30
0.0
 11
8.310999999999998
 21
5.905999999999998
 31
0.0
  0
LINE
  5
BE
330
1E
100
AcDbEntity
  8
0
  6
CONTINUOUS
 62
     5
100
AcDbLine
 10
8.282
 20
5.988999999999998
 30
0.0
 11
8.266999999999999
 21
6.004999999999999
 31
0.0
  0
LINE
  5
BF
330
1E
100
AcDbEntity
  8
0
  6
CONTINUOUS
 62
     5
100
AcDbLine
 10
8.249
 20
5.793999999999998
 30
0.0
 11
8.266999999999999
 21
5.807
 31
0.0
  0
LINE
  5
C0
330
1E
100
AcDbEntity
  8
0
  6
CONTINUOUS
 62
     5
100
AcDbLine
 10
8.228999999999999
 20
5.783999999999998
 30
0.0
 11
8.249
 21
5.793999999999998
 31
0.0
  0
LINE
  5
C1
330
1E
100
AcDbEntity
  8
0
  6
CONTINUOUS
 62
     5
100
AcDbLine
 10
8.164999999999999
 20
5.777999999999998
 30
0.0
 11
8.185999999999998
 21
5.775999999999998
 31
0.0
  0
LINE
  5
C2
330
1E
100
AcDbEntity
  8
0
  6
CONTINUOUS
 62
     5
100
AcDbLine
 10
8.208
 20
5.777999999999998
 30
0.0
 11
8.228999999999999
 21
5.783999999999998
 31
0.0
  0
LINE
  5
C3
330
1E
100
AcDbEntity
  8
0
  6
CONTINUOUS
 62
     5
100
AcDbLine
 10
8.185999999999998
 20
5.775999999999998
 30
0.0
 11
8.208
 21
5.777999999999998
 31
0.0
  0
LINE
  5
C4
330
1E
100
AcDbEntity
  8
0
  6
CONTINUOUS
 62
     5
100
AcDbLine
 10
8.249
 20
6.017999999999998
 30
0.0
 11
8.228999999999999
 21
6.027
 31
0.0
  0
LINE
  5
C5
330
1E
100
AcDbEntity
  8
0
  6
CONTINUOUS
 62
     5
100
AcDbLine
 10
8.266999999999999
 20
6.004999999999999
 30
0.0
 11
8.249
 21
6.017999999999998
 31
0.0
  0
LINE
  5
C6
330
1E
100
AcDbEntity
  8
0
  6
CONTINUOUS
 62
     5
100
AcDbLine
 10
8.185999999999998
 20
6.035
 30
0.0
 11
8.164999999999999
 21
6.032999999999999
 31
0.0
  0
LINE
  5
C7
330
1E
100
AcDbEntity
  8
0
  6
CONTINUOUS
 62
     5
100
AcDbLine
 10
8.185999999999998
 20
5.756
 30
0.0
 11
8.185999999999998
 21
6.056
 31
0.0
  0
LINE
  5
C8
330
1E
100
AcDbEntity
  8
0
  6
CONTINUOUS
 62
     5
100
AcDbLine
 10
8.208
 20
6.032999999999999
 30
0.0
 11
8.185999999999998
 21
6.035
 31
0.0
  0
LINE
  5
C9
330
1E
100
AcDbEntity
  8
0
  6
CONTINUOUS
 62
     5
100
AcDbLine
 10
8.228999999999999
 20
6.027
 30
0.0
 11
8.208
 21
6.032999999999999
 31
0.0
  0
LINE
  5
CA
330
1E
100
AcDbEntity
  8
0
  6
CONTINUOUS
 62
     5
100
AcDbLine
 10
8.795999999999999
 20
6.291999999999998
 30
0.0
 11
8.795999999999999
 21
6.519999999999998
 31
0.0
  0
ARC
  5
CB
330
1E
100
AcDbEntity
  8
4
  6
CONTINUOUS
 62
     5
100
AcDbCircle
 10
8.795999999999999
 20
6.405999999999998
 30
0.0
 40
0.087
100
AcDbArc
 50
85.00000099999999
 51
5.0
  0
CIRCLE
  5
CC
330
1E
100
AcDbEntity
  8
0
  6
CONTINUOUS
 62
     5
100
AcDbCircle
 10
8.795999999999999
 20
6.405999999999998
 30
0.0
 40
0.095
  0
LINE
  5
CD
330
1E
100
AcDbEntity
  8
0
  6
CONTINUOUS
 62
     5
100
AcDbLine
 10
7.462999999999999
 20
6.405999999999998
 30
0.0
 11
7.690999999999998
 21
6.405999999999998
 31
0.0
  0
CIRCLE
  5
CE
330
1E
100
AcDbEntity
  8
0
  6
CONTINUOUS
 62
     5
100
AcDbCircle
 10
7.576999999999999
 20
6.405999999999998
 30
0.0
 40
0.075
  0
LINE
  5
CF
330
1E
100
AcDbEntity
  8
0
  6
CONTINUOUS
 62
     5
100
AcDbLine
 10
8.105999999999998
 20
5.807
 30
0.0
 11
8.124
 21
5.793999999999998
 31
0.0
  0
LINE
  5
D0
330
1E
100
AcDbEntity
  8
0
  6
CONTINUOUS
 62
     5
100
AcDbLine
 10
8.060999999999998
 20
5.905999999999998
 30
0.0
 11
8.062999999999998
 21
5.882999999999999
 31
0.0
  0
LINE
  5
D1
330
1E
100
AcDbEntity
  8
0
  6
CONTINUOUS
 62
     5
100
AcDbLine
 10
8.062999999999998
 20
5.882999999999999
 30
0.0
 11
8.068999999999999
 21
5.860999999999998
 31
0.0
  0
LINE
  5
D2
330
1E
100
AcDbEntity
  8
0
  6
CONTINUOUS
 62
     5
100
AcDbLine
 10
8.062999999999998
 20
5.927999999999999
 30
0.0
 11
8.060999999999998
 21
5.905999999999998
 31
0.0
  0
LINE
  5
D3
330
1E
100
AcDbEntity
  8
0
  6
CONTINUOUS
 62
     5
100
AcDbLine
 10
8.068999999999999
 20
5.95
 30
0.0
 11
8.062999999999998
 21
5.927999999999999
 31
0.0
  0
LINE
  5
D4
330
1E
100
AcDbEntity
  8
0
  6
CONTINUOUS
 62
     5
100
AcDbLine
 10
8.068999999999999
 20
5.860999999999998
 30
0.0
 11
8.077999999999999
 21
5.841
 31
0.0
  0
LINE
  5
D5
330
1E
100
AcDbEntity
  8
0
  6
CONTINUOUS
 62
     5
100
AcDbLine
 10
8.077999999999999
 20
5.841
 30
0.0
 11
8.089999999999998
 21
5.822999999999999
 31
0.0
  0
LINE
  5
D6
330
1E
100
AcDbEntity
  8
0
  6
CONTINUOUS
 62
     5
100
AcDbLine
 10
8.089999999999998
 20
5.822999999999999
 30
0.0
 11
8.105999999999998
 21
5.807
 31
0.0
  0
LINE
  5
D7
330
1E
100
AcDbEntity
  8
0
  6
CONTINUOUS
 62
     5
100
AcDbLine
 10
8.077999999999999
 20
5.969999999999998
 30
0.0
 11
8.068999999999999
 21
5.95
 31
0.0
  0
LINE
  5
D8
330
1E
100
AcDbEntity
  8
0
  6
CONTINUOUS
 62
     5
100
AcDbLine
 10
8.089999999999998
 20
5.988999999999998
 30
0.0
 11
8.077999999999999
 21
5.969999999999998
 31
0.0
  0
LINE
  5
D9
330
1E
100
AcDbEntity
  8
0
  6
CONTINUOUS
 62
     5
100
AcDbLine
 10
8.105999999999998
 20
6.004999999999999
 30
0.0
 11
8.089999999999998
 21
5.988999999999998
 31
0.0
  0
LINE
  5
DA
330
1E
100
AcDbEntity
  8
0
  6
CONTINUOUS
 62
     5
100
AcDbLine
 10
8.124
 20
6.017999999999998
 30
0.0
 11
8.105999999999998
 21
6.004999999999999
 31
0.0
  0
LINE
  5
DB
330
1E
100
AcDbEntity
  8
0
  6
CONTINUOUS
 62
     5
100
AcDbLine
 10
7.905
 20
5.562
 30
0.0
 11
7.902999999999998
 21
5.583999999999998
 31
0.0
  0
LINE
  5
DC
330
1E
100
AcDbEntity
  8
0
  6
CONTINUOUS
 62
     5
100
AcDbLine
 10
7.902999999999998
 20
5.54
 30
0.0
 11
7.905
 21
5.562
 31
0.0
  0
LINE
  5
DD
330
1E
100
AcDbEntity
  8
0
  6
CONTINUOUS
 62
     5
100
AcDbLine
 10
7.902999999999998
 20
5.583999999999998
 30
0.0
 11
7.897
 21
5.605999999999998
 31
0.0
  0
LINE
  5
DE
330
1E
100
AcDbEntity
  8
0
  6
CONTINUOUS
 62
     5
100
AcDbLine
 10
7.897
 20
5.605999999999998
 30
0.0
 11
7.887999999999999
 21
5.626999999999998
 31
0.0
  0
LINE
  5
DF
330
1E
100
AcDbEntity
  8
0
  6
CONTINUOUS
 62
     5
100
AcDbLine
 10
7.841999999999998
 20
5.673999999999999
 30
0.0
 11
7.822999999999999
 21
5.684
 31
0.0
  0
LINE
  5
E0
330
1E
100
AcDbEntity
  8
0
  6
CONTINUOUS
 62
     5
100
AcDbLine
 10
7.7
 20
5.660999999999998
 30
0.0
 11
7.684
 21
5.644999999999998
 31
0.0
  0
LINE
  5
E1
330
1E
100
AcDbEntity
  8
0
  6
CONTINUOUS
 62
     5
100
AcDbLine
 10
7.716999999999998
 20
5.673999999999999
 30
0.0
 11
7.7
 21
5.660999999999998
 31
0.0
  0
LINE
  5
E2
330
1E
100
AcDbEntity
  8
0
  6
CONTINUOUS
 62
     5
100
AcDbLine
 10
7.737
 20
5.684
 30
0.0
 11
7.716999999999998
 21
5.673999999999999
 31
0.0
  0
LINE
  5
E3
330
1E
100
AcDbEntity
  8
0
  6
CONTINUOUS
 62
     5
100
AcDbLine
 10
7.757999999999999
 20
5.689
 30
0.0
 11
7.737
 21
5.684
 31
0.0
  0
LINE
  5
E4
330
1E
100
AcDbEntity
  8
0
  6
CONTINUOUS
 62
     5
100
AcDbLine
 10
7.657
 20
5.583999999999998
 30
0.0
 11
7.655
 21
5.562
 31
0.0
  0
LINE
  5
E5
330
1E
100
AcDbEntity
  8
0
  6
CONTINUOUS
 62
     5
100
AcDbLine
 10
7.655
 20
5.562
 30
0.0
 11
7.657
 21
5.54
 31
0.0
  0
LINE
  5
E6
330
1E
100
AcDbEntity
  8
0
  6
CONTINUOUS
 62
     5
100
AcDbLine
 10
7.662999999999999
 20
5.605999999999998
 30
0.0
 11
7.657
 21
5.583999999999998
 31
0.0
  0
LINE
  5
E7
330
1E
100
AcDbEntity
  8
0
  6
CONTINUOUS
 62
     5
100
AcDbLine
 10
7.684
 20
5.644999999999998
 30
0.0
 11
7.671999999999998
 21
5.626999999999998
 31
0.0
  0
LINE
  5
E8
330
1E
100
AcDbEntity
  8
0
  6
CONTINUOUS
 62
     5
100
AcDbLine
 10
7.671999999999998
 20
5.626999999999998
 30
0.0
 11
7.662999999999999
 21
5.605999999999998
 31
0.0
  0
LINE
  5
E9
330
1E
100
AcDbEntity
  8
0
  6
CONTINUOUS
 62
     5
100
AcDbLine
 10
7.78
 20
5.690999999999998
 30
0.0
 11
7.757999999999999
 21
5.689
 31
0.0
  0
LINE
  5
EA
330
1E
100
AcDbEntity
  8
0
  6
CONTINUOUS
 62
     5
100
AcDbLine
 10
7.822999999999999
 20
5.684
 30
0.0
 11
7.801999999999998
 21
5.689
 31
0.0
  0
LINE
  5
EB
330
1E
100
AcDbEntity
  8
0
  6
CONTINUOUS
 62
     5
100
AcDbLine
 10
7.801999999999998
 20
5.689
 30
0.0
 11
7.78
 21
5.690999999999998
 31
0.0
  0
LINE
  5
EC
330
1E
100
AcDbEntity
  8
0
  6
CONTINUOUS
 62
     5
100
AcDbLine
 10
7.86
 20
5.660999999999998
 30
0.0
 11
7.841999999999998
 21
5.673999999999999
 31
0.0
  0
LINE
  5
ED
330
1E
100
AcDbEntity
  8
0
  6
CONTINUOUS
 62
     5
100
AcDbLine
 10
7.876
 20
5.644999999999998
 30
0.0
 11
7.86
 21
5.660999999999998
 31
0.0
  0
LINE
  5
EE
330
1E
100
AcDbEntity
  8
0
  6
CONTINUOUS
 62
     5
100
AcDbLine
 10
7.887999999999999
 20
5.626999999999998
 30
0.0
 11
7.876
 21
5.644999999999998
 31
0.0
  0
LINE
  5
EF
330
1E
100
AcDbEntity
  8
0
  6
CONTINUOUS
 62
     5
100
AcDbLine
 10
7.629999999999999
 20
5.562
 30
0.0
 11
7.929999999999998
 21
5.562
 31
0.0
  0
LINE
  5
F0
330
1E
100
AcDbEntity
  8
0
  6
CONTINUOUS
 62
     5
100
AcDbLine
 10
7.576999999999999
 20
6.291999999999998
 30
0.0
 11
7.576999999999999
 21
6.519999999999998
 31
0.0
  0
CIRCLE
  5
F1
330
1E
100
AcDbEntity
  8
0
  6
CONTINUOUS
 62
     5
100
AcDbCircle
 10
7.576999999999999
 20
6.405999999999998
 30
0.0
 40
0.095
  0
ARC
  5
F2
330
1E
100
AcDbEntity
  8
4
  6
CONTINUOUS
 62
     5
100
AcDbCircle
 10
7.576999999999999
 20
6.405999999999998
 30
0.0
 40
0.087
100
AcDbArc
 50
85.00000099999999
 51
5.0
  0
LINE
  5
F3
330
1E
100
AcDbEntity
  8
0
  6
CONTINUOUS
 62
     5
100
AcDbLine
 10
8.142999999999998
 20
6.027
 30
0.0
 11
8.124
 21
6.017999999999998
 31
0.0
  0
LINE
  5
F4
330
1E
100
AcDbEntity
  8
0
  6
CONTINUOUS
 62
     5
100
AcDbLine
 10
8.164999999999999
 20
6.032999999999999
 30
0.0
 11
8.142999999999998
 21
6.027
 31
0.0
  0
LINE
  5
F5
330
1E
100
AcDbEntity
  8
0
  6
CONTINUOUS
 62
     5
100
AcDbLine
 10
8.124
 20
5.793999999999998
 30
0.0
 11
8.142999999999998
 21
5.783999999999998
 31
0.0
  0
LINE
  5
F6
330
1E
100
AcDbEntity
  8
0
  6
CONTINUOUS
 62
     5
100
AcDbLine
 10
8.142999999999998
 20
5.783999999999998
 30
0.0
 11
8.164999999999999
 21
5.777999999999998
 31
0.0
  0
LINE
  5
F7
330
1E
100
AcDbEntity
  8
0
  6
CONTINUOUS
 62
     5
100
AcDbLine
 10
8.035999999999999
 20
5.905999999999998
 30
0.0
 11
8.336
 21
5.905999999999998
 31
0.0
  0
LINE
  5
F9
330
1E
100
AcDbEntity
  8
0
  6
CONTINUOUS
 62
     5
100
AcDbLine
 10
19.34324999999998
 20
4.46875
 30
0.0
 11
19.37449999999998
 21
4.4375
 31
0.0
  0
LINE
  5
FA
330
1E
100
AcDbEntity
  8
0
  6
CONTINUOUS
 62
     5
100
AcDbLine
 10
19.37449999999998
 20
4.1875
 30
0.0
 11
19.34324999999998
 21
4.15625
 31
0.0
  0
LINE
  5
FB
330
1E
100
AcDbEntity
  8
0
  6
CONTINUOUS
 62
     5
100
AcDbLine
 10
19.37449999999998
 20
4.4375
 30
0.0
 11
19.37449999999998
 21
4.1875
 31
0.0
  0
LINE
  5
FC
330
1E
100
AcDbEntity
  8
0
  6
CONTINUOUS
 62
     5
100
AcDbLine
 10
19.34324999999998
 20
4.46875
 30
0.0
 11
19.34324999999998
 21
4.15625
 31
0.0
  0
LINE
  5
FD
330
1E
100
AcDbEntity
  8
0
  6
HIDDEN
 62
     5
100
AcDbLine
 10
18.87449999999998
 20
4.1875
 30
0.0
 11
19.37449999999998
 21
4.1875
 31
0.0
  0
LINE
  5
FE
330
1E
100
AcDbEntity
  8
0
  6
CONTINUOUS
 62
     5
100
AcDbLine
 10
19.34324999999998
 20
4.15625
 30
0.0
 11
18.87449999999998
 21
4.15625
 31
0.0
  0
LINE
  5
FF
330
1E
100
AcDbEntity
  8
0
  6
HIDDEN
 62
     5
100
AcDbLine
 10
19.37449999999998
 20
4.4375
 30
0.0
 11
18.87449999999998
 21
4.4375
 31
0.0
  0
LINE
  5
100
330
1E
100
AcDbEntity
  8
0
  6
CONTINUOUS
 62
     5
100
AcDbLine
 10
18.87449999999998
 20
4.46875
 30
0.0
 11
19.34324999999998
 21
4.46875
 31
0.0
  0
LINE
  5
101
330
1E
100
AcDbEntity
  8
0
  6
CONTINUOUS
 62
     5
100
AcDbLine
 10
18.18799999999999
 20
4.397499999999999
 30
0.0
 11
18.18799999999999
 21
4.58875
 31
0.0
  0
LINE
  5
102
330
1E
100
AcDbEntity
  8
0
  6
CONTINUOUS
 62
     5
100
AcDbLine
 10
18.2305
 20
4.3125
 30
0.0
 11
18.14549999999998
 21
4.3125
 31
0.0
  0
LINE
  5
103
330
1E
100
AcDbEntity
  8
0
  6
CONTINUOUS
 62
     5
100
AcDbLine
 10
18.474875
 20
4.3125
 30
0.0
 11
18.283625
 21
4.3125
 31
0.0
  0
LINE
  5
104
330
1E
100
AcDbEntity
  8
0
  6
CONTINUOUS
 62
     5
100
AcDbLine
 10
18.43949999999999
 20
4.456337999999998
 30
0.0
 11
18.1895
 21
4.600674999999998
 31
0.0
  0
LINE
  5
105
330
1E
100
AcDbEntity
  8
0
  6
CONTINUOUS
 62
     5
100
AcDbLine
 10
18.18799999999999
 20
4.280624999999998
 30
0.0
 11
18.18799999999999
 21
4.344375
 31
0.0
  0
LINE
  5
106
330
1E
100
AcDbEntity
  8
0
  6
CONTINUOUS
 62
     5
100
AcDbLine
 10
18.092375
 20
4.3125
 30
0.0
 11
17.92237499999999
 21
4.3125
 31
0.0
  0
LINE
  5
107
330
1E
100
AcDbEntity
  8
0
  6
CONTINUOUS
 62
     5
100
AcDbLine
 10
18.18799999999999
 20
4.036249999999999
 30
0.0
 11
18.18799999999999
 21
4.2275
 31
0.0
  0
CIRCLE
  5
108
330
1E
100
AcDbEntity
  8
0
  6
CONTINUOUS
 62
     5
100
AcDbCircle
 10
18.18699999999998
 20
4.3125
 30
0.0
 40
0.249501
  0
LWPOLYLINE
  5
109
330
1E
100
AcDbEntity
  8
0
  6
CONTINUOUS
 62
     5
100
AcDbPolyline
 90
        6
 70
     0
 43
0.0
 10
18.4375
 20
4.456337999999998
 10
18.4375
 20
4.167661999999999
 10
18.1875
 20
4.023324999999998
 10
17.9375
 20
4.167661999999999
 10
17.9375
 20
4.456337999999998
 10
18.1875
 20
4.600674999999998
  0
LINE
  5
111
330
1E
100
AcDbEntity
  8
0
  6
CONTINUOUS
 62
     5
100
AcDbLine
 10
18.49949999999998
 20
4.0625
 30
0.0
 11
18.49949999999998
 21
4.5625
 31
0.0
  0
LINE
  5
112
330
1E
100
AcDbEntity
  8
0
  6
CONTINUOUS
 62
     5
100
AcDbLine
 10
18.74949999999998
 20
4.456837999999998
 30
0.0
 11
18.53074999999998
 21
4.456837999999998
 31
0.0
  0
LINE
  5
113
330
1E
100
AcDbEntity
  8
0
  6
CONTINUOUS
 62
     5
100
AcDbLine
 10
18.53074999999998
 20
4.601174999999998
 30
0.0
 11
18.74949999999998
 21
4.601174999999998
 31
0.0
  0
LINE
  5
114
330
1E
100
AcDbEntity
  8
0
  6
CONTINUOUS
 62
     5
100
AcDbLine
 10
18.53074999999998
 20
4.168162
 30
0.0
 11
18.74949999999998
 21
4.168162
 31
0.0
  0
LINE
  5
115
330
1E
100
AcDbEntity
  8
0
  6
CONTINUOUS
 62
     5
100
AcDbLine
 10
18.74949999999998
 20
4.023825
 30
0.0
 11
18.53074999999998
 21
4.023825
 31
0.0
  0
LINE
  5
116
330
1E
100
AcDbEntity
  8
0
  6
CONTINUOUS
 62
     5
100
AcDbLine
 10
18.53074999999998
 20
4.601174999999998
 30
0.0
 11
18.49949999999998
 21
4.5625
 31
0.0
  0
ARC
  5
117
330
1E
100
AcDbEntity
  8
0
  6
CONTINUOUS
 62
     5
100
AcDbCircle
 10
18.59845799999999
 20
4.529005999999998
 30
0.0
 40
0.098958
100
AcDbArc
 50
133.173551
 51
226.826446
  0
ARC
  5
118
330
1E
100
AcDbEntity
  8
0
  6
CONTINUOUS
 62
     5
100
AcDbCircle
 10
18.84845799999999
 20
4.3125
 30
0.0
 40
0.348958
100
AcDbArc
 50
155.567302
 51
204.4326949999999
  0
LINE
  5
119
330
1E
100
AcDbEntity
  8
0
  6
CONTINUOUS
 62
     5
100
AcDbLine
 10
18.53074999999998
 20
4.023825
 30
0.0
 11
18.49949999999998
 21
4.0625
 31
0.0
  0
ARC
  5
11A
330
1E
100
AcDbEntity
  8
0
  6
CONTINUOUS
 62
     5
100
AcDbCircle
 10
18.59845799999999
 20
4.095994
 30
0.0
 40
0.098958
100
AcDbArc
 50
133.173551
 51
226.826446
  0
LINE
  5
11B
330
1E
100
AcDbEntity
  8
0
  6
CONTINUOUS
 62
     5
100
AcDbLine
 10
18.37449999999998
 20
4.3125
 30
0.0
 11
19.53074999999998
 21
4.3125
 31
0.0
  0
LINE
  5
11C
330
1E
100
AcDbEntity
  8
0
  6
CONTINUOUS
 62
     5
100
AcDbLine
 10
18.8755
 20
4.0
 30
0.0
 11
17.87549999999999
 21
4.0
 31
0.0
  0
ARC
  5
11D
330
1E
100
AcDbEntity
  8
0
  6
CONTINUOUS
 62
     5
100
AcDbCircle
 10
17.0
 20
4.796999999999998
 30
0.0
 40
0.361
100
AcDbArc
 50
85.00000099999999
 51
5.0
  0
CIRCLE
  5
11E
330
1E
100
AcDbEntity
  8
0
  6
CONTINUOUS
 62
     5
100
AcDbCircle
 10
17.0
 20
4.796999999999998
 30
0.0
 40
0.308
  0
CIRCLE
  5
11F
330
1E
100
AcDbEntity
  8
0
  6
CONTINUOUS
 62
     5
100
AcDbCircle
 10
17.0
 20
4.796999999999998
 30
0.0
 40
0.3439999999999999
  0
CIRCLE
  5
120
330
1E
100
AcDbEntity
  8
0
  6
CONTINUOUS
 62
     5
100
AcDbCircle
 10
17.0
 20
4.796999999999998
 30
0.0
 40
0.43
  0
LINE
  5
121
330
1E
100
AcDbEntity
  8
0
  6
CONTINUOUS
 62
     5
100
AcDbLine
 10
17.0
 20
4.282
 30
0.0
 11
17.0
 21
5.312
 31
0.0
  0
TEXT
  5
122
330
1E
100
AcDbEntity
  8
0
 62
     5
100
AcDbText
 10
16.327566
 20
4.183146999999999
 30
0.0
 40
0.188
  1
P
 50
90.0
 41
0.9
 72
     5
 11
16.327566
 21
4.295946999999999
 31
0.0
100
AcDbText
  0
LINE
  5
123
330
1E
100
AcDbEntity
  8
0
  6
CONTINUOUS
 62
     5
100
AcDbLine
 10
16.485
 20
4.796999999999998
 30
0.0
 11
17.515
 21
4.796999999999998
 31
0.0
  0
LINE
  5
124
330
1E
100
AcDbEntity
  8
0
  6
CONTINUOUS
 62
     5
100
AcDbLine
 10
15.5
 20
4.0
 30
0.0
 11
18.5
 21
4.0
 31
0.0
  0
LINE
  5
125
330
1E
100
AcDbEntity
  8
0
  6
CONTINUOUS
 62
     5
100
AcDbLine
 10
14.187
 20
4.397499999999999
 30
0.0
 11
14.187
 21
4.58875
 31
0.0
  0
LINE
  5
126
330
1E
100
AcDbEntity
  8
0
  6
CONTINUOUS
 62
     5
100
AcDbLine
 10
14.1445
 20
4.3125
 30
0.0
 11
14.2295
 21
4.3125
 31
0.0
  0
LINE
  5
127
330
1E
100
AcDbEntity
  8
0
  6
CONTINUOUS
 62
     5
100
AcDbLine
 10
14.187
 20
4.280624999999998
 30
0.0
 11
14.187
 21
4.344375
 31
0.0
  0
ARC
  5
128
330
1E
100
AcDbEntity
  8
0
  6
CONTINUOUS
 62
     5
100
AcDbCircle
 10
13.776542
 20
4.529005999999998
 30
0.0
 40
0.098958
100
AcDbArc
 50
313.173554
 51
46.82644899999999
  0
LINE
  5
129
330
1E
100
AcDbEntity
  8
0
  6
CONTINUOUS
 62
     5
100
AcDbLine
 10
13.84425
 20
4.601174999999998
 30
0.0
 11
13.8755
 21
4.5625
 31
0.0
  0
ARC
  5
12A
330
1E
100
AcDbEntity
  8
0
  6
CONTINUOUS
 62
     5
100
AcDbCircle
 10
13.52654199999999
 20
4.3125
 30
0.0
 40
0.348958
100
AcDbArc
 50
335.567305
 51
24.432698
  0
LINE
  5
12B
330
1E
100
AcDbEntity
  8
0
  6
CONTINUOUS
 62
     5
100
AcDbLine
 10
13.900125
 20
4.3125
 30
0.0
 11
14.09137499999999
 21
4.3125
 31
0.0
  0
LINE
  5
12C
330
1E
100
AcDbEntity
  8
0
  6
CONTINUOUS
 62
     5
100
AcDbLine
 10
13.9335
 20
4.456337999999998
 30
0.0
 11
14.1835
 21
4.600674999999998
 31
0.0
  0
LINE
  5
12D
330
1E
100
AcDbEntity
  8
0
  6
CONTINUOUS
 62
     5
100
AcDbLine
 10
14.187
 20
4.036249999999999
 30
0.0
 11
14.187
 21
4.2275
 31
0.0
  0
LINE
  5
12E
330
1E
100
AcDbEntity
  8
0
  6
CONTINUOUS
 62
     5
100
AcDbLine
 10
13.84425
 20
4.023825
 30
0.0
 11
13.8755
 21
4.0625
 31
0.0
  0
ARC
  5
12F
330
1E
100
AcDbEntity
  8
0
  6
CONTINUOUS
 62
     5
100
AcDbCircle
 10
13.776542
 20
4.095994
 30
0.0
 40
0.098958
100
AcDbArc
 50
313.173554
 51
46.82644899999999
  0
LINE
  5
130
330
1E
100
AcDbEntity
  8
0
  6
CONTINUOUS
 62
     5
100
AcDbLine
 10
13.8755
 20
4.0625
 30
0.0
 11
13.8755
 21
4.5625
 31
0.0
  0
LINE
  5
131
330
1E
100
AcDbEntity
  8
0
  6
CONTINUOUS
 62
     5
100
AcDbLine
 10
13.6255
 20
4.456837999999998
 30
0.0
 11
13.84425
 21
4.456837999999998
 31
0.0
  0
LINE
  5
132
330
1E
100
AcDbEntity
  8
0
  6
CONTINUOUS
 62
     5
100
AcDbLine
 10
13.84425
 20
4.601174999999998
 30
0.0
 11
13.6255
 21
4.601174999999998
 31
0.0
  0
LINE
  5
133
330
1E
100
AcDbEntity
  8
0
  6
CONTINUOUS
 62
     5
100
AcDbLine
 10
13.84425
 20
4.168162
 30
0.0
 11
13.6255
 21
4.168162
 31
0.0
  0
LINE
  5
134
330
1E
100
AcDbEntity
  8
0
  6
CONTINUOUS
 62
     5
100
AcDbLine
 10
14.0005
 20
4.3125
 30
0.0
 11
13.430419
 21
4.3125
 31
0.0
  0
LINE
  5
135
330
1E
100
AcDbEntity
  8
0
  6
CONTINUOUS
 62
     5
100
AcDbLine
 10
13.6255
 20
4.023825
 30
0.0
 11
13.84425
 21
4.023825
 31
0.0
  0
LINE
  5
136
330
1E
100
AcDbEntity
  8
0
  6
CONTINUOUS
 62
     5
100
AcDbLine
 10
14.28262499999999
 20
4.3125
 30
0.0
 11
14.452625
 21
4.3125
 31
0.0
  0
CIRCLE
  5
137
330
1E
100
AcDbEntity
  8
0
  6
CONTINUOUS
 62
     5
100
AcDbCircle
 10
14.188
 20
4.3125
 30
0.0
 40
0.249501
  0
LWPOLYLINE
  5
138
330
1E
100
AcDbEntity
  8
0
  6
CONTINUOUS
 62
     5
100
AcDbPolyline
 90
        6
 70
     0
 43
0.0
 10
13.9375
 20
4.456337999999998
 10
13.9375
 20
4.167661999999999
 10
14.1875
 20
4.023324999999998
 10
14.4375
 20
4.167661999999999
 10
14.4375
 20
4.456337999999998
 10
14.1875
 20
4.600674999999998
  0
LINE
  5
140
330
1E
100
AcDbEntity
  8
0
  6
CONTINUOUS
 62
     5
100
AcDbLine
 10
13.49949999999999
 20
4.0
 30
0.0
 11
14.4995
 21
4.0
 31
0.0
  0
LINE
  5
141
330
1E
100
AcDbEntity
  8
0
  6
CONTINUOUS
 62
     5
100
AcDbLine
 10
8.680999999999999
 20
5.466
 30
0.0
 11
8.698
 21
5.482
 31
0.0
  0
LINE
  5
142
330
1E
100
AcDbEntity
  8
0
  6
CONTINUOUS
 62
     5
100
AcDbLine
 10
8.592
 20
5.437
 30
0.0
 11
8.615999999999999
 21
5.439
 31
0.0
  0
LINE
  5
143
330
1E
100
AcDbEntity
  8
0
  6
CONTINUOUS
 62
     5
100
AcDbLine
 10
8.568999999999999
 20
5.439
 30
0.0
 11
8.592
 21
5.437
 31
0.0
  0
LINE
  5
144
330
1E
100
AcDbEntity
  8
0
  6
CONTINUOUS
 62
     5
100
AcDbLine
 10
8.487
 20
5.482
 30
0.0
 11
8.503999999999999
 21
5.466
 31
0.0
  0
LINE
  5
145
330
1E
100
AcDbEntity
  8
0
  6
CONTINUOUS
 62
     5
100
AcDbLine
 10
8.503999999999999
 20
5.466
 30
0.0
 11
8.523999999999999
 21
5.453999999999998
 31
0.0
  0
LINE
  5
146
330
1E
100
AcDbEntity
  8
0
  6
CONTINUOUS
 62
     5
100
AcDbLine
 10
8.523999999999999
 20
5.453999999999998
 30
0.0
 11
8.544999999999998
 21
5.445
 31
0.0
  0
LINE
  5
147
330
1E
100
AcDbEntity
  8
0
  6
CONTINUOUS
 62
     5
100
AcDbLine
 10
8.544999999999998
 20
5.445
 30
0.0
 11
8.568999999999999
 21
5.439
 31
0.0
  0
LINE
  5
148
330
1E
100
AcDbEntity
  8
0
  6
CONTINUOUS
 62
     5
100
AcDbLine
 10
8.660999999999999
 20
5.453999999999998
 30
0.0
 11
8.680999999999999
 21
5.466
 31
0.0
  0
LINE
  5
149
330
1E
100
AcDbEntity
  8
0
  6
CONTINUOUS
 62
     5
100
AcDbLine
 10
8.64
 20
5.445
 30
0.0
 11
8.660999999999999
 21
5.453999999999998
 31
0.0
  0
LINE
  5
14A
330
1E
100
AcDbEntity
  8
0
  6
CONTINUOUS
 62
     5
100
AcDbLine
 10
8.615999999999999
 20
5.439
 30
0.0
 11
8.64
 21
5.445
 31
0.0
  0
LINE
  5
14B
330
1E
100
AcDbEntity
  8
0
  6
CONTINUOUS
 62
     5
100
AcDbLine
 10
8.712999999999999
 20
4.812
 30
0.0
 11
8.941
 21
4.812
 31
0.0
  0
CIRCLE
  5
14C
330
1E
100
AcDbEntity
  8
0
  6
CONTINUOUS
 62
     5
100
AcDbCircle
 10
8.826999999999998
 20
4.812
 30
0.0
 40
0.075
  0
ARC
  5
14D
330
1E
100
AcDbEntity
  8
4
  6
CONTINUOUS
 62
     5
100
AcDbCircle
 10
8.826999999999998
 20
4.812
 30
0.0
 40
0.087
100
AcDbArc
 50
85.00000099999999
 51
5.0
  0
CIRCLE
  5
14E
330
1E
100
AcDbEntity
  8
0
  6
CONTINUOUS
 62
     5
100
AcDbCircle
 10
8.826999999999998
 20
4.812
 30
0.0
 40
0.095
  0
LINE
  5
14F
330
1E
100
AcDbEntity
  8
0
  6
CONTINUOUS
 62
     5
100
AcDbLine
 10
8.185999999999998
 20
5.049999999999998
 30
0.0
 11
8.185999999999998
 21
5.386999999999998
 31
0.0
  0
LINE
  5
150
330
1E
100
AcDbEntity
  8
0
  6
CONTINUOUS
 62
     5
100
AcDbLine
 10
8.826999999999998
 20
4.698
 30
0.0
 11
8.826999999999998
 21
4.926
 31
0.0
  0
LINE
  5
151
330
1E
100
AcDbEntity
  8
0
  6
CONTINUOUS
 62
     5
100
AcDbLine
 10
7.822999999999999
 20
5.44
 30
0.0
 11
7.841999999999998
 21
5.45
 31
0.0
  0
LINE
  5
152
330
1E
100
AcDbEntity
  8
0
  6
CONTINUOUS
 62
     5
100
AcDbLine
 10
7.684
 20
5.479
 30
0.0
 11
7.7
 21
5.462999999999999
 31
0.0
  0
LINE
  5
153
330
1E
100
AcDbEntity
  8
0
  6
CONTINUOUS
 62
     5
100
AcDbLine
 10
7.7
 20
5.462999999999999
 30
0.0
 11
7.716999999999998
 21
5.45
 31
0.0
  0
LINE
  5
154
330
1E
100
AcDbEntity
  8
0
  6
CONTINUOUS
 62
     5
100
AcDbLine
 10
7.716999999999998
 20
5.45
 30
0.0
 11
7.737
 21
5.44
 31
0.0
  0
LINE
  5
155
330
1E
100
AcDbEntity
  8
0
  6
CONTINUOUS
 62
     5
100
AcDbLine
 10
7.737
 20
5.44
 30
0.0
 11
7.757999999999999
 21
5.434999999999998
 31
0.0
  0
LINE
  5
156
330
1E
100
AcDbEntity
  8
0
  6
CONTINUOUS
 62
     5
100
AcDbLine
 10
7.757999999999999
 20
5.434999999999998
 30
0.0
 11
7.78
 21
5.432999999999998
 31
0.0
  0
LINE
  5
157
330
1E
100
AcDbEntity
  8
0
  6
CONTINUOUS
 62
     5
100
AcDbLine
 10
7.801999999999998
 20
5.434999999999998
 30
0.0
 11
7.822999999999999
 21
5.44
 31
0.0
  0
LINE
  5
158
330
1E
100
AcDbEntity
  8
0
  6
CONTINUOUS
 62
     5
100
AcDbLine
 10
7.78
 20
5.432999999999998
 30
0.0
 11
7.801999999999998
 21
5.434999999999998
 31
0.0
  0
LINE
  5
159
330
1E
100
AcDbEntity
  8
0
  6
CONTINUOUS
 62
     5
100
AcDbLine
 10
7.86
 20
5.462999999999999
 30
0.0
 11
7.876
 21
5.479
 31
0.0
  0
LINE
  5
15A
330
1E
100
AcDbEntity
  8
0
  6
CONTINUOUS
 62
     5
100
AcDbLine
 10
7.841999999999998
 20
5.45
 30
0.0
 11
7.86
 21
5.462999999999999
 31
0.0
  0
LINE
  5
15B
330
1E
100
AcDbEntity
  8
0
  6
CONTINUOUS
 62
     5
100
AcDbLine
 10
7.546
 20
5.106787
 30
0.0
 11
7.546
 21
5.192787
 31
0.0
  0
LINE
  5
15C
330
1E
100
AcDbEntity
  8
0
  6
CONTINUOUS
 62
     5
100
AcDbLine
 10
7.442
 20
5.106787
 30
0.0
 11
7.649
 21
5.106787
 31
0.0
  0
CIRCLE
  5
15D
330
1E
100
AcDbEntity
  8
0
  6
CONTINUOUS
 62
     5
100
AcDbCircle
 10
7.546
 20
5.106787
 30
0.0
 40
0.078
  0
LINE
  5
15E
330
1E
100
AcDbEntity
  8
0
  6
CONTINUOUS
 62
     5
100
AcDbLine
 10
7.432
 20
4.812
 30
0.0
 11
7.66
 21
4.812
 31
0.0
  0
CIRCLE
  5
15F
330
1E
100
AcDbEntity
  8
0
  6
CONTINUOUS
 62
     5
100
AcDbCircle
 10
7.546
 20
4.812
 30
0.0
 40
0.095
  0
CIRCLE
  5
160
330
1E
100
AcDbEntity
  8
0
  6
CONTINUOUS
 62
     5
100
AcDbCircle
 10
7.546
 20
4.812
 30
0.0
 40
0.075
  0
ARC
  5
161
330
1E
100
AcDbEntity
  8
4
  6
CONTINUOUS
 62
     5
100
AcDbCircle
 10
7.546
 20
4.812
 30
0.0
 40
0.087
100
AcDbArc
 50
85.00000099999999
 51
5.0
  0
LINE
  5
162
330
1E
100
AcDbEntity
  8
0
  6
CONTINUOUS
 62
     5
100
AcDbLine
 10
7.546
 20
5.003786999999999
 30
0.0
 11
7.546
 21
5.209787
 31
0.0
  0
LINE
  5
163
330
1E
100
AcDbEntity
  8
0
  6
CONTINUOUS
 62
     5
100
AcDbLine
 10
7.546
 20
4.698
 30
0.0
 11
7.546
 21
4.926
 31
0.0
  0
CIRCLE
  5
164
330
1E
100
AcDbEntity
  8
0
  6
CONTINUOUS
 62
     5
100
AcDbCircle
 10
8.185999999999998
 20
5.217999999999999
 30
0.0
 40
0.14
  0
LINE
  5
165
330
1E
100
AcDbEntity
  8
0
  6
CONTINUOUS
 62
     5
100
AcDbLine
 10
8.017999999999998
 20
5.217999999999999
 30
0.0
 11
8.355
 21
5.217999999999999
 31
0.0
  0
TEXT
  5
166
330
1E
100
AcDbEntity
  8
0
 62
     5
100
AcDbText
 10
8.889276999999998
 20
2.741878999999998
 30
0.0
 40
0.188
  1
B
 41
0.9
 72
     5
 11
9.002076999999998
 21
2.741878999999998
 31
0.0
100
AcDbText
  0
LINE
  5
167
330
1E
100
AcDbEntity
  8
0
  6
CONTINUOUS
 62
     5
100
AcDbLine
 10
7.836999999999998
 20
2.375
 30
0.0
 11
8.663
 21
2.375
 31
0.0
  0
TEXT
  5
168
330
1E
100
AcDbEntity
  8
0
 62
     5
100
AcDbText
 10
8.889276999999998
 20
0.9606899999999999
 30
0.0
 40
0.188
  1
A
 41
0.9
 72
     5
 11
9.002076999999998
 21
0.9606899999999999
 31
0.0
100
AcDbText
  0
LINE
  5
169
330
1E
100
AcDbEntity
  8
0
  6
CONTINUOUS
 62
     5
100
AcDbLine
 10
7.774
 20
0.625
 30
0.0
 11
8.599999999999999
 21
0.625
 31
0.0
  0
CIRCLE
  5
16A
330
1E
100
AcDbEntity
  8
0
  6
CONTINUOUS
 62
     5
100
AcDbCircle
 10
8.186999999999999
 20
0.625
 30
0.0
 40
0.282
  0
CIRCLE
  5
16B
330
1E
100
AcDbEntity
  8
0
  6
CONTINUOUS
 62
     5
100
AcDbCircle
 10
8.186999999999999
 20
0.625
 30
0.0
 40
0.3439999999999999
  0
ARC
  5
16C
330
1E
100
AcDbEntity
  8
0
  6
CONTINUOUS
 62
     5
100
AcDbCircle
 10
8.186999999999999
 20
0.625
 30
0.0
 40
0.329
100
AcDbArc
 50
85.00000099999999
 51
5.0
  0
LINE
  5
16D
330
1E
100
AcDbEntity
  8
0
  6
CONTINUOUS
 62
     5
100
AcDbLine
 10
8.186999999999999
 20
0.213
 30
0.0
 11
8.186999999999999
 21
1.036999999999999
 31
0.0
  0
TEXT
  5
16E
330
1E
100
AcDbEntity
  8
0
 62
     5
100
AcDbText
 10
7.679883
 20
1.465720999999999
 30
0.0
 40
0.188
  1
DAMAN ****
 41
0.8534482758620695
 72
     5
 11
9.230883
 21
1.465720999999999
 31
0.0
100
AcDbText
  0
LINE
  5
16F
330
1E
100
AcDbEntity
  8
0
  6
CONTINUOUS
 62
     5
100
AcDbLine
 10
14.5
 20
-0.375
 30
0.0
 11
13.75
 21
-0.375
 31
0.0
  0
LINE
  5
170
330
1E
100
AcDbEntity
  8
0
  6
CONTINUOUS
 62
     5
100
AcDbLine
 10
13.75
 20
-0.25
 30
0.0
 11
14.5
 21
-0.25
 31
0.0
  0
LINE
  5
171
330
1E
100
AcDbEntity
  8
0
  6
CONTINUOUS
 62
     5
100
AcDbLine
 10
14.34375
 20
-0.84375
 30
0.0
 11
14.03125
 21
-0.84375
 31
0.0
  0
LINE
  5
172
330
1E
100
AcDbEntity
  8
0
  6
CONTINUOUS
 62
     5
100
AcDbLine
 10
14.3125
 20
-0.875
 30
0.0
 11
14.0625
 21
-0.875
 31
0.0
  0
LINE
  5
173
330
1E
100
AcDbEntity
  8
0
  6
CONTINUOUS
 62
     5
100
AcDbLine
 10
13.9375
 20
0.0
 30
0.0
 11
14.4375
 21
0.0
 31
0.0
  0
ARC
  5
174
330
1E
100
AcDbEntity
  8
0
  6
CONTINUOUS
 62
     5
100
AcDbCircle
 10
14.1875
 20
-0.348958
 30
0.0
 40
0.348958
100
AcDbArc
 50
65.567301
 51
114.4326969999999
  0
LINE
  5
175
330
1E
100
AcDbEntity
  8
0
  6
CONTINUOUS
 62
     5
100
AcDbLine
 10
14.1875
 20
0.125
 30
0.0
 11
14.1875
 21
-1.03125
 31
0.0
  0
LINE
  5
176
330
1E
100
AcDbEntity
  8
0
  6
HIDDEN
 62
     5
100
AcDbLine
 10
14.3125
 20
-0.875
 30
0.0
 11
14.3125
 21
-0.375
 31
0.0
  0
LINE
  5
177
330
1E
100
AcDbEntity
  8
0
  6
CONTINUOUS
 62
     5
100
AcDbLine
 10
14.34375
 20
-0.375
 30
0.0
 11
14.34375
 21
-0.84375
 31
0.0
  0
LINE
  5
178
330
1E
100
AcDbEntity
  8
0
  6
CONTINUOUS
 62
     5
100
AcDbLine
 10
14.34375
 20
-0.84375
 30
0.0
 11
14.3125
 21
-0.875
 31
0.0
  0
LINE
  5
179
330
1E
100
AcDbEntity
  8
0
  6
CONTINUOUS
 62
     5
100
AcDbLine
 10
14.5
 20
-0.25
 30
0.0
 11
14.5
 21
-0.375
 31
0.0
  0
ARC
  5
17A
330
1E
100
AcDbEntity
  8
0
  6
CONTINUOUS
 62
     5
100
AcDbCircle
 10
14.404006
 20
-0.098958
 30
0.0
 40
0.098958
100
AcDbArc
 50
43.17355
 51
136.826449
  0
LINE
  5
17B
330
1E
100
AcDbEntity
  8
0
  6
CONTINUOUS
 62
     5
100
AcDbLine
 10
14.47617499999999
 20
-0.03125
 30
0.0
 11
14.47617499999999
 21
-0.25
 31
0.0
  0
LINE
  5
17C
330
1E
100
AcDbEntity
  8
0
  6
CONTINUOUS
 62
     5
100
AcDbLine
 10
14.47617499999999
 20
-0.03125
 30
0.0
 11
14.4375
 21
0.0
 31
0.0
  0
LINE
  5
17D
330
1E
100
AcDbEntity
  8
0
  6
CONTINUOUS
 62
     5
100
AcDbLine
 10
14.331838
 20
-0.25
 30
0.0
 11
14.331838
 21
-0.03125
 31
0.0
  0
LINE
  5
17E
330
1E
100
AcDbEntity
  8
0
  6
CONTINUOUS
 62
     5
100
AcDbLine
 10
13.5
 20
-0.125
 30
0.0
 11
13.5
 21
0.625
 31
0.0
  0
LINE
  5
17F
330
1E
100
AcDbEntity
  8
0
  6
CONTINUOUS
 62
     5
100
AcDbLine
 10
13.625
 20
0.625
 30
0.0
 11
13.625
 21
-0.125
 31
0.0
  0
LINE
  5
180
330
1E
100
AcDbEntity
  8
0
  6
HIDDEN
 62
     5
100
AcDbLine
 10
14.0625
 20
-0.375
 30
0.0
 11
14.0625
 21
-0.875
 31
0.0
  0
LINE
  5
181
330
1E
100
AcDbEntity
  8
0
  6
CONTINUOUS
 62
     5
100
AcDbLine
 10
14.03125
 20
-0.84375
 30
0.0
 11
14.03125
 21
-0.375
 31
0.0
  0
LINE
  5
182
330
1E
100
AcDbEntity
  8
0
  6
CONTINUOUS
 62
     5
100
AcDbLine
 10
14.0625
 20
-0.875
 30
0.0
 11
14.03125
 21
-0.84375
 31
0.0
  0
ARC
  5
183
330
1E
100
AcDbEntity
  8
0
  6
CONTINUOUS
 62
     5
100
AcDbCircle
 10
13.75
 20
-0.125
 30
0.0
 40
0.25
100
AcDbArc
 50
180.0
 51
269.999998
  0
ARC
  5
184
330
1E
100
AcDbEntity
  8
0
  6
CONTINUOUS
 62
     5
100
AcDbCircle
 10
13.75
 20
-0.125
 30
0.0
 40
0.125
100
AcDbArc
 50
180.0
 51
269.999998
  0
LINE
  5
185
330
1E
100
AcDbEntity
  8
0
  6
CONTINUOUS
 62
     5
100
AcDbLine
 10
14.043162
 20
-0.03125
 30
0.0
 11
14.043162
 21
-0.25
 31
0.0
  0
LINE
  5
186
330
1E
100
AcDbEntity
  8
0
  6
CONTINUOUS
 62
     5
100
AcDbLine
 10
13.898825
 20
-0.25
 30
0.0
 11
13.898825
 21
-0.03125
 31
0.0
  0
ARC
  5
187
330
1E
100
AcDbEntity
  8
0
  6
CONTINUOUS
 62
     5
100
AcDbCircle
 10
13.970994
 20
-0.098958
 30
0.0
 40
0.098958
100
AcDbArc
 50
43.17355
 51
136.826449
  0
LINE
  5
188
330
1E
100
AcDbEntity
  8
0
  6
CONTINUOUS
 62
     5
100
AcDbLine
 10
13.898825
 20
-0.03125
 30
0.0
 11
13.9375
 21
0.0
 31
0.0
  0
LINE
  5
189
330
1E
100
AcDbEntity
  8
0
  6
CONTINUOUS
 62
     5
100
AcDbLine
 10
13.625
 20
0.168162
 30
0.0
 11
13.84375
 21
0.168162
 31
0.0
  0
LINE
  5
18A
330
1E
100
AcDbEntity
  8
0
  6
CONTINUOUS
 62
     5
100
AcDbLine
 10
13.84375
 20
0.023825
 30
0.0
 11
13.625
 21
0.023825
 31
0.0
  0
LINE
  5
18B
330
1E
100
AcDbEntity
  8
0
  6
CONTINUOUS
 62
     5
100
AcDbLine
 10
13.84375
 20
0.4568380000000002
 30
0.0
 11
13.625
 21
0.4568380000000002
 31
0.0
  0
LINE
  5
18C
330
1E
100
AcDbEntity
  8
0
  6
CONTINUOUS
 62
     5
100
AcDbLine
 10
13.625
 20
0.6011750000000001
 30
0.0
 11
13.84375
 21
0.6011750000000001
 31
0.0
  0
ARC
  5
18D
330
1E
100
AcDbEntity
  8
0
  6
CONTINUOUS
 62
     5
100
AcDbCircle
 10
13.526042
 20
0.3125
 30
0.0
 40
0.348958
100
AcDbArc
 50
335.5672999999999
 51
24.432697
  0
LINE
  5
18E
330
1E
100
AcDbEntity
  8
0
  6
CONTINUOUS
 62
     5
100
AcDbLine
 10
13.875
 20
0.5625
 30
0.0
 11
13.875
 21
0.0625
 31
0.0
  0
LINE
  5
18F
330
1E
100
AcDbEntity
  8
0
  6
CONTINUOUS
 62
     5
100
AcDbLine
 10
13.84375
 20
0.023825
 30
0.0
 11
13.875
 21
0.0625
 31
0.0
  0
ARC
  5
190
330
1E
100
AcDbEntity
  8
0
  6
CONTINUOUS
 62
     5
100
AcDbCircle
 10
13.776042
 20
0.095994
 30
0.0
 40
0.098958
100
AcDbArc
 50
313.173549
 51
46.826448
  0
LINE
  5
191
330
1E
100
AcDbEntity
  8
0
  6
CONTINUOUS
 62
     5
100
AcDbLine
 10
13.84375
 20
0.6011750000000001
 30
0.0
 11
13.875
 21
0.5625
 31
0.0
  0
ARC
  5
192
330
1E
100
AcDbEntity
  8
0
  6
CONTINUOUS
 62
     5
100
AcDbCircle
 10
13.776042
 20
0.5290060000000001
 30
0.0
 40
0.098958
100
AcDbArc
 50
313.173549
 51
46.826448
  0
LINE
  5
193
330
1E
100
AcDbEntity
  8
0
  6
CONTINUOUS
 62
     5
100
AcDbLine
 10
13.5
 20
0.625
 30
0.0
 11
13.625
 21
0.625
 31
0.0
  0
LINE
  5
194
330
1E
100
AcDbEntity
  8
0
  6
CONTINUOUS
 62
     5
100
AcDbLine
 10
14.0
 20
0.3125
 30
0.0
 11
13.125
 21
0.3125
 31
0.0
  0
LINE
  5
195
330
1E
100
AcDbEntity
  8
0
  6
CONTINUOUS
 62
     5
100
AcDbLine
 10
13.5
 20
3.0
 30
0.0
 11
13.5
 21
0.0
 31
0.0
  0
LINE
  5
196
330
1E
100
AcDbEntity
  8
0
  6
CONTINUOUS
 62
     5
100
AcDbLine
 10
8.25
 20
1.963
 30
0.0
 11
8.25
 21
2.786999999999998
 31
0.0
  0
CIRCLE
  5
197
330
1E
100
AcDbEntity
  8
0
  6
CONTINUOUS
 62
     5
100
AcDbCircle
 10
8.25
 20
2.375
 30
0.0
 40
0.282
  0
ARC
  5
198
330
1E
100
AcDbEntity
  8
0
  6
CONTINUOUS
 62
     5
100
AcDbCircle
 10
8.25
 20
2.375
 30
0.0
 40
0.329
100
AcDbArc
 50
85.00000099999999
 51
5.0
  0
CIRCLE
  5
199
330
1E
100
AcDbEntity
  8
0
  6
CONTINUOUS
 62
     5
100
AcDbCircle
 10
8.25
 20
2.375
 30
0.0
 40
0.3439999999999999
  0
LINE
  5
19A
330
1E
100
AcDbEntity
  8
0
  6
CONTINUOUS
 62
     5
100
AcDbLine
 10
18.75549999999998
 20
7.0
 30
0.0
 11
18.75549999999998
 21
4.0
 31
0.0
  0
LINE
  5
19B
330
1E
100
AcDbEntity
  8
0
  6
CONTINUOUS
 62
     5
100
AcDbLine
 10
18.8755
 20
7.0
 30
0.0
 11
18.8755
 21
4.0
 31
0.0
  0
LINE
  5
19C
330
1E
100
AcDbEntity
  8
0
  6
CONTINUOUS
 62
     5
100
AcDbLine
 10
17.87549999999999
 20
4.0
 30
0.0
 11
17.87549999999999
 21
7.0
 31
0.0
  0
LINE
  5
19D
330
1E
100
AcDbEntity
  8
0
  6
CONTINUOUS
 62
     5
100
AcDbLine
 10
15.5
 20
7.0
 30
0.0
 11
15.5
 21
4.0
 31
0.0
  0
LINE
  5
19E
330
1E
100
AcDbEntity
  8
0
  6
CONTINUOUS
 62
     5
100
AcDbLine
 10
14.4995
 20
4.0
 30
0.0
 11
14.4995
 21
7.0
 31
0.0
  0
LINE
  5
19F
330
1E
100
AcDbEntity
  8
0
  6
CONTINUOUS
 62
     5
100
AcDbLine
 10
13.6195
 20
7.0
 30
0.0
 11
13.6195
 21
4.0
 31
0.0
  0
LINE
  5
1A0
330
1E
100
AcDbEntity
  8
0
  6
CONTINUOUS
 62
     5
100
AcDbLine
 10
13.5
 20
4.0
 30
0.0
 11
13.5
 21
7.0
 31
0.0
  0
LINE
  5
1A1
330
1E
100
AcDbEntity
  8
0
  6
HIDDEN
 62
     5
100
AcDbLine
 10
18.5
 20
4.0
 30
0.0
 11
18.5
 21
7.0
 31
0.0
  0
LINE
  5
1A2
330
1E
100
AcDbEntity
  8
0
  6
CONTINUOUS
 62
     5
100
AcDbLine
 10
8.698
 20
5.482
 30
0.0
 11
8.711999999999997
 21
5.5
 31
0.0
  0
LINE
  5
1A3
330
1E
100
AcDbEntity
  8
0
  6
CONTINUOUS
 62
     5
100
AcDbLine
 10
8.721999999999999
 20
5.519
 30
0.0
 11
8.727999999999997
 21
5.54
 31
0.0
  0
LINE
  5
1A4
330
1E
100
AcDbEntity
  8
0
  6
CONTINUOUS
 62
     5
100
AcDbLine
 10
8.711999999999997
 20
5.5
 30
0.0
 11
8.721999999999999
 21
5.519
 31
0.0
  0
LINE
  5
1A5
330
1E
100
AcDbEntity
  8
0
  6
CONTINUOUS
 62
     5
100
AcDbLine
 10
8.472999999999998
 20
5.5
 30
0.0
 11
8.487
 21
5.482
 31
0.0
  0
LINE
  5
1A6
330
1E
100
AcDbEntity
  8
0
  6
CONTINUOUS
 62
     5
100
AcDbLine
 10
8.457
 20
5.54
 30
0.0
 11
8.462999999999999
 21
5.519
 31
0.0
  0
LINE
  5
1A7
330
1E
100
AcDbEntity
  8
0
  6
CONTINUOUS
 62
     5
100
AcDbLine
 10
8.462999999999999
 20
5.519
 30
0.0
 11
8.472999999999998
 21
5.5
 31
0.0
  0
LINE
  5
1A8
330
1E
100
AcDbEntity
  8
0
  6
CONTINUOUS
 62
     5
100
AcDbLine
 10
8.592
 20
5.411999999999999
 30
0.0
 11
8.592
 21
5.711999999999998
 31
0.0
  0
LINE
  5
1A9
330
1E
100
AcDbEntity
  8
0
  6
CONTINUOUS
 62
     5
100
AcDbLine
 10
7.897
 20
5.517999999999998
 30
0.0
 11
7.902999999999998
 21
5.54
 31
0.0
  0
LINE
  5
1AA
330
1E
100
AcDbEntity
  8
0
  6
CONTINUOUS
 62
     5
100
AcDbLine
 10
7.887999999999999
 20
5.496999999999998
 30
0.0
 11
7.897
 21
5.517999999999998
 31
0.0
  0
LINE
  5
1AB
330
1E
100
AcDbEntity
  8
0
  6
CONTINUOUS
 62
     5
100
AcDbLine
 10
7.671999999999998
 20
5.496999999999998
 30
0.0
 11
7.684
 21
5.479
 31
0.0
  0
LINE
  5
1AC
330
1E
100
AcDbEntity
  8
0
  6
CONTINUOUS
 62
     5
100
AcDbLine
 10
7.657
 20
5.54
 30
0.0
 11
7.662999999999999
 21
5.517999999999998
 31
0.0
  0
LINE
  5
1AD
330
1E
100
AcDbEntity
  8
0
  6
CONTINUOUS
 62
     5
100
AcDbLine
 10
7.662999999999999
 20
5.517999999999998
 30
0.0
 11
7.671999999999998
 21
5.496999999999998
 31
0.0
  0
LINE
  5
1AE
330
1E
100
AcDbEntity
  8
0
  6
CONTINUOUS
 62
     5
100
AcDbLine
 10
7.78
 20
5.411999999999999
 30
0.0
 11
7.78
 21
5.711999999999998
 31
0.0
  0
LINE
  5
1AF
330
1E
100
AcDbEntity
  8
0
  6
CONTINUOUS
 62
     5
100
AcDbLine
 10
7.876
 20
5.479
 30
0.0
 11
7.887999999999999
 21
5.496999999999998
 31
0.0
  0
LINE
  5
1D6
330
1E
100
AcDbEntity
  8
0
  6
CONTINUOUS
 62
     5
100
AcDbLine
 10
6.557
 20
6.405999999999998
 30
0.0
 11
6.785
 21
6.405999999999998
 31
0.0
  0
CIRCLE
  5
1D7
330
1E
100
AcDbEntity
  8
0
  6
CONTINUOUS
 62
     5
100
AcDbCircle
 10
6.671
 20
6.405999999999998
 30
0.0
 40
0.075
  0
LINE
  5
1D8
330
1E
100
AcDbEntity
  8
0
  6
CONTINUOUS
 62
     5
100
AcDbLine
 10
6.572999999999999
 20
5.642
 30
0.0
 11
6.556
 21
5.657999999999999
 31
0.0
  0
LINE
  5
1D9
330
1E
100
AcDbEntity
  8
0
  6
CONTINUOUS
 62
     5
100
AcDbLine
 10
6.556
 20
5.657999999999999
 30
0.0
 11
6.535999999999998
 21
5.669999999999999
 31
0.0
  0
LINE
  5
1DA
330
1E
100
AcDbEntity
  8
0
  6
CONTINUOUS
 62
     5
100
AcDbLine
 10
6.535999999999998
 20
5.669999999999999
 30
0.0
 11
6.514999999999998
 21
5.678999999999999
 31
0.0
  0
LINE
  5
1DB
330
1E
100
AcDbEntity
  8
0
  6
CONTINUOUS
 62
     5
100
AcDbLine
 10
6.466999999999998
 20
5.687
 30
0.0
 11
6.443999999999999
 21
5.684999999999998
 31
0.0
  0
LINE
  5
1DC
330
1E
100
AcDbEntity
  8
0
  6
CONTINUOUS
 62
     5
100
AcDbLine
 10
6.399
 20
5.669999999999999
 30
0.0
 11
6.378999999999998
 21
5.657999999999999
 31
0.0
  0
LINE
  5
1DD
330
1E
100
AcDbEntity
  8
0
  6
CONTINUOUS
 62
     5
100
AcDbLine
 10
6.378999999999998
 20
5.657999999999999
 30
0.0
 11
6.362
 21
5.642
 31
0.0
  0
LINE
  5
1DE
330
1E
100
AcDbEntity
  8
0
  6
CONTINUOUS
 62
     5
100
AcDbLine
 10
6.443999999999999
 20
5.684999999999998
 30
0.0
 11
6.419999999999999
 21
5.678999999999999
 31
0.0
  0
LINE
  5
1DF
330
1E
100
AcDbEntity
  8
0
  6
CONTINUOUS
 62
     5
100
AcDbLine
 10
6.419999999999999
 20
5.678999999999999
 30
0.0
 11
6.399
 21
5.669999999999999
 31
0.0
  0
LINE
  5
1E0
330
1E
100
AcDbEntity
  8
0
  6
CONTINUOUS
 62
     5
100
AcDbLine
 10
6.514999999999998
 20
5.678999999999999
 30
0.0
 11
6.490999999999998
 21
5.684999999999998
 31
0.0
  0
LINE
  5
1E1
330
1E
100
AcDbEntity
  8
0
  6
CONTINUOUS
 62
     5
100
AcDbLine
 10
6.490999999999998
 20
5.684999999999998
 30
0.0
 11
6.466999999999998
 21
5.687
 31
0.0
  0
LINE
  5
1E2
330
1E
100
AcDbEntity
  8
0
  6
CONTINUOUS
 62
     5
100
AcDbLine
 10
6.331999999999998
 20
5.583999999999998
 30
0.0
 11
6.33
 21
5.562
 31
0.0
  0
LINE
  5
1E3
330
1E
100
AcDbEntity
  8
0
  6
CONTINUOUS
 62
     5
100
AcDbLine
 10
6.33
 20
5.562
 30
0.0
 11
6.331999999999998
 21
5.54
 31
0.0
  0
LINE
  5
1E4
330
1E
100
AcDbEntity
  8
0
  6
CONTINUOUS
 62
     5
100
AcDbLine
 10
6.337999999999999
 20
5.605
 30
0.0
 11
6.331999999999998
 21
5.583999999999998
 31
0.0
  0
LINE
  5
1E5
330
1E
100
AcDbEntity
  8
0
  6
CONTINUOUS
 62
     5
100
AcDbLine
 10
6.362
 20
5.642
 30
0.0
 11
6.347999999999998
 21
5.625
 31
0.0
  0
LINE
  5
1E6
330
1E
100
AcDbEntity
  8
0
  6
CONTINUOUS
 62
     5
100
AcDbLine
 10
6.347999999999998
 20
5.625
 30
0.0
 11
6.337999999999999
 21
5.605
 31
0.0
  0
LINE
  5
1E7
330
1E
100
AcDbEntity
  8
0
  6
CONTINUOUS
 62
     5
100
AcDbLine
 10
6.184
 20
5.882999999999999
 30
0.0
 11
6.185999999999999
 21
5.905999999999998
 31
0.0
  0
LINE
  5
1E8
330
1E
100
AcDbEntity
  8
0
  6
CONTINUOUS
 62
     5
100
AcDbLine
 10
6.185999999999999
 20
5.905999999999998
 30
0.0
 11
6.184
 21
5.927999999999999
 31
0.0
  0
LINE
  5
1E9
330
1E
100
AcDbEntity
  8
0
  6
CONTINUOUS
 62
     5
100
AcDbLine
 10
6.178999999999999
 20
5.860999999999998
 30
0.0
 11
6.184
 21
5.882999999999999
 31
0.0
  0
LINE
  5
1EA
330
1E
100
AcDbEntity
  8
0
  6
CONTINUOUS
 62
     5
100
AcDbLine
 10
6.184
 20
5.927999999999999
 30
0.0
 11
6.178999999999999
 21
5.95
 31
0.0
  0
LINE
  5
1EB
330
1E
100
AcDbEntity
  8
0
  6
CONTINUOUS
 62
     5
100
AcDbLine
 10
6.157
 20
5.822999999999999
 30
0.0
 11
6.169999999999999
 21
5.841
 31
0.0
  0
LINE
  5
1EC
330
1E
100
AcDbEntity
  8
0
  6
CONTINUOUS
 62
     5
100
AcDbLine
 10
6.169999999999999
 20
5.841
 30
0.0
 11
6.178999999999999
 21
5.860999999999998
 31
0.0
  0
LINE
  5
1ED
330
1E
100
AcDbEntity
  8
0
  6
CONTINUOUS
 62
     5
100
AcDbLine
 10
6.178999999999999
 20
5.95
 30
0.0
 11
6.169999999999999
 21
5.969999999999998
 31
0.0
  0
LINE
  5
1EE
330
1E
100
AcDbEntity
  8
0
  6
CONTINUOUS
 62
     5
100
AcDbLine
 10
6.169999999999999
 20
5.969999999999998
 30
0.0
 11
6.157
 21
5.988999999999998
 31
0.0
  0
LINE
  5
1EF
330
1E
100
AcDbEntity
  8
0
  6
CONTINUOUS
 62
     5
100
AcDbLine
 10
6.142
 20
5.807
 30
0.0
 11
6.157
 21
5.822999999999999
 31
0.0
  0
LINE
  5
1F0
330
1E
100
AcDbEntity
  8
0
  6
CONTINUOUS
 62
     5
100
AcDbLine
 10
6.157
 20
5.988999999999998
 30
0.0
 11
6.142
 21
6.004999999999999
 31
0.0
  0
LINE
  5
1F1
330
1E
100
AcDbEntity
  8
0
  6
CONTINUOUS
 62
     5
100
AcDbLine
 10
6.123999999999998
 20
5.793999999999998
 30
0.0
 11
6.142
 21
5.807
 31
0.0
  0
LINE
  5
1F2
330
1E
100
AcDbEntity
  8
0
  6
CONTINUOUS
 62
     5
100
AcDbLine
 10
6.142
 20
6.004999999999999
 30
0.0
 11
6.123999999999998
 21
6.017999999999998
 31
0.0
  0
LINE
  5
1F3
330
1E
100
AcDbEntity
  8
0
  6
CONTINUOUS
 62
     5
100
AcDbLine
 10
6.586999999999998
 20
5.625
 30
0.0
 11
6.572999999999999
 21
5.642
 31
0.0
  0
LINE
  5
1F4
330
1E
100
AcDbEntity
  8
0
  6
CONTINUOUS
 62
     5
100
AcDbLine
 10
6.602999999999998
 20
5.54
 30
0.0
 11
6.605
 21
5.562
 31
0.0
  0
LINE
  5
1F5
330
1E
100
AcDbEntity
  8
0
  6
CONTINUOUS
 62
     5
100
AcDbLine
 10
6.605
 20
5.562
 30
0.0
 11
6.602999999999998
 21
5.583999999999998
 31
0.0
  0
LINE
  5
1F6
330
1E
100
AcDbEntity
  8
0
  6
CONTINUOUS
 62
     5
100
AcDbLine
 10
6.602999999999998
 20
5.583999999999998
 30
0.0
 11
6.597
 21
5.605
 31
0.0
  0
LINE
  5
1F7
330
1E
100
AcDbEntity
  8
0
  6
CONTINUOUS
 62
     5
100
AcDbLine
 10
6.317999999999998
 20
5.562
 30
0.0
 11
6.616999999999999
 21
5.562
 31
0.0
  0
LINE
  5
1F8
330
1E
100
AcDbEntity
  8
0
  6
CONTINUOUS
 62
     5
100
AcDbLine
 10
6.597
 20
5.605
 30
0.0
 11
6.586999999999998
 21
5.625
 31
0.0
  0
LINE
  5
1F9
330
1E
100
AcDbEntity
  8
0
  6
CONTINUOUS
 62
     5
100
AcDbLine
 10
6.671
 20
6.291999999999998
 30
0.0
 11
6.671
 21
6.519999999999998
 31
0.0
  0
ARC
  5
1FA
330
1E
100
AcDbEntity
  8
4
  6
CONTINUOUS
 62
     5
100
AcDbCircle
 10
6.671
 20
6.405999999999998
 30
0.0
 40
0.087
100
AcDbArc
 50
85.00000099999999
 51
5.0
  0
CIRCLE
  5
1FB
330
1E
100
AcDbEntity
  8
0
  6
CONTINUOUS
 62
     5
100
AcDbCircle
 10
6.671
 20
6.405999999999998
 30
0.0
 40
0.095
  0
LINE
  5
1FC
330
1E
100
AcDbEntity
  8
0
  6
CONTINUOUS
 62
     5
100
AcDbLine
 10
5.337999999999999
 20
6.405999999999998
 30
0.0
 11
5.565999999999998
 21
6.405999999999998
 31
0.0
  0
CIRCLE
  5
1FD
330
1E
100
AcDbEntity
  8
0
  6
CONTINUOUS
 62
     5
100
AcDbCircle
 10
5.451999999999999
 20
6.405999999999998
 30
0.0
 40
0.075
  0
LINE
  5
1FE
330
1E
100
AcDbEntity
  8
0
  6
CONTINUOUS
 62
     5
100
AcDbLine
 10
5.937999999999998
 20
5.927999999999999
 30
0.0
 11
5.935999999999999
 21
5.905999999999998
 31
0.0
  0
LINE
  5
1FF
330
1E
100
AcDbEntity
  8
0
  6
CONTINUOUS
 62
     5
100
AcDbLine
 10
5.935999999999999
 20
5.905999999999998
 30
0.0
 11
5.937999999999998
 21
5.882999999999999
 31
0.0
  0
LINE
  5
200
330
1E
100
AcDbEntity
  8
0
  6
CONTINUOUS
 62
     5
100
AcDbLine
 10
5.964999999999998
 20
5.988999999999998
 30
0.0
 11
5.952999999999999
 21
5.969999999999998
 31
0.0
  0
LINE
  5
201
330
1E
100
AcDbEntity
  8
0
  6
CONTINUOUS
 62
     5
100
AcDbLine
 10
5.952999999999999
 20
5.969999999999998
 30
0.0
 11
5.943999999999999
 21
5.95
 31
0.0
  0
LINE
  5
202
330
1E
100
AcDbEntity
  8
0
  6
CONTINUOUS
 62
     5
100
AcDbLine
 10
5.943999999999999
 20
5.95
 30
0.0
 11
5.937999999999998
 21
5.927999999999999
 31
0.0
  0
LINE
  5
203
330
1E
100
AcDbEntity
  8
0
  6
CONTINUOUS
 62
     5
100
AcDbLine
 10
5.964999999999998
 20
5.822999999999999
 30
0.0
 11
5.980999999999998
 21
5.807
 31
0.0
  0
LINE
  5
204
330
1E
100
AcDbEntity
  8
0
  6
CONTINUOUS
 62
     5
100
AcDbLine
 10
5.952999999999999
 20
5.841
 30
0.0
 11
5.964999999999998
 21
5.822999999999999
 31
0.0
  0
LINE
  5
205
330
1E
100
AcDbEntity
  8
0
  6
CONTINUOUS
 62
     5
100
AcDbLine
 10
5.943999999999999
 20
5.860999999999998
 30
0.0
 11
5.952999999999999
 21
5.841
 31
0.0
  0
LINE
  5
206
330
1E
100
AcDbEntity
  8
0
  6
CONTINUOUS
 62
     5
100
AcDbLine
 10
5.937999999999998
 20
5.882999999999999
 30
0.0
 11
5.943999999999999
 21
5.860999999999998
 31
0.0
  0
LINE
  5
207
330
1E
100
AcDbEntity
  8
0
  6
CONTINUOUS
 62
     5
100
AcDbLine
 10
5.980999999999998
 20
6.004999999999999
 30
0.0
 11
5.964999999999998
 21
5.988999999999998
 31
0.0
  0
LINE
  5
208
330
1E
100
AcDbEntity
  8
0
  6
CONTINUOUS
 62
     5
100
AcDbLine
 10
6.04
 20
5.777999999999998
 30
0.0
 11
6.060999999999999
 21
5.775999999999998
 31
0.0
  0
LINE
  5
209
330
1E
100
AcDbEntity
  8
0
  6
CONTINUOUS
 62
     5
100
AcDbLine
 10
6.017999999999998
 20
5.783999999999998
 30
0.0
 11
6.04
 21
5.777999999999998
 31
0.0
  0
LINE
  5
20A
330
1E
100
AcDbEntity
  8
0
  6
CONTINUOUS
 62
     5
100
AcDbLine
 10
5.998999999999998
 20
5.793999999999998
 30
0.0
 11
6.017999999999998
 21
5.783999999999998
 31
0.0
  0
LINE
  5
20B
330
1E
100
AcDbEntity
  8
0
  6
CONTINUOUS
 62
     5
100
AcDbLine
 10
5.980999999999998
 20
5.807
 30
0.0
 11
5.998999999999998
 21
5.793999999999998
 31
0.0
  0
LINE
  5
20C
330
1E
100
AcDbEntity
  8
0
  6
CONTINUOUS
 62
     5
100
AcDbLine
 10
6.060999999999999
 20
6.035
 30
0.0
 11
6.04
 21
6.032999999999999
 31
0.0
  0
LINE
  5
20D
330
1E
100
AcDbEntity
  8
0
  6
CONTINUOUS
 62
     5
100
AcDbLine
 10
6.04
 20
6.032999999999999
 30
0.0
 11
6.017999999999998
 21
6.027
 31
0.0
  0
LINE
  5
20E
330
1E
100
AcDbEntity
  8
0
  6
CONTINUOUS
 62
     5
100
AcDbLine
 10
6.017999999999998
 20
6.027
 30
0.0
 11
5.998999999999998
 21
6.017999999999998
 31
0.0
  0
LINE
  5
20F
330
1E
100
AcDbEntity
  8
0
  6
CONTINUOUS
 62
     5
100
AcDbLine
 10
5.998999999999998
 20
6.017999999999998
 30
0.0
 11
5.980999999999998
 21
6.004999999999999
 31
0.0
  0
LINE
  5
210
330
1E
100
AcDbEntity
  8
0
  6
CONTINUOUS
 62
     5
100
AcDbLine
 10
6.060999999999999
 20
5.756
 30
0.0
 11
6.060999999999999
 21
6.056
 31
0.0
  0
LINE
  5
211
330
1E
100
AcDbEntity
  8
0
  6
CONTINUOUS
 62
     5
100
AcDbLine
 10
5.697999999999999
 20
5.684
 30
0.0
 11
5.676999999999998
 21
5.689
 31
0.0
  0
LINE
  5
212
330
1E
100
AcDbEntity
  8
0
  6
CONTINUOUS
 62
     5
100
AcDbLine
 10
5.632999999999999
 20
5.689
 30
0.0
 11
5.612
 21
5.684
 31
0.0
  0
LINE
  5
213
330
1E
100
AcDbEntity
  8
0
  6
CONTINUOUS
 62
     5
100
AcDbLine
 10
5.751
 20
5.644999999999998
 30
0.0
 11
5.735
 21
5.660999999999998
 31
0.0
  0
LINE
  5
214
330
1E
100
AcDbEntity
  8
0
  6
CONTINUOUS
 62
     5
100
AcDbLine
 10
5.735
 20
5.660999999999998
 30
0.0
 11
5.716999999999998
 21
5.673999999999999
 31
0.0
  0
LINE
  5
215
330
1E
100
AcDbEntity
  8
0
  6
CONTINUOUS
 62
     5
100
AcDbLine
 10
5.716999999999998
 20
5.673999999999999
 30
0.0
 11
5.697999999999999
 21
5.684
 31
0.0
  0
LINE
  5
216
330
1E
100
AcDbEntity
  8
0
  6
CONTINUOUS
 62
     5
100
AcDbLine
 10
5.777999999999998
 20
5.54
 30
0.0
 11
5.78
 21
5.562
 31
0.0
  0
LINE
  5
217
330
1E
100
AcDbEntity
  8
0
  6
CONTINUOUS
 62
     5
100
AcDbLine
 10
5.78
 20
5.562
 30
0.0
 11
5.777999999999998
 21
5.583999999999998
 31
0.0
  0
LINE
  5
218
330
1E
100
AcDbEntity
  8
0
  6
CONTINUOUS
 62
     5
100
AcDbLine
 10
5.777999999999998
 20
5.583999999999998
 30
0.0
 11
5.772
 21
5.605999999999998
 31
0.0
  0
LINE
  5
219
330
1E
100
AcDbEntity
  8
0
  6
CONTINUOUS
 62
     5
100
AcDbLine
 10
5.762999999999999
 20
5.626999999999998
 30
0.0
 11
5.751
 21
5.644999999999998
 31
0.0
  0
LINE
  5
21A
330
1E
100
AcDbEntity
  8
0
  6
CONTINUOUS
 62
     5
100
AcDbLine
 10
5.772
 20
5.605999999999998
 30
0.0
 11
5.762999999999999
 21
5.626999999999998
 31
0.0
  0
LINE
  5
21B
330
1E
100
AcDbEntity
  8
0
  6
CONTINUOUS
 62
     5
100
AcDbLine
 10
5.676999999999998
 20
5.689
 30
0.0
 11
5.655
 21
5.690999999999998
 31
0.0
  0
LINE
  5
21C
330
1E
100
AcDbEntity
  8
0
  6
CONTINUOUS
 62
     5
100
AcDbLine
 10
5.655
 20
5.690999999999998
 30
0.0
 11
5.632999999999999
 21
5.689
 31
0.0
  0
LINE
  5
21D
330
1E
100
AcDbEntity
  8
0
  6
CONTINUOUS
 62
     5
100
AcDbLine
 10
5.53
 20
5.562
 30
0.0
 11
5.532
 21
5.54
 31
0.0
  0
LINE
  5
21E
330
1E
100
AcDbEntity
  8
0
  6
CONTINUOUS
 62
     5
100
AcDbLine
 10
5.532
 20
5.583999999999998
 30
0.0
 11
5.53
 21
5.562
 31
0.0
  0
LINE
  5
21F
330
1E
100
AcDbEntity
  8
0
  6
CONTINUOUS
 62
     5
100
AcDbLine
 10
5.537999999999999
 20
5.605999999999998
 30
0.0
 11
5.532
 21
5.583999999999998
 31
0.0
  0
LINE
  5
220
330
1E
100
AcDbEntity
  8
0
  6
CONTINUOUS
 62
     5
100
AcDbLine
 10
5.559
 20
5.644999999999998
 30
0.0
 11
5.546999999999998
 21
5.626999999999998
 31
0.0
  0
LINE
  5
221
330
1E
100
AcDbEntity
  8
0
  6
CONTINUOUS
 62
     5
100
AcDbLine
 10
5.546999999999998
 20
5.626999999999998
 30
0.0
 11
5.537999999999999
 21
5.605999999999998
 31
0.0
  0
LINE
  5
222
330
1E
100
AcDbEntity
  8
0
  6
CONTINUOUS
 62
     5
100
AcDbLine
 10
5.612
 20
5.684
 30
0.0
 11
5.591999999999998
 21
5.673999999999999
 31
0.0
  0
LINE
  5
223
330
1E
100
AcDbEntity
  8
0
  6
CONTINUOUS
 62
     5
100
AcDbLine
 10
5.591999999999998
 20
5.673999999999999
 30
0.0
 11
5.575
 21
5.660999999999998
 31
0.0
  0
LINE
  5
224
330
1E
100
AcDbEntity
  8
0
  6
CONTINUOUS
 62
     5
100
AcDbLine
 10
5.575
 20
5.660999999999998
 30
0.0
 11
5.559
 21
5.644999999999998
 31
0.0
  0
LINE
  5
225
330
1E
100
AcDbEntity
  8
0
  6
CONTINUOUS
 62
     5
100
AcDbLine
 10
5.504999999999999
 20
5.562
 30
0.0
 11
5.804999999999998
 21
5.562
 31
0.0
  0
LINE
  5
226
330
1E
100
AcDbEntity
  8
0
  6
CONTINUOUS
 62
     5
100
AcDbLine
 10
5.451999999999999
 20
6.291999999999998
 30
0.0
 11
5.451999999999999
 21
6.519999999999998
 31
0.0
  0
ARC
  5
227
330
1E
100
AcDbEntity
  8
4
  6
CONTINUOUS
 62
     5
100
AcDbCircle
 10
5.451999999999999
 20
6.405999999999998
 30
0.0
 40
0.087
100
AcDbArc
 50
85.00000099999999
 51
5.0
  0
CIRCLE
  5
228
330
1E
100
AcDbEntity
  8
0
  6
CONTINUOUS
 62
     5
100
AcDbCircle
 10
5.451999999999999
 20
6.405999999999998
 30
0.0
 40
0.095
  0
LINE
  5
229
330
1E
100
AcDbEntity
  8
0
  6
CONTINUOUS
 62
     5
100
AcDbLine
 10
6.104
 20
6.027
 30
0.0
 11
6.082999999999999
 21
6.032999999999999
 31
0.0
  0
LINE
  5
22A
330
1E
100
AcDbEntity
  8
0
  6
CONTINUOUS
 62
     5
100
AcDbLine
 10
6.082999999999999
 20
6.032999999999999
 30
0.0
 11
6.060999999999999
 21
6.035
 31
0.0
  0
LINE
  5
22B
330
1E
100
AcDbEntity
  8
0
  6
CONTINUOUS
 62
     5
100
AcDbLine
 10
6.060999999999999
 20
5.775999999999998
 30
0.0
 11
6.082999999999999
 21
5.777999999999998
 31
0.0
  0
LINE
  5
22C
330
1E
100
AcDbEntity
  8
0
  6
CONTINUOUS
 62
     5
100
AcDbLine
 10
6.082999999999999
 20
5.777999999999998
 30
0.0
 11
6.104
 21
5.783999999999998
 31
0.0
  0
LINE
  5
22D
330
1E
100
AcDbEntity
  8
0
  6
CONTINUOUS
 62
     5
100
AcDbLine
 10
6.123999999999998
 20
6.017999999999998
 30
0.0
 11
6.104
 21
6.027
 31
0.0
  0
LINE
  5
22E
330
1E
100
AcDbEntity
  8
0
  6
CONTINUOUS
 62
     5
100
AcDbLine
 10
6.104
 20
5.783999999999998
 30
0.0
 11
6.123999999999998
 21
5.793999999999998
 31
0.0
  0
LINE
  5
22F
330
1E
100
AcDbEntity
  8
0
  6
CONTINUOUS
 62
     5
100
AcDbLine
 10
5.910999999999998
 20
5.905999999999998
 30
0.0
 11
6.211
 21
5.905999999999998
 31
0.0
  0
ARC
  5
230
330
1E
100
AcDbEntity
  8
0
  6
CONTINUOUS
 62
     5
100
AcDbCircle
 10
4.723958
 20
6.904005999999998
 30
0.0
 40
0.098958
100
AcDbArc
 50
133.173552
 51
226.8264509999999
  0
LINE
  5
231
330
1E
100
AcDbEntity
  8
0
  6
CONTINUOUS
 62
     5
100
AcDbLine
 10
4.65625
 20
6.976174999999998
 30
0.0
 11
4.625
 21
6.9375
 31
0.0
  0
LINE
  5
232
330
1E
100
AcDbEntity
  8
0
  6
CONTINUOUS
 62
     5
100
AcDbLine
 10
4.65625
 20
6.976174999999998
 30
0.0
 11
4.875
 21
6.976174999999998
 31
0.0
  0
LINE
  5
233
330
1E
100
AcDbEntity
  8
0
  6
CONTINUOUS
 62
     5
100
AcDbLine
 10
4.875
 20
6.831838
 30
0.0
 11
4.65625
 21
6.831838
 31
0.0
  0
LINE
  5
234
330
1E
100
AcDbEntity
  8
0
  6
CONTINUOUS
 62
     5
100
AcDbLine
 10
4.3125
 20
6.772499999999999
 30
0.0
 11
4.3125
 21
6.96375
 31
0.0
  0
LINE
  5
235
330
1E
100
AcDbEntity
  8
0
  6
CONTINUOUS
 62
     5
100
AcDbLine
 10
4.355
 20
6.6875
 30
0.0
 11
4.269999999999998
 21
6.6875
 31
0.0
  0
LINE
  5
236
330
1E
100
AcDbEntity
  8
0
  6
CONTINUOUS
 62
     5
100
AcDbLine
 10
4.564
 20
6.831338
 30
0.0
 11
4.314
 21
6.975674999999998
 31
0.0
  0
LINE
  5
237
330
1E
100
AcDbEntity
  8
0
  6
CONTINUOUS
 62
     5
100
AcDbLine
 10
4.599375
 20
6.6875
 30
0.0
 11
4.408125
 21
6.6875
 31
0.0
  0
LINE
  5
238
330
1E
100
AcDbEntity
  8
0
  6
CONTINUOUS
 62
     5
100
AcDbLine
 10
4.65625
 20
6.398825
 30
0.0
 11
4.625
 21
6.4375
 31
0.0
  0
ARC
  5
239
330
1E
100
AcDbEntity
  8
0
  6
CONTINUOUS
 62
     5
100
AcDbCircle
 10
4.723958
 20
6.470994
 30
0.0
 40
0.098958
100
AcDbArc
 50
133.173552
 51
226.8264509999999
  0
LINE
  5
23A
330
1E
100
AcDbEntity
  8
0
  6
CONTINUOUS
 62
     5
100
AcDbLine
 10
4.65625
 20
6.543162
 30
0.0
 11
4.875
 21
6.543162
 31
0.0
  0
LINE
  5
23B
330
1E
100
AcDbEntity
  8
0
  6
CONTINUOUS
 62
     5
100
AcDbLine
 10
4.875
 20
6.398825
 30
0.0
 11
4.65625
 21
6.398825
 31
0.0
  0
LINE
  5
23C
330
1E
100
AcDbEntity
  8
0
  6
CONTINUOUS
 62
     5
100
AcDbLine
 10
4.3125
 20
6.411249999999999
 30
0.0
 11
4.3125
 21
6.6025
 31
0.0
  0
LINE
  5
23D
330
1E
100
AcDbEntity
  8
0
  6
CONTINUOUS
 62
     5
100
AcDbLine
 10
4.625
 20
6.4375
 30
0.0
 11
4.625
 21
6.9375
 31
0.0
  0
ARC
  5
23E
330
1E
100
AcDbEntity
  8
0
  6
CONTINUOUS
 62
     5
100
AcDbCircle
 10
4.973958
 20
6.6875
 30
0.0
 40
0.348958
100
AcDbArc
 50
155.567303
 51
204.4327
  0
LINE
  5
23F
330
1E
100
AcDbEntity
  8
0
  6
CONTINUOUS
 62
     5
100
AcDbLine
 10
4.3125
 20
6.655624999999998
 30
0.0
 11
4.3125
 21
6.719375
 31
0.0
  0
CIRCLE
  5
240
330
1E
100
AcDbEntity
  8
0
  6
CONTINUOUS
 62
     5
100
AcDbCircle
 10
4.311499999999998
 20
6.6875
 30
0.0
 40
0.249501
  0
LWPOLYLINE
  5
241
330
1E
100
AcDbEntity
  8
0
  6
CONTINUOUS
 62
     5
100
AcDbPolyline
 90
        6
 70
     0
 43
0.0
 10
4.562
 20
6.831338
 10
4.562
 20
6.542661999999999
 10
4.312
 20
6.398324999999998
 10
4.062
 20
6.542661999999999
 10
4.062
 20
6.831338
 10
4.312
 20
6.975674999999998
  0
LINE
  5
249
330
1E
100
AcDbEntity
  8
0
  6
CONTINUOUS
 62
     5
100
AcDbLine
 10
4.216874999999999
 20
6.6875
 30
0.0
 11
4.046875
 21
6.6875
 31
0.0
  0
LINE
  5
24A
330
1E
100
AcDbEntity
  8
0
  6
CONTINUOUS
 62
     5
100
AcDbLine
 10
4.0
 20
7.0
 30
0.0
 11
5.0
 21
7.0
 31
0.0
  0
LINE
  5
24B
330
1E
100
AcDbEntity
  8
0
  6
CONTINUOUS
 62
     5
100
AcDbLine
 10
4.498999999999998
 20
6.6875
 30
0.0
 11
5.069080999999998
 21
6.6875
 31
0.0
  0
TEXT
  5
24D
330
1E
100
AcDbEntity
  8
0
 62
     5
100
AcDbText
 10
2.256241
 20
6.707888
 30
0.0
 40
0.188
  1
T
 50
270.0
 41
0.9
 72
     5
 11
2.256241
 21
6.595088
 31
0.0
100
AcDbText
  0
CIRCLE
  5
24E
330
1E
100
AcDbEntity
  8
0
  6
CONTINUOUS
 62
     5
100
AcDbCircle
 10
1.5
 20
6.202999999999999
 30
0.0
 40
0.43
  0
ARC
  5
24F
330
1E
100
AcDbEntity
  8
0
  6
CONTINUOUS
 62
     5
100
AcDbCircle
 10
1.5
 20
6.202999999999999
 30
0.0
 40
0.361
100
AcDbArc
 50
85.00000099999999
 51
5.0
  0
CIRCLE
  5
250
330
1E
100
AcDbEntity
  8
0
  6
CONTINUOUS
 62
     5
100
AcDbCircle
 10
1.5
 20
6.202999999999999
 30
0.0
 40
0.308
  0
CIRCLE
  5
251
330
1E
100
AcDbEntity
  8
0
  6
CONTINUOUS
 62
     5
100
AcDbCircle
 10
1.5
 20
6.202999999999999
 30
0.0
 40
0.3439999999999999
  0
LINE
  5
252
330
1E
100
AcDbEntity
  8
0
  6
CONTINUOUS
 62
     5
100
AcDbLine
 10
1.5
 20
5.687999999999998
 30
0.0
 11
1.5
 21
6.717999999999999
 31
0.0
  0
LINE
  5
253
330
1E
100
AcDbEntity
  8
0
  6
CONTINUOUS
 62
     5
100
AcDbLine
 10
0.312
 20
6.772499999999999
 30
0.0
 11
0.312
 21
6.96375
 31
0.0
  0
LINE
  5
254
330
1E
100
AcDbEntity
  8
0
  6
CONTINUOUS
 62
     5
100
AcDbLine
 10
0.2695
 20
6.6875
 30
0.0
 11
0.3545
 21
6.6875
 31
0.0
  0
LINE
  5
255
330
1E
100
AcDbEntity
  8
0
  6
CONTINUOUS
 62
     5
100
AcDbLine
 10
0.407625
 20
6.6875
 30
0.0
 11
0.5776250000000001
 21
6.6875
 31
0.0
  0
LINE
  5
256
330
1E
100
AcDbEntity
  8
0
  6
CONTINUOUS
 62
     5
100
AcDbLine
 10
0.312
 20
6.411249999999999
 30
0.0
 11
0.312
 21
6.6025
 31
0.0
  0
LINE
  5
257
330
1E
100
AcDbEntity
  8
0
  6
CONTINUOUS
 62
     5
100
AcDbLine
 10
0.312
 20
6.655624999999998
 30
0.0
 11
0.312
 21
6.719375
 31
0.0
  0
LINE
  5
258
330
1E
100
AcDbEntity
  8
0
  6
CONTINUOUS
 62
     5
100
AcDbLine
 10
0.0005
 20
6.4375
 30
0.0
 11
0.0005
 21
6.9375
 31
0.0
  0
LINE
  5
259
330
1E
100
AcDbEntity
  8
0
  6
CONTINUOUS
 62
     5
100
AcDbLine
 10
0.0625
 20
6.831338
 30
0.0
 11
0.3125
 21
6.975674999999998
 31
0.0
  0
LINE
  5
25A
330
1E
100
AcDbEntity
  8
0
  6
CONTINUOUS
 62
     5
100
AcDbLine
 10
0.025125
 20
6.6875
 30
0.0
 11
0.216375
 21
6.6875
 31
0.0
  0
CIRCLE
  5
25B
330
1E
100
AcDbEntity
  8
0
  6
CONTINUOUS
 62
     5
100
AcDbCircle
 10
0.313
 20
6.6875
 30
0.0
 40
0.249501
  0
LWPOLYLINE
  5
25C
330
1E
100
AcDbEntity
  8
0
  6
CONTINUOUS
 62
     5
100
AcDbPolyline
 90
        6
 70
     0
 43
0.0
 10
0.0625
 20
6.831338
 10
0.0625
 20
6.542661999999999
 10
0.3125
 20
6.398324999999998
 10
0.5625
 20
6.542661999999999
 10
0.5625
 20
6.831338
 10
0.3125
 20
6.975674999999998
  0
LINE
  5
264
330
1E
100
AcDbEntity
  8
0
  6
CONTINUOUS
 62
     5
100
AcDbLine
 10
-0.84325
 20
6.84375
 30
0.0
 11
-0.8745
 21
6.8125
 31
0.0
  0
LINE
  5
265
330
1E
100
AcDbEntity
  8
0
  6
HIDDEN
 62
     5
100
AcDbLine
 10
-0.8745
 20
6.8125
 30
0.0
 11
-0.3745
 21
6.8125
 31
0.0
  0
LINE
  5
266
330
1E
100
AcDbEntity
  8
0
  6
CONTINUOUS
 62
     5
100
AcDbLine
 10
-0.3745
 20
6.84375
 30
0.0
 11
-0.84325
 21
6.84375
 31
0.0
  0
LINE
  5
267
330
1E
100
AcDbEntity
  8
0
  6
CONTINUOUS
 62
     5
100
AcDbLine
 10
-0.8745
 20
6.5625
 30
0.0
 11
-0.84325
 21
6.53125
 31
0.0
  0
LINE
  5
268
330
1E
100
AcDbEntity
  8
0
  6
CONTINUOUS
 62
     5
100
AcDbLine
 10
-0.84325
 20
6.53125
 30
0.0
 11
-0.3745
 21
6.53125
 31
0.0
  0
LINE
  5
269
330
1E
100
AcDbEntity
  8
0
  6
HIDDEN
 62
     5
100
AcDbLine
 10
-0.3745
 20
6.5625
 30
0.0
 11
-0.8745
 21
6.5625
 31
0.0
  0
LINE
  5
26A
330
1E
100
AcDbEntity
  8
0
  6
CONTINUOUS
 62
     5
100
AcDbLine
 10
-0.8745
 20
6.8125
 30
0.0
 11
-0.8745
 21
6.5625
 31
0.0
  0
LINE
  5
26B
330
1E
100
AcDbEntity
  8
0
  6
CONTINUOUS
 62
     5
100
AcDbLine
 10
-0.84325
 20
6.84375
 30
0.0
 11
-0.84325
 21
6.53125
 31
0.0
  0
LINE
  5
26C
330
1E
100
AcDbEntity
  8
0
  6
CONTINUOUS
 62
     5
100
AcDbLine
 10
-0.03075
 20
6.976174999999998
 30
0.0
 11
-0.2495
 21
6.976174999999998
 31
0.0
  0
LINE
  5
26D
330
1E
100
AcDbEntity
  8
0
  6
CONTINUOUS
 62
     5
100
AcDbLine
 10
-0.2495
 20
6.831838
 30
0.0
 11
-0.03075
 21
6.831838
 31
0.0
  0
LINE
  5
26E
330
1E
100
AcDbEntity
  8
0
  6
CONTINUOUS
 62
     5
100
AcDbLine
 10
-0.03075
 20
6.976174999999998
 30
0.0
 11
0.0005
 21
6.9375
 31
0.0
  0
ARC
  5
26F
330
1E
100
AcDbEntity
  8
0
  6
CONTINUOUS
 62
     5
100
AcDbCircle
 10
-0.098458
 20
6.904005999999998
 30
0.0
 40
0.098958
100
AcDbArc
 50
313.173554
 51
46.82644899999999
  0
LINE
  5
270
330
1E
100
AcDbEntity
  8
0
  6
CONTINUOUS
 62
     5
100
AcDbLine
 10
0.1255
 20
6.6875
 30
0.0
 11
-1.03075
 21
6.6875
 31
0.0
  0
LINE
  5
271
330
1E
100
AcDbEntity
  8
0
  6
CONTINUOUS
 62
     5
100
AcDbLine
 10
-0.03075
 20
6.543162
 30
0.0
 11
-0.2495
 21
6.543162
 31
0.0
  0
LINE
  5
272
330
1E
100
AcDbEntity
  8
0
  6
CONTINUOUS
 62
     5
100
AcDbLine
 10
-0.2495
 20
6.398825
 30
0.0
 11
-0.03075
 21
6.398825
 31
0.0
  0
LINE
  5
273
330
1E
100
AcDbEntity
  8
0
  6
CONTINUOUS
 62
     5
100
AcDbLine
 10
-0.03075
 20
6.398825
 30
0.0
 11
0.0005
 21
6.4375
 31
0.0
  0
ARC
  5
274
330
1E
100
AcDbEntity
  8
0
  6
CONTINUOUS
 62
     5
100
AcDbCircle
 10
-0.098458
 20
6.470994
 30
0.0
 40
0.098958
100
AcDbArc
 50
313.173554
 51
46.82644899999999
  0
ARC
  5
275
330
1E
100
AcDbEntity
  8
0
  6
CONTINUOUS
 62
     5
100
AcDbCircle
 10
-0.348458
 20
6.6875
 30
0.0
 40
0.348958
100
AcDbArc
 50
335.567305
 51
24.432698
  0
LINE
  5
276
330
1E
100
AcDbEntity
  8
0
  6
CONTINUOUS
 62
     5
100
AcDbLine
 10
0.6245000000000001
 20
7.0
 30
0.0
 11
-0.3755
 21
7.0
 31
0.0
  0
LINE
  5
277
330
1E
100
AcDbEntity
  8
0
  6
CONTINUOUS
 62
     5
100
AcDbLine
 10
0.9849999999999999
 20
6.202999999999999
 30
0.0
 11
2.015
 21
6.202999999999999
 31
0.0
  0
LINE
  5
278
330
1E
100
AcDbEntity
  8
0
  6
CONTINUOUS
 62
     5
100
AcDbLine
 10
0.0
 20
7.0
 30
0.0
 11
3.0
 21
7.0
 31
0.0
  0
CIRCLE
  5
279
330
1E
100
AcDbEntity
  8
0
  6
CONTINUOUS
 62
     5
100
AcDbCircle
 10
6.701999999999999
 20
4.812
 30
0.0
 40
0.075
  0
ARC
  5
27A
330
1E
100
AcDbEntity
  8
4
  6
CONTINUOUS
 62
     5
100
AcDbCircle
 10
6.701999999999999
 20
4.812
 30
0.0
 40
0.087
100
AcDbArc
 50
85.00000099999999
 51
5.0
  0
LINE
  5
27B
330
1E
100
AcDbEntity
  8
0
  6
CONTINUOUS
 62
     5
100
AcDbLine
 10
6.535999999999998
 20
5.453999999999998
 30
0.0
 11
6.556
 21
5.466
 31
0.0
  0
LINE
  5
27C
330
1E
100
AcDbEntity
  8
0
  6
CONTINUOUS
 62
     5
100
AcDbLine
 10
6.556
 20
5.466
 30
0.0
 11
6.572999999999999
 21
5.482
 31
0.0
  0
LINE
  5
27D
330
1E
100
AcDbEntity
  8
0
  6
CONTINUOUS
 62
     5
100
AcDbLine
 10
6.514999999999998
 20
5.445
 30
0.0
 11
6.535999999999998
 21
5.453999999999998
 31
0.0
  0
LINE
  5
27E
330
1E
100
AcDbEntity
  8
0
  6
CONTINUOUS
 62
     5
100
AcDbLine
 10
6.443999999999999
 20
5.439
 30
0.0
 11
6.466999999999998
 21
5.437
 31
0.0
  0
LINE
  5
27F
330
1E
100
AcDbEntity
  8
0
  6
CONTINUOUS
 62
     5
100
AcDbLine
 10
6.378999999999998
 20
5.466
 30
0.0
 11
6.399
 21
5.453999999999998
 31
0.0
  0
LINE
  5
280
330
1E
100
AcDbEntity
  8
0
  6
CONTINUOUS
 62
     5
100
AcDbLine
 10
6.362
 20
5.482
 30
0.0
 11
6.378999999999998
 21
5.466
 31
0.0
  0
LINE
  5
281
330
1E
100
AcDbEntity
  8
0
  6
CONTINUOUS
 62
     5
100
AcDbLine
 10
6.419999999999999
 20
5.445
 30
0.0
 11
6.443999999999999
 21
5.439
 31
0.0
  0
LINE
  5
282
330
1E
100
AcDbEntity
  8
0
  6
CONTINUOUS
 62
     5
100
AcDbLine
 10
6.399
 20
5.453999999999998
 30
0.0
 11
6.419999999999999
 21
5.445
 31
0.0
  0
LINE
  5
283
330
1E
100
AcDbEntity
  8
0
  6
CONTINUOUS
 62
     5
100
AcDbLine
 10
6.466999999999998
 20
5.437
 30
0.0
 11
6.490999999999998
 21
5.439
 31
0.0
  0
LINE
  5
284
330
1E
100
AcDbEntity
  8
0
  6
CONTINUOUS
 62
     5
100
AcDbLine
 10
6.490999999999998
 20
5.439
 30
0.0
 11
6.514999999999998
 21
5.445
 31
0.0
  0
LINE
  5
285
330
1E
100
AcDbEntity
  8
0
  6
CONTINUOUS
 62
     5
100
AcDbLine
 10
6.587999999999999
 20
4.812
 30
0.0
 11
6.815999999999998
 21
4.812
 31
0.0
  0
CIRCLE
  5
286
330
1E
100
AcDbEntity
  8
0
  6
CONTINUOUS
 62
     5
100
AcDbCircle
 10
6.701999999999999
 20
4.812
 30
0.0
 40
0.095
  0
LINE
  5
287
330
1E
100
AcDbEntity
  8
0
  6
CONTINUOUS
 62
     5
100
AcDbLine
 10
6.701999999999999
 20
4.698
 30
0.0
 11
6.701999999999999
 21
4.926
 31
0.0
  0
LINE
  5
288
330
1E
100
AcDbEntity
  8
0
  6
CONTINUOUS
 62
     5
100
AcDbLine
 10
5.632999999999999
 20
5.434999999999998
 30
0.0
 11
5.655
 21
5.432999999999998
 31
0.0
  0
LINE
  5
289
330
1E
100
AcDbEntity
  8
0
  6
CONTINUOUS
 62
     5
100
AcDbLine
 10
5.655
 20
5.432999999999998
 30
0.0
 11
5.676999999999998
 21
5.434999999999998
 31
0.0
  0
LINE
  5
28A
330
1E
100
AcDbEntity
  8
0
  6
CONTINUOUS
 62
     5
100
AcDbLine
 10
5.676999999999998
 20
5.434999999999998
 30
0.0
 11
5.697999999999999
 21
5.44
 31
0.0
  0
LINE
  5
28B
330
1E
100
AcDbEntity
  8
0
  6
CONTINUOUS
 62
     5
100
AcDbLine
 10
5.697999999999999
 20
5.44
 30
0.0
 11
5.716999999999998
 21
5.45
 31
0.0
  0
LINE
  5
28C
330
1E
100
AcDbEntity
  8
0
  6
CONTINUOUS
 62
     5
100
AcDbLine
 10
5.716999999999998
 20
5.45
 30
0.0
 11
5.735
 21
5.462999999999999
 31
0.0
  0
LINE
  5
28D
330
1E
100
AcDbEntity
  8
0
  6
CONTINUOUS
 62
     5
100
AcDbLine
 10
5.735
 20
5.462999999999999
 30
0.0
 11
5.751
 21
5.479
 31
0.0
  0
LINE
  5
28E
330
1E
100
AcDbEntity
  8
0
  6
CONTINUOUS
 62
     5
100
AcDbLine
 10
5.612
 20
5.44
 30
0.0
 11
5.632999999999999
 21
5.434999999999998
 31
0.0
  0
LINE
  5
28F
330
1E
100
AcDbEntity
  8
0
  6
CONTINUOUS
 62
     5
100
AcDbLine
 10
5.591999999999998
 20
5.45
 30
0.0
 11
5.612
 21
5.44
 31
0.0
  0
LINE
  5
290
330
1E
100
AcDbEntity
  8
0
  6
CONTINUOUS
 62
     5
100
AcDbLine
 10
5.575
 20
5.462999999999999
 30
0.0
 11
5.591999999999998
 21
5.45
 31
0.0
  0
LINE
  5
291
330
1E
100
AcDbEntity
  8
0
  6
CONTINUOUS
 62
     5
100
AcDbLine
 10
5.559
 20
5.479
 30
0.0
 11
5.575
 21
5.462999999999999
 31
0.0
  0
LINE
  5
292
330
1E
100
AcDbEntity
  8
0
  6
CONTINUOUS
 62
     5
100
AcDbLine
 10
5.421
 20
5.106787
 30
0.0
 11
5.421
 21
5.192787
 31
0.0
  0
CIRCLE
  5
293
330
1E
100
AcDbEntity
  8
0
  6
CONTINUOUS
 62
     5
100
AcDbCircle
 10
5.421
 20
5.106787
 30
0.0
 40
0.078
  0
ARC
  5
294
330
1E
100
AcDbEntity
  8
4
  6
CONTINUOUS
 62
     5
100
AcDbCircle
 10
5.421
 20
4.812
 30
0.0
 40
0.087
100
AcDbArc
 50
85.00000099999999
 51
5.0
  0
CIRCLE
  5
295
330
1E
100
AcDbEntity
  8
0
  6
CONTINUOUS
 62
     5
100
AcDbCircle
 10
5.421
 20
4.812
 30
0.0
 40
0.075
  0
LINE
  5
296
330
1E
100
AcDbEntity
  8
0
  6
CONTINUOUS
 62
     5
100
AcDbLine
 10
5.317
 20
5.106787
 30
0.0
 11
5.524
 21
5.106787
 31
0.0
  0
LINE
  5
297
330
1E
100
AcDbEntity
  8
0
  6
CONTINUOUS
 62
     5
100
AcDbLine
 10
5.307
 20
4.812
 30
0.0
 11
5.535
 21
4.812
 31
0.0
  0
CIRCLE
  5
298
330
1E
100
AcDbEntity
  8
0
  6
CONTINUOUS
 62
     5
100
AcDbCircle
 10
5.421
 20
4.812
 30
0.0
 40
0.095
  0
LINE
  5
299
330
1E
100
AcDbEntity
  8
0
  6
CONTINUOUS
 62
     5
100
AcDbLine
 10
6.060999999999999
 20
5.049999999999998
 30
0.0
 11
6.060999999999999
 21
5.386999999999998
 31
0.0
  0
LINE
  5
29A
330
1E
100
AcDbEntity
  8
0
  6
CONTINUOUS
 62
     5
100
AcDbLine
 10
5.421
 20
5.003786999999999
 30
0.0
 11
5.421
 21
5.209787
 31
0.0
  0
LINE
  5
29B
330
1E
100
AcDbEntity
  8
0
  6
CONTINUOUS
 62
     5
100
AcDbLine
 10
5.421
 20
4.698
 30
0.0
 11
5.421
 21
4.926
 31
0.0
  0
LINE
  5
29C
330
1E
100
AcDbEntity
  8
0
  6
CONTINUOUS
 62
     5
100
AcDbLine
 10
5.892999999999998
 20
5.217999999999999
 30
0.0
 11
6.23
 21
5.217999999999999
 31
0.0
  0
CIRCLE
  5
29D
330
1E
100
AcDbEntity
  8
0
  6
CONTINUOUS
 62
     5
100
AcDbCircle
 10
6.060999999999999
 20
5.217999999999999
 30
0.0
 40
0.14
  0
TEXT
  5
29E
330
1E
100
AcDbEntity
  8
0
 62
     5
100
AcDbText
 10
6.764277
 20
2.741878999999998
 30
0.0
 40
0.188
  1
B
 41
0.9
 72
     5
 11
6.877077
 21
2.741878999999998
 31
0.0
100
AcDbText
  0
LINE
  5
29F
330
1E
100
AcDbEntity
  8
0
  6
CONTINUOUS
 62
     5
100
AcDbLine
 10
5.711999999999998
 20
2.375
 30
0.0
 11
6.537999999999999
 21
2.375
 31
0.0
  0
LINE
  5
2A0
330
1E
100
AcDbEntity
  8
0
  6
CONTINUOUS
 62
     5
100
AcDbLine
 10
4.65625
 20
4.601174999999998
 30
0.0
 11
4.625
 21
4.5625
 31
0.0
  0
ARC
  5
2A1
330
1E
100
AcDbEntity
  8
0
  6
CONTINUOUS
 62
     5
100
AcDbCircle
 10
4.723958
 20
4.529005999999998
 30
0.0
 40
0.098958
100
AcDbArc
 50
133.173552
 51
226.8264509999999
  0
LINE
  5
2A2
330
1E
100
AcDbEntity
  8
0
  6
CONTINUOUS
 62
     5
100
AcDbLine
 10
4.875
 20
4.456837999999998
 30
0.0
 11
4.65625
 21
4.456837999999998
 31
0.0
  0
LINE
  5
2A3
330
1E
100
AcDbEntity
  8
0
  6
CONTINUOUS
 62
     5
100
AcDbLine
 10
4.65625
 20
4.601174999999998
 30
0.0
 11
4.875
 21
4.601174999999998
 31
0.0
  0
LINE
  5
2A4
330
1E
100
AcDbEntity
  8
0
  6
CONTINUOUS
 62
     5
100
AcDbLine
 10
4.65625
 20
4.168162
 30
0.0
 11
4.875
 21
4.168162
 31
0.0
  0
ARC
  5
2A5
330
1E
100
AcDbEntity
  8
0
  6
CONTINUOUS
 62
     5
100
AcDbCircle
 10
4.973958
 20
4.3125
 30
0.0
 40
0.348958
100
AcDbArc
 50
155.567303
 51
204.4327
  0
LINE
  5
2A6
330
1E
100
AcDbEntity
  8
0
  6
CONTINUOUS
 62
     5
100
AcDbLine
 10
4.355
 20
4.3125
 30
0.0
 11
4.269999999999998
 21
4.3125
 31
0.0
  0
LINE
  5
2A7
330
1E
100
AcDbEntity
  8
0
  6
CONTINUOUS
 62
     5
100
AcDbLine
 10
4.3125
 20
4.397499999999999
 30
0.0
 11
4.3125
 21
4.58875
 31
0.0
  0
LINE
  5
2A8
330
1E
100
AcDbEntity
  8
0
  6
CONTINUOUS
 62
     5
100
AcDbLine
 10
4.3125
 20
4.280624999999998
 30
0.0
 11
4.3125
 21
4.344375
 31
0.0
  0
LINE
  5
2A9
330
1E
100
AcDbEntity
  8
0
  6
CONTINUOUS
 62
     5
100
AcDbLine
 10
4.599375
 20
4.3125
 30
0.0
 11
4.408125
 21
4.3125
 31
0.0
  0
LINE
  5
2AA
330
1E
100
AcDbEntity
  8
0
  6
CONTINUOUS
 62
     5
100
AcDbLine
 10
4.564
 20
4.456337999999998
 30
0.0
 11
4.314
 21
4.600674999999998
 31
0.0
  0
LINE
  5
2AB
330
1E
100
AcDbEntity
  8
0
  6
CONTINUOUS
 62
     5
100
AcDbLine
 10
4.875
 20
4.023825
 30
0.0
 11
4.65625
 21
4.023825
 31
0.0
  0
LINE
  5
2AC
330
1E
100
AcDbEntity
  8
0
  6
CONTINUOUS
 62
     5
100
AcDbLine
 10
4.65625
 20
4.023825
 30
0.0
 11
4.625
 21
4.0625
 31
0.0
  0
ARC
  5
2AD
330
1E
100
AcDbEntity
  8
0
  6
CONTINUOUS
 62
     5
100
AcDbCircle
 10
4.723958
 20
4.095994
 30
0.0
 40
0.098958
100
AcDbArc
 50
133.173552
 51
226.8264509999999
  0
LINE
  5
2AE
330
1E
100
AcDbEntity
  8
0
  6
CONTINUOUS
 62
     5
100
AcDbLine
 10
4.625
 20
4.0625
 30
0.0
 11
4.625
 21
4.5625
 31
0.0
  0
LINE
  5
2AF
330
1E
100
AcDbEntity
  8
0
  6
CONTINUOUS
 62
     5
100
AcDbLine
 10
4.3125
 20
4.036249999999999
 30
0.0
 11
4.3125
 21
4.2275
 31
0.0
  0
CIRCLE
  5
2B0
330
1E
100
AcDbEntity
  8
0
  6
CONTINUOUS
 62
     5
100
AcDbCircle
 10
4.311499999999998
 20
4.3125
 30
0.0
 40
0.249501
  0
LWPOLYLINE
  5
2B1
330
1E
100
AcDbEntity
  8
0
  6
CONTINUOUS
 62
     5
100
AcDbPolyline
 90
        6
 70
     0
 43
0.0
 10
4.562
 20
4.456337999999998
 10
4.562
 20
4.167661999999999
 10
4.312
 20
4.023324999999998
 10
4.062
 20
4.167661999999999
 10
4.062
 20
4.456337999999998
 10
4.312
 20
4.600674999999998
  0
LINE
  5
2B9
330
1E
100
AcDbEntity
  8
0
  6
CONTINUOUS
 62
     5
100
AcDbLine
 10
4.216874999999999
 20
4.3125
 30
0.0
 11
4.046875
 21
4.3125
 31
0.0
  0
LINE
  5
2BA
330
1E
100
AcDbEntity
  8
0
  6
CONTINUOUS
 62
     5
100
AcDbLine
 10
5.0
 20
4.0
 30
0.0
 11
4.0
 21
4.0
 31
0.0
  0
LINE
  5
2BB
330
1E
100
AcDbEntity
  8
0
  6
CONTINUOUS
 62
     5
100
AcDbLine
 10
4.498999999999998
 20
4.3125
 30
0.0
 11
5.069080999999998
 21
4.3125
 31
0.0
  0
TEXT
  5
2BC
330
1E
100
AcDbEntity
  8
0
 62
     5
100
AcDbText
 10
6.72261
 20
0.8218009999999999
 30
0.0
 40
0.188
  1
A
 41
0.9
 72
     5
 11
6.83541
 21
0.8218009999999999
 31
0.0
100
AcDbText
  0
LINE
  5
2BD
330
1E
100
AcDbEntity
  8
0
  6
CONTINUOUS
 62
     5
100
AcDbLine
 10
5.649
 20
0.625
 30
0.0
 11
6.474999999999998
 21
0.625
 31
0.0
  0
CIRCLE
  5
2BE
330
1E
100
AcDbEntity
  8
0
  6
CONTINUOUS
 62
     5
100
AcDbCircle
 10
6.062
 20
0.625
 30
0.0
 40
0.3439999999999999
  0
ARC
  5
2BF
330
1E
100
AcDbEntity
  8
0
  6
CONTINUOUS
 62
     5
100
AcDbCircle
 10
6.062
 20
0.625
 30
0.0
 40
0.329
100
AcDbArc
 50
85.00000099999999
 51
5.0
  0
CIRCLE
  5
2C0
330
1E
100
AcDbEntity
  8
0
  6
CONTINUOUS
 62
     5
100
AcDbCircle
 10
6.062
 20
0.625
 30
0.0
 40
0.282
  0
LINE
  5
2C1
330
1E
100
AcDbEntity
  8
0
  6
CONTINUOUS
 62
     5
100
AcDbLine
 10
6.062
 20
0.213
 30
0.0
 11
6.062
 21
1.036999999999999
 31
0.0
  0
LINE
  5
2C2
330
1E
100
AcDbEntity
  8
0
  6
CONTINUOUS
 62
     5
100
AcDbLine
 10
4.0
 20
-0.375
 30
0.0
 11
4.75
 21
-0.375
 31
0.0
  0
LINE
  5
2C3
330
1E
100
AcDbEntity
  8
0
  6
CONTINUOUS
 62
     5
100
AcDbLine
 10
4.75
 20
-0.25
 30
0.0
 11
4.0
 21
-0.25
 31
0.0
  0
LINE
  5
2C4
330
1E
100
AcDbEntity
  8
0
  6
CONTINUOUS
 62
     5
100
AcDbLine
 10
4.15625
 20
-0.84375
 30
0.0
 11
4.46875
 21
-0.84375
 31
0.0
  0
LINE
  5
2C5
330
1E
100
AcDbEntity
  8
0
  6
CONTINUOUS
 62
     5
100
AcDbLine
 10
4.1875
 20
-0.875
 30
0.0
 11
4.4375
 21
-0.875
 31
0.0
  0
LINE
  5
2C6
330
1E
100
AcDbEntity
  8
0
  6
CONTINUOUS
 62
     5
100
AcDbLine
 10
4.5625
 20
0.0
 30
0.0
 11
4.0625
 21
0.0
 31
0.0
  0
ARC
  5
2C7
330
1E
100
AcDbEntity
  8
0
  6
CONTINUOUS
 62
     5
100
AcDbCircle
 10
4.3125
 20
-0.348958
 30
0.0
 40
0.348958
100
AcDbArc
 50
65.56730300000001
 51
114.4326989999999
  0
LINE
  5
2C8
330
1E
100
AcDbEntity
  8
0
  6
CONTINUOUS
 62
     5
100
AcDbLine
 10
4.3125
 20
0.125
 30
0.0
 11
4.3125
 21
-1.03125
 31
0.0
  0
LINE
  5
2C9
330
1E
100
AcDbEntity
  8
0
  6
HIDDEN
 62
     5
100
AcDbLine
 10
4.1875
 20
-0.875
 30
0.0
 11
4.1875
 21
-0.375
 31
0.0
  0
LINE
  5
2CA
330
1E
100
AcDbEntity
  8
0
  6
CONTINUOUS
 62
     5
100
AcDbLine
 10
4.15625
 20
-0.375
 30
0.0
 11
4.15625
 21
-0.84375
 31
0.0
  0
LINE
  5
2CB
330
1E
100
AcDbEntity
  8
0
  6
CONTINUOUS
 62
     5
100
AcDbLine
 10
4.15625
 20
-0.84375
 30
0.0
 11
4.1875
 21
-0.875
 31
0.0
  0
LINE
  5
2CC
330
1E
100
AcDbEntity
  8
0
  6
CONTINUOUS
 62
     5
100
AcDbLine
 10
4.0
 20
-0.25
 30
0.0
 11
4.0
 21
-0.375
 31
0.0
  0
ARC
  5
2CD
330
1E
100
AcDbEntity
  8
0
  6
CONTINUOUS
 62
     5
100
AcDbCircle
 10
4.095994
 20
-0.098958
 30
0.0
 40
0.098958
100
AcDbArc
 50
43.17355100000001
 51
136.8264499999999
  0
LINE
  5
2CE
330
1E
100
AcDbEntity
  8
0
  6
CONTINUOUS
 62
     5
100
AcDbLine
 10
4.023825
 20
-0.03125
 30
0.0
 11
4.023825
 21
-0.25
 31
0.0
  0
LINE
  5
2CF
330
1E
100
AcDbEntity
  8
0
  6
CONTINUOUS
 62
     5
100
AcDbLine
 10
4.023825
 20
-0.03125
 30
0.0
 11
4.0625
 21
0.0
 31
0.0
  0
LINE
  5
2D0
330
1E
100
AcDbEntity
  8
0
  6
CONTINUOUS
 62
     5
100
AcDbLine
 10
4.168162
 20
-0.25
 30
0.0
 11
4.168162
 21
-0.03125
 31
0.0
  0
LINE
  5
2D1
330
1E
100
AcDbEntity
  8
0
  6
CONTINUOUS
 62
     5
100
AcDbLine
 10
5.0
 20
-0.125
 30
0.0
 11
5.0
 21
0.625
 31
0.0
  0
LINE
  5
2D2
330
1E
100
AcDbEntity
  8
0
  6
CONTINUOUS
 62
     5
100
AcDbLine
 10
4.875
 20
0.625
 30
0.0
 11
4.875
 21
-0.125
 31
0.0
  0
LINE
  5
2D3
330
1E
100
AcDbEntity
  8
0
  6
HIDDEN
 62
     5
100
AcDbLine
 10
4.4375
 20
-0.375
 30
0.0
 11
4.4375
 21
-0.875
 31
0.0
  0
LINE
  5
2D4
330
1E
100
AcDbEntity
  8
0
  6
CONTINUOUS
 62
     5
100
AcDbLine
 10
4.46875
 20
-0.84375
 30
0.0
 11
4.46875
 21
-0.375
 31
0.0
  0
LINE
  5
2D5
330
1E
100
AcDbEntity
  8
0
  6
CONTINUOUS
 62
     5
100
AcDbLine
 10
4.4375
 20
-0.875
 30
0.0
 11
4.46875
 21
-0.84375
 31
0.0
  0
ARC
  5
2D6
330
1E
100
AcDbEntity
  8
0
  6
CONTINUOUS
 62
     5
100
AcDbCircle
 10
4.75
 20
-0.125
 30
0.0
 40
0.25
100
AcDbArc
 50
270.000002
 51
0.0
  0
ARC
  5
2D7
330
1E
100
AcDbEntity
  8
0
  6
CONTINUOUS
 62
     5
100
AcDbCircle
 10
4.75
 20
-0.125
 30
0.0
 40
0.125
100
AcDbArc
 50
270.000002
 51
0.0
  0
LINE
  5
2D8
330
1E
100
AcDbEntity
  8
0
  6
CONTINUOUS
 62
     5
100
AcDbLine
 10
4.456837999999998
 20
-0.03125
 30
0.0
 11
4.456837999999998
 21
-0.25
 31
0.0
  0
LINE
  5
2D9
330
1E
100
AcDbEntity
  8
0
  6
CONTINUOUS
 62
     5
100
AcDbLine
 10
4.601174999999998
 20
-0.25
 30
0.0
 11
4.601174999999998
 21
-0.03125
 31
0.0
  0
ARC
  5
2DA
330
1E
100
AcDbEntity
  8
0
  6
CONTINUOUS
 62
     5
100
AcDbCircle
 10
4.529005999999998
 20
-0.098958
 30
0.0
 40
0.098958
100
AcDbArc
 50
43.17355100000001
 51
136.8264499999999
  0
LINE
  5
2DB
330
1E
100
AcDbEntity
  8
0
  6
CONTINUOUS
 62
     5
100
AcDbLine
 10
4.601174999999998
 20
-0.03125
 30
0.0
 11
4.5625
 21
0.0
 31
0.0
  0
LINE
  5
2DC
330
1E
100
AcDbEntity
  8
0
  6
CONTINUOUS
 62
     5
100
AcDbLine
 10
4.875
 20
0.168162
 30
0.0
 11
4.65625
 21
0.168162
 31
0.0
  0
LINE
  5
2DD
330
1E
100
AcDbEntity
  8
0
  6
CONTINUOUS
 62
     5
100
AcDbLine
 10
4.65625
 20
0.023825
 30
0.0
 11
4.875
 21
0.023825
 31
0.0
  0
LINE
  5
2DE
330
1E
100
AcDbEntity
  8
0
  6
CONTINUOUS
 62
     5
100
AcDbLine
 10
4.65625
 20
0.4568380000000002
 30
0.0
 11
4.875
 21
0.4568380000000002
 31
0.0
  0
LINE
  5
2DF
330
1E
100
AcDbEntity
  8
0
  6
CONTINUOUS
 62
     5
100
AcDbLine
 10
4.875
 20
0.6011750000000001
 30
0.0
 11
4.65625
 21
0.6011750000000001
 31
0.0
  0
ARC
  5
2E0
330
1E
100
AcDbEntity
  8
0
  6
CONTINUOUS
 62
     5
100
AcDbCircle
 10
4.973958
 20
0.3125
 30
0.0
 40
0.348958
100
AcDbArc
 50
155.567303
 51
204.4327
  0
LINE
  5
2E1
330
1E
100
AcDbEntity
  8
0
  6
CONTINUOUS
 62
     5
100
AcDbLine
 10
4.625
 20
0.5625
 30
0.0
 11
4.625
 21
0.0625
 31
0.0
  0
LINE
  5
2E2
330
1E
100
AcDbEntity
  8
0
  6
CONTINUOUS
 62
     5
100
AcDbLine
 10
4.65625
 20
0.023825
 30
0.0
 11
4.625
 21
0.0625
 31
0.0
  0
ARC
  5
2E3
330
1E
100
AcDbEntity
  8
0
  6
CONTINUOUS
 62
     5
100
AcDbCircle
 10
4.723958
 20
0.095994
 30
0.0
 40
0.098958
100
AcDbArc
 50
133.173552
 51
226.8264509999999
  0
LINE
  5
2E4
330
1E
100
AcDbEntity
  8
0
  6
CONTINUOUS
 62
     5
100
AcDbLine
 10
4.65625
 20
0.6011750000000001
 30
0.0
 11
4.625
 21
0.5625
 31
0.0
  0
ARC
  5
2E5
330
1E
100
AcDbEntity
  8
0
  6
CONTINUOUS
 62
     5
100
AcDbCircle
 10
4.723958
 20
0.5290060000000001
 30
0.0
 40
0.098958
100
AcDbArc
 50
133.173552
 51
226.8264509999999
  0
LINE
  5
2E6
330
1E
100
AcDbEntity
  8
0
  6
CONTINUOUS
 62
     5
100
AcDbLine
 10
5.0
 20
0.625
 30
0.0
 11
4.875
 21
0.625
 31
0.0
  0
LINE
  5
2E7
330
1E
100
AcDbEntity
  8
0
  6
CONTINUOUS
 62
     5
100
AcDbLine
 10
4.5
 20
0.3125
 30
0.0
 11
5.375
 21
0.3125
 31
0.0
  0
CIRCLE
  5
2E8
330
1E
100
AcDbEntity
  8
0
  6
CONTINUOUS
 62
     5
100
AcDbCircle
 10
6.125
 20
2.375
 30
0.0
 40
0.3439999999999999
  0
ARC
  5
2E9
330
1E
100
AcDbEntity
  8
0
  6
CONTINUOUS
 62
     5
100
AcDbCircle
 10
6.125
 20
2.375
 30
0.0
 40
0.329
100
AcDbArc
 50
85.00000099999999
 51
5.0
  0
CIRCLE
  5
2EA
330
1E
100
AcDbEntity
  8
0
  6
CONTINUOUS
 62
     5
100
AcDbCircle
 10
6.125
 20
2.375
 30
0.0
 40
0.282
  0
LINE
  5
2EB
330
1E
100
AcDbEntity
  8
0
  6
CONTINUOUS
 62
     5
100
AcDbLine
 10
6.125
 20
1.963
 30
0.0
 11
6.125
 21
2.786999999999998
 31
0.0
  0
LINE
  5
2EC
330
1E
100
AcDbEntity
  8
0
  6
CONTINUOUS
 62
     5
100
AcDbLine
 10
5.0
 20
0.0
 30
0.0
 11
5.0
 21
3.0
 31
0.0
  0
TEXT
  5
2ED
330
1E
100
AcDbEntity
  8
0
 62
     5
100
AcDbText
 10
2.256241
 20
4.259942999999998
 30
0.0
 40
0.188
  1
P
 50
270.0
 41
0.9
 72
     5
 11
2.256241
 21
4.147142999999998
 31
0.0
100
AcDbText
  0
CIRCLE
  5
2EE
330
1E
100
AcDbEntity
  8
0
  6
CONTINUOUS
 62
     5
100
AcDbCircle
 10
1.5
 20
4.796999999999998
 30
0.0
 40
0.43
  0
ARC
  5
2EF
330
1E
100
AcDbEntity
  8
0
  6
CONTINUOUS
 62
     5
100
AcDbCircle
 10
1.5
 20
4.796999999999998
 30
0.0
 40
0.361
100
AcDbArc
 50
85.00000099999999
 51
5.0
  0
CIRCLE
  5
2F0
330
1E
100
AcDbEntity
  8
0
  6
CONTINUOUS
 62
     5
100
AcDbCircle
 10
1.5
 20
4.796999999999998
 30
0.0
 40
0.308
  0
CIRCLE
  5
2F1
330
1E
100
AcDbEntity
  8
0
  6
CONTINUOUS
 62
     5
100
AcDbCircle
 10
1.5
 20
4.796999999999998
 30
0.0
 40
0.3439999999999999
  0
LINE
  5
2F2
330
1E
100
AcDbEntity
  8
0
  6
CONTINUOUS
 62
     5
100
AcDbLine
 10
1.5
 20
4.282
 30
0.0
 11
1.5
 21
5.312
 31
0.0
  0
LINE
  5
2F3
330
1E
100
AcDbEntity
  8
0
  6
CONTINUOUS
 62
     5
100
AcDbLine
 10
0.2695
 20
4.3125
 30
0.0
 11
0.3545
 21
4.3125
 31
0.0
  0
LINE
  5
2F4
330
1E
100
AcDbEntity
  8
0
  6
CONTINUOUS
 62
     5
100
AcDbLine
 10
0.312
 20
4.397499999999999
 30
0.0
 11
0.312
 21
4.58875
 31
0.0
  0
LINE
  5
2F5
330
1E
100
AcDbEntity
  8
0
  6
CONTINUOUS
 62
     5
100
AcDbLine
 10
0.312
 20
4.280624999999998
 30
0.0
 11
0.312
 21
4.344375
 31
0.0
  0
LINE
  5
2F6
330
1E
100
AcDbEntity
  8
0
  6
CONTINUOUS
 62
     5
100
AcDbLine
 10
0.407625
 20
4.3125
 30
0.0
 11
0.5776250000000001
 21
4.3125
 31
0.0
  0
LINE
  5
2F7
330
1E
100
AcDbEntity
  8
0
  6
CONTINUOUS
 62
     5
100
AcDbLine
 10
0.312
 20
4.036249999999999
 30
0.0
 11
0.312
 21
4.2275
 31
0.0
  0
LINE
  5
2F8
330
1E
100
AcDbEntity
  8
0
  6
CONTINUOUS
 62
     5
100
AcDbLine
 10
0.0005
 20
4.0625
 30
0.0
 11
0.0005
 21
4.5625
 31
0.0
  0
LINE
  5
2F9
330
1E
100
AcDbEntity
  8
0
  6
CONTINUOUS
 62
     5
100
AcDbLine
 10
0.025125
 20
4.3125
 30
0.0
 11
0.216375
 21
4.3125
 31
0.0
  0
LINE
  5
2FA
330
1E
100
AcDbEntity
  8
0
  6
CONTINUOUS
 62
     5
100
AcDbLine
 10
0.0625
 20
4.456337999999998
 30
0.0
 11
0.3125
 21
4.600674999999998
 31
0.0
  0
CIRCLE
  5
2FB
330
1E
100
AcDbEntity
  8
0
  6
CONTINUOUS
 62
     5
100
AcDbCircle
 10
0.313
 20
4.3125
 30
0.0
 40
0.249501
  0
LWPOLYLINE
  5
2FC
330
1E
100
AcDbEntity
  8
0
  6
CONTINUOUS
 62
     5
100
AcDbPolyline
 90
        6
 70
     0
 43
0.0
 10
0.0625
 20
4.456337999999998
 10
0.0625
 20
4.167661999999999
 10
0.3125
 20
4.023324999999998
 10
0.5625
 20
4.167661999999999
 10
0.5625
 20
4.456337999999998
 10
0.3125
 20
4.600674999999998
  0
LINE
  5
304
330
1E
100
AcDbEntity
  8
0
  6
CONTINUOUS
 62
     5
100
AcDbLine
 10
-0.84325
 20
4.46875
 30
0.0
 11
-0.8745
 21
4.4375
 31
0.0
  0
LINE
  5
305
330
1E
100
AcDbEntity
  8
0
  6
CONTINUOUS
 62
     5
100
AcDbLine
 10
-0.8745
 20
4.1875
 30
0.0
 11
-0.84325
 21
4.15625
 31
0.0
  0
LINE
  5
306
330
1E
100
AcDbEntity
  8
0
  6
CONTINUOUS
 62
     5
100
AcDbLine
 10
-0.8745
 20
4.4375
 30
0.0
 11
-0.8745
 21
4.1875
 31
0.0
  0
LINE
  5
307
330
1E
100
AcDbEntity
  8
0
  6
CONTINUOUS
 62
     5
100
AcDbLine
 10
-0.84325
 20
4.46875
 30
0.0
 11
-0.84325
 21
4.15625
 31
0.0
  0
LINE
  5
308
330
1E
100
AcDbEntity
  8
0
  6
HIDDEN
 62
     5
100
AcDbLine
 10
-0.8745
 20
4.4375
 30
0.0
 11
-0.3745
 21
4.4375
 31
0.0
  0
LINE
  5
309
330
1E
100
AcDbEntity
  8
0
  6
CONTINUOUS
 62
     5
100
AcDbLine
 10
-0.3745
 20
4.46875
 30
0.0
 11
-0.84325
 21
4.46875
 31
0.0
  0
LINE
  5
30A
330
1E
100
AcDbEntity
  8
0
  6
HIDDEN
 62
     5
100
AcDbLine
 10
-0.3745
 20
4.1875
 30
0.0
 11
-0.8745
 21
4.1875
 31
0.0
  0
LINE
  5
30B
330
1E
100
AcDbEntity
  8
0
  6
CONTINUOUS
 62
     5
100
AcDbLine
 10
-0.84325
 20
4.15625
 30
0.0
 11
-0.3745
 21
4.15625
 31
0.0
  0
LINE
  5
30C
330
1E
100
AcDbEntity
  8
0
  6
CONTINUOUS
 62
     5
100
AcDbLine
 10
-0.2495
 20
4.456837999999998
 30
0.0
 11
-0.03075
 21
4.456837999999998
 31
0.0
  0
LINE
  5
30D
330
1E
100
AcDbEntity
  8
0
  6
CONTINUOUS
 62
     5
100
AcDbLine
 10
-0.03075
 20
4.601174999999998
 30
0.0
 11
-0.2495
 21
4.601174999999998
 31
0.0
  0
LINE
  5
30E
330
1E
100
AcDbEntity
  8
0
  6
CONTINUOUS
 62
     5
100
AcDbLine
 10
-0.03075
 20
4.168162
 30
0.0
 11
-0.2495
 21
4.168162
 31
0.0
  0
LINE
  5
30F
330
1E
100
AcDbEntity
  8
0
  6
CONTINUOUS
 62
     5
100
AcDbLine
 10
-0.2495
 20
4.023825
 30
0.0
 11
-0.03075
 21
4.023825
 31
0.0
  0
LINE
  5
310
330
1E
100
AcDbEntity
  8
0
  6
CONTINUOUS
 62
     5
100
AcDbLine
 10
-0.03075
 20
4.601174999999998
 30
0.0
 11
0.0005
 21
4.5625
 31
0.0
  0
ARC
  5
311
330
1E
100
AcDbEntity
  8
0
  6
CONTINUOUS
 62
     5
100
AcDbCircle
 10
-0.098458
 20
4.529005999999998
 30
0.0
 40
0.098958
100
AcDbArc
 50
313.173554
 51
46.82644899999999
  0
ARC
  5
312
330
1E
100
AcDbEntity
  8
0
  6
CONTINUOUS
 62
     5
100
AcDbCircle
 10
-0.348458
 20
4.3125
 30
0.0
 40
0.348958
100
AcDbArc
 50
335.567305
 51
24.432698
  0
LINE
  5
313
330
1E
100
AcDbEntity
  8
0
  6
CONTINUOUS
 62
     5
100
AcDbLine
 10
0.1255
 20
4.3125
 30
0.0
 11
-1.03075
 21
4.3125
 31
0.0
  0
LINE
  5
314
330
1E
100
AcDbEntity
  8
0
  6
CONTINUOUS
 62
     5
100
AcDbLine
 10
-0.03075
 20
4.023825
 30
0.0
 11
0.0005
 21
4.0625
 31
0.0
  0
ARC
  5
315
330
1E
100
AcDbEntity
  8
0
  6
CONTINUOUS
 62
     5
100
AcDbCircle
 10
-0.098458
 20
4.095994
 30
0.0
 40
0.098958
100
AcDbArc
 50
313.173554
 51
46.82644899999999
  0
LINE
  5
316
330
1E
100
AcDbEntity
  8
0
  6
CONTINUOUS
 62
     5
100
AcDbLine
 10
-0.3755
 20
4.0
 30
0.0
 11
0.6245000000000001
 21
4.0
 31
0.0
  0
LINE
  5
317
330
1E
100
AcDbEntity
  8
0
  6
CONTINUOUS
 62
     5
100
AcDbLine
 10
0.9849999999999999
 20
4.796999999999998
 30
0.0
 11
2.015
 21
4.796999999999998
 31
0.0
  0
LINE
  5
318
330
1E
100
AcDbEntity
  8
0
  6
CONTINUOUS
 62
     5
100
AcDbLine
 10
3.0
 20
4.0
 30
0.0
 11
0.0
 21
4.0
 31
0.0
  0
LINE
  5
319
330
1E
100
AcDbEntity
  8
0
  6
CONTINUOUS
 62
     5
100
AcDbLine
 10
6.337999999999999
 20
5.519
 30
0.0
 11
6.347999999999998
 21
5.5
 31
0.0
  0
LINE
  5
31A
330
1E
100
AcDbEntity
  8
0
  6
CONTINUOUS
 62
     5
100
AcDbLine
 10
6.331999999999998
 20
5.54
 30
0.0
 11
6.337999999999999
 21
5.519
 31
0.0
  0
LINE
  5
31B
330
1E
100
AcDbEntity
  8
0
  6
CONTINUOUS
 62
     5
100
AcDbLine
 10
6.347999999999998
 20
5.5
 30
0.0
 11
6.362
 21
5.482
 31
0.0
  0
LINE
  5
31C
330
1E
100
AcDbEntity
  8
0
  6
CONTINUOUS
 62
     5
100
AcDbLine
 10
6.466999999999998
 20
5.411999999999999
 30
0.0
 11
6.466999999999998
 21
5.711999999999998
 31
0.0
  0
LINE
  5
31D
330
1E
100
AcDbEntity
  8
0
  6
CONTINUOUS
 62
     5
100
AcDbLine
 10
5.762999999999999
 20
5.496999999999998
 30
0.0
 11
5.772
 21
5.517999999999998
 31
0.0
  0
LINE
  5
31E
330
1E
100
AcDbEntity
  8
0
  6
CONTINUOUS
 62
     5
100
AcDbLine
 10
5.772
 20
5.517999999999998
 30
0.0
 11
5.777999999999998
 21
5.54
 31
0.0
  0
LINE
  5
31F
330
1E
100
AcDbEntity
  8
0
  6
CONTINUOUS
 62
     5
100
AcDbLine
 10
5.751
 20
5.479
 30
0.0
 11
5.762999999999999
 21
5.496999999999998
 31
0.0
  0
LINE
  5
320
330
1E
100
AcDbEntity
  8
0
  6
CONTINUOUS
 62
     5
100
AcDbLine
 10
5.655
 20
5.411999999999999
 30
0.0
 11
5.655
 21
5.711999999999998
 31
0.0
  0
LINE
  5
321
330
1E
100
AcDbEntity
  8
0
  6
CONTINUOUS
 62
     5
100
AcDbLine
 10
5.537999999999999
 20
5.517999999999998
 30
0.0
 11
5.546999999999998
 21
5.496999999999998
 31
0.0
  0
LINE
  5
322
330
1E
100
AcDbEntity
  8
0
  6
CONTINUOUS
 62
     5
100
AcDbLine
 10
5.532
 20
5.54
 30
0.0
 11
5.537999999999999
 21
5.517999999999998
 31
0.0
  0
LINE
  5
323
330
1E
100
AcDbEntity
  8
0
  6
CONTINUOUS
 62
     5
100
AcDbLine
 10
5.546999999999998
 20
5.496999999999998
 30
0.0
 11
5.559
 21
5.479
 31
0.0
  0
LINE
  5
324
330
1E
100
AcDbEntity
  8
0
  6
CONTINUOUS
 62
     5
100
AcDbLine
 10
4.875
 20
7.0
 30
0.0
 11
4.875
 21
4.0
 31
0.0
  0
LINE
  5
325
330
1E
100
AcDbEntity
  8
0
  6
CONTINUOUS
 62
     5
100
AcDbLine
 10
5.0
 20
7.0
 30
0.0
 11
5.0
 21
4.0
 31
0.0
  0
LINE
  5
326
330
1E
100
AcDbEntity
  8
0
  6
CONTINUOUS
 62
     5
100
AcDbLine
 10
6.572999999999999
 20
5.482
 30
0.0
 11
6.586999999999998
 21
5.5
 31
0.0
  0
LINE
  5
327
330
1E
100
AcDbEntity
  8
0
  6
CONTINUOUS
 62
     5
100
AcDbLine
 10
6.586999999999998
 20
5.5
 30
0.0
 11
6.597
 21
5.519
 31
0.0
  0
LINE
  5
328
330
1E
100
AcDbEntity
  8
0
  6
CONTINUOUS
 62
     5
100
AcDbLine
 10
6.597
 20
5.519
 30
0.0
 11
6.602999999999998
 21
5.54
 31
0.0
  0
LINE
  5
329
330
1E
100
AcDbEntity
  8
0
  6
CONTINUOUS
 62
     5
100
AcDbLine
 10
4.0
 20
4.0
 30
0.0
 11
4.0
 21
7.0
 31
0.0
  0
LINE
  5
32A
330
1E
100
AcDbEntity
  8
0
  6
CONTINUOUS
 62
     5
100
AcDbLine
 10
3.0
 20
7.0
 30
0.0
 11
3.0
 21
4.0
 31
0.0
  0
LINE
  5
32B
330
1E
100
AcDbEntity
  8
0
  6
CONTINUOUS
 62
     5
100
AcDbLine
 10
-0.3755
 20
7.0
 30
0.0
 11
-0.3755
 21
4.0
 31
0.0
  0
LINE
  5
32C
330
1E
100
AcDbEntity
  8
0
  6
CONTINUOUS
 62
     5
100
AcDbLine
 10
-0.2555
 20
7.0
 30
0.0
 11
-0.2555
 21
4.0
 31
0.0
  0
LINE
  5
32D
330
1E
100
AcDbEntity
  8
0
  6
CONTINUOUS
 62
     5
100
AcDbLine
 10
0.6245000000000001
 20
4.0
 30
0.0
 11
0.6245000000000001
 21
7.0
 31
0.0
  0
LINE
  5
32E
330
1E
100
AcDbEntity
  8
0
  6
HIDDEN
 62
     5
100
AcDbLine
 10
0.0
 20
4.0
 30
0.0
 11
0.0
 21
7.0
 31
0.0
  0
LINE
  5
338
330
1E
100
AcDbEntity
  8
0
  6
CONTINUOUS
 62
     5
100
AcDbLine
 10
7.125
 20
1.171999999999999
 30
0.0
 11
7.125
 21
1.828
 31
0.0
  0
CIRCLE
  5
339
330
1E
100
AcDbEntity
  8
0
  6
CONTINUOUS
 62
     5
100
AcDbCircle
 10
7.125
 20
1.5
 30
0.0
 40
0.211
  0
LINE
  5
33A
330
1E
100
AcDbEntity
  8
0
  6
CONTINUOUS
 62
     5
100
AcDbLine
 10
6.796999999999998
 20
1.5
 30
0.0
 11
7.452999999999999
 21
1.5
 31
0.0
  0
ARC
  5
33B
330
1E
100
AcDbEntity
  8
0
  6
CONTINUOUS
 62
     5
100
AcDbCircle
 10
7.125
 20
1.5
 30
0.0
 40
0.247
100
AcDbArc
 50
85.00000099999999
 51
5.0
  0
CIRCLE
  5
33C
330
1E
100
AcDbEntity
  8
0
  6
CONTINUOUS
 62
     5
100
AcDbCircle
 10
7.125
 20
1.5
 30
0.0
 40
0.273
  0
LINE
  5
33E
330
1E
100
AcDbEntity
  8
0
  6
CONTINUOUS
 62
     5
100
AcDbLine
 10
13.5
 20
7.0
 30
0.0
 11
5.0
 21
7.0
 31
0.0
  0
LINE
  5
33F
330
1E
100
AcDbEntity
  8
0
  6
CONTINUOUS
 62
     5
100
AcDbLine
 10
5.0
 20
3.0
 30
0.0
 11
13.5
 21
3.0
 31
0.0
  0
LINE
  5
340
330
1E
100
AcDbEntity
  8
0
  6
CONTINUOUS
 62
     5
100
AcDbLine
 10
13.5
 20
0.0
 30
0.0
 11
5.0
 21
0.0
 31
0.0
  0
LINE
  5
341
330
1E
100
AcDbEntity
  8
0
  6
CONTINUOUS
 62
     5
100
AcDbLine
 10
5.0
 20
4.0
 30
0.0
 11
13.5
 21
4.0
 31
0.0
  0
MTEXT
  5
345
330
1E
100
AcDbEntity
  8
0
  6
CONTINUOUS
100
AcDbMText
 10
7.266699669724309
 20
1.970498857573126
 30
0.0
 40
0.2
 41
0.5323000000000002
 71
     1
 72
     5
  1
GA
1001
ACAD
1000
MTEXTBEGIN
1070
    73
1070
     1
1070
    44
1040
1.0
1070
    74
1070
     0
1000
MTEXTEND
1000
MTEXTBEGIN
1070
    73
1070
     1
1070
    44
1040
1.0
1070
    74
1070
     0
1000
MTEXTEND
  0
LINE
  5
36B
330
1E
100
AcDbEntity
  8
0
  6
CONTINUOUS
 62
     5
100
AcDbLine
 10
9.904999999999999
 20
5.411999999999999
 30
0.0
 11
9.904999999999999
 21
5.711999999999998
 31
0.0
  0
LINE
  5
36C
330
1E
100
AcDbEntity
  8
0
  6
CONTINUOUS
 62
     5
100
AcDbLine
 10
9.788
 20
5.517999999999998
 30
0.0
 11
9.797
 21
5.496999999999998
 31
0.0
  0
LINE
  5
36D
330
1E
100
AcDbEntity
  8
0
  6
CONTINUOUS
 62
     5
100
AcDbLine
 10
10.013
 20
5.496999999999998
 30
0.0
 11
10.02199999999999
 21
5.517999999999998
 31
0.0
  0
LINE
  5
36E
330
1E
100
AcDbEntity
  8
0
  6
CONTINUOUS
 62
     5
100
AcDbLine
 10
10.717
 20
5.411999999999999
 30
0.0
 11
10.717
 21
5.711999999999998
 31
0.0
  0
LINE
  5
36F
330
1E
100
AcDbEntity
  8
0
  6
CONTINUOUS
 62
     5
100
AcDbLine
 10
10.58799999999999
 20
5.519
 30
0.0
 11
10.59799999999999
 21
5.5
 31
0.0
  0
LINE
  5
370
330
1E
100
AcDbEntity
  8
0
  6
CONTINUOUS
 62
     5
100
AcDbLine
 10
10.837
 20
5.5
 30
0.0
 11
10.84699999999999
 21
5.519
 31
0.0
  0
LINE
  5
371
330
1E
100
AcDbEntity
  8
0
  6
CONTINUOUS
 62
     5
100
AcDbLine
 10
9.882999999999999
 20
5.434999999999998
 30
0.0
 11
9.904999999999999
 21
5.432999999999998
 31
0.0
  0
LINE
  5
372
330
1E
100
AcDbEntity
  8
0
  6
CONTINUOUS
 62
     5
100
AcDbLine
 10
9.557
 20
4.812
 30
0.0
 11
9.785
 21
4.812
 31
0.0
  0
LINE
  5
373
330
1E
100
AcDbEntity
  8
0
  6
CONTINUOUS
 62
     5
100
AcDbLine
 10
9.670999999999999
 20
4.698
 30
0.0
 11
9.670999999999999
 21
4.926
 31
0.0
  0
ARC
  5
374
330
1E
100
AcDbEntity
  8
4
  6
CONTINUOUS
 62
     5
100
AcDbCircle
 10
9.670999999999999
 20
4.812
 30
0.0
 40
0.087
100
AcDbArc
 50
85.00000099999999
 51
5.0
  0
CIRCLE
  5
375
330
1E
100
AcDbEntity
  8
0
  6
CONTINUOUS
 62
     5
100
AcDbCircle
 10
9.670999999999999
 20
4.812
 30
0.0
 40
0.095
  0
CIRCLE
  5
376
330
1E
100
AcDbEntity
  8
0
  6
CONTINUOUS
 62
     5
100
AcDbCircle
 10
9.670999999999999
 20
4.812
 30
0.0
 40
0.075
  0
LINE
  5
377
330
1E
100
AcDbEntity
  8
0
  6
CONTINUOUS
 62
     5
100
AcDbLine
 10
9.567
 20
5.106787
 30
0.0
 11
9.773999999999999
 21
5.106787
 31
0.0
  0
CIRCLE
  5
378
330
1E
100
AcDbEntity
  8
0
  6
CONTINUOUS
 62
     5
100
AcDbCircle
 10
9.670999999999999
 20
5.106787
 30
0.0
 40
0.078
  0
LINE
  5
379
330
1E
100
AcDbEntity
  8
0
  6
CONTINUOUS
 62
     5
100
AcDbLine
 10
9.670999999999999
 20
5.003786999999999
 30
0.0
 11
9.670999999999999
 21
5.209787
 31
0.0
  0
LINE
  5
37A
330
1E
100
AcDbEntity
  8
0
  6
CONTINUOUS
 62
     5
100
AcDbLine
 10
9.670999999999999
 20
5.106787
 30
0.0
 11
9.670999999999999
 21
5.192787
 31
0.0
  0
LINE
  5
37B
330
1E
100
AcDbEntity
  8
0
  6
CONTINUOUS
 62
     5
100
AcDbLine
 10
9.797
 20
5.496999999999998
 30
0.0
 11
9.808999999999999
 21
5.479
 31
0.0
  0
LINE
  5
37C
330
1E
100
AcDbEntity
  8
0
  6
CONTINUOUS
 62
     5
100
AcDbLine
 10
9.862
 20
5.44
 30
0.0
 11
9.882999999999999
 21
5.434999999999998
 31
0.0
  0
LINE
  5
37D
330
1E
100
AcDbEntity
  8
0
  6
CONTINUOUS
 62
     5
100
AcDbLine
 10
9.841999999999996
 20
5.45
 30
0.0
 11
9.862
 21
5.44
 31
0.0
  0
LINE
  5
37E
330
1E
100
AcDbEntity
  8
0
  6
CONTINUOUS
 62
     5
100
AcDbLine
 10
9.824999999999999
 20
5.462999999999999
 30
0.0
 11
9.841999999999996
 21
5.45
 31
0.0
  0
LINE
  5
37F
330
1E
100
AcDbEntity
  8
0
  6
CONTINUOUS
 62
     5
100
AcDbLine
 10
9.808999999999999
 20
5.479
 30
0.0
 11
9.824999999999999
 21
5.462999999999999
 31
0.0
  0
LINE
  5
380
330
1E
100
AcDbEntity
  8
0
  6
CONTINUOUS
 62
     5
100
AcDbLine
 10
10.14299999999999
 20
5.217999999999999
 30
0.0
 11
10.48
 21
5.217999999999999
 31
0.0
  0
CIRCLE
  5
381
330
1E
100
AcDbEntity
  8
0
  6
CONTINUOUS
 62
     5
100
AcDbCircle
 10
10.311
 20
5.217999999999999
 30
0.0
 40
0.14
  0
LINE
  5
382
330
1E
100
AcDbEntity
  8
0
  6
CONTINUOUS
 62
     5
100
AcDbLine
 10
10.00099999999999
 20
5.479
 30
0.0
 11
10.013
 21
5.496999999999998
 31
0.0
  0
LINE
  5
383
330
1E
100
AcDbEntity
  8
0
  6
CONTINUOUS
 62
     5
100
AcDbLine
 10
9.966999999999996
 20
5.45
 30
0.0
 11
9.984999999999999
 21
5.462999999999999
 31
0.0
  0
LINE
  5
384
330
1E
100
AcDbEntity
  8
0
  6
CONTINUOUS
 62
     5
100
AcDbLine
 10
9.984999999999999
 20
5.462999999999999
 30
0.0
 11
10.00099999999999
 21
5.479
 31
0.0
  0
LINE
  5
385
330
1E
100
AcDbEntity
  8
0
  6
CONTINUOUS
 62
     5
100
AcDbLine
 10
9.904999999999999
 20
5.432999999999998
 30
0.0
 11
9.926999999999999
 21
5.434999999999998
 31
0.0
  0
LINE
  5
386
330
1E
100
AcDbEntity
  8
0
  6
CONTINUOUS
 62
     5
100
AcDbLine
 10
9.926999999999999
 20
5.434999999999998
 30
0.0
 11
9.948
 21
5.44
 31
0.0
  0
LINE
  5
387
330
1E
100
AcDbEntity
  8
0
  6
CONTINUOUS
 62
     5
100
AcDbLine
 10
9.948
 20
5.44
 30
0.0
 11
9.966999999999996
 21
5.45
 31
0.0
  0
LINE
  5
388
330
1E
100
AcDbEntity
  8
0
  6
CONTINUOUS
 62
     5
100
AcDbLine
 10
10.311
 20
5.049999999999998
 30
0.0
 11
10.311
 21
5.386999999999998
 31
0.0
  0
LINE
  5
389
330
1E
100
AcDbEntity
  8
0
  6
CONTINUOUS
 62
     5
100
AcDbLine
 10
10.83799999999998
 20
4.812
 30
0.0
 11
11.066
 21
4.812
 31
0.0
  0
LINE
  5
38A
330
1E
100
AcDbEntity
  8
0
  6
CONTINUOUS
 62
     5
100
AcDbLine
 10
10.95199999999999
 20
4.698
 30
0.0
 11
10.95199999999999
 21
4.926
 31
0.0
  0
CIRCLE
  5
38B
330
1E
100
AcDbEntity
  8
0
  6
CONTINUOUS
 62
     5
100
AcDbCircle
 10
10.95199999999999
 20
4.812
 30
0.0
 40
0.095
  0
ARC
  5
38C
330
1E
100
AcDbEntity
  8
4
  6
CONTINUOUS
 62
     5
100
AcDbCircle
 10
10.95199999999999
 20
4.812
 30
0.0
 40
0.087
100
AcDbArc
 50
85.00000099999999
 51
5.0
  0
CIRCLE
  5
38D
330
1E
100
AcDbEntity
  8
0
  6
CONTINUOUS
 62
     5
100
AcDbCircle
 10
10.95199999999999
 20
4.812
 30
0.0
 40
0.075
  0
LINE
  5
38E
330
1E
100
AcDbEntity
  8
0
  6
CONTINUOUS
 62
     5
100
AcDbLine
 10
10.66999999999999
 20
5.445
 30
0.0
 11
10.694
 21
5.439
 31
0.0
  0
LINE
  5
38F
330
1E
100
AcDbEntity
  8
0
  6
CONTINUOUS
 62
     5
100
AcDbLine
 10
10.59799999999999
 20
5.5
 30
0.0
 11
10.612
 21
5.482
 31
0.0
  0
LINE
  5
390
330
1E
100
AcDbEntity
  8
0
  6
CONTINUOUS
 62
     5
100
AcDbLine
 10
10.64899999999999
 20
5.453999999999998
 30
0.0
 11
10.66999999999999
 21
5.445
 31
0.0
  0
LINE
  5
391
330
1E
100
AcDbEntity
  8
0
  6
CONTINUOUS
 62
     5
100
AcDbLine
 10
10.62899999999999
 20
5.466
 30
0.0
 11
10.64899999999999
 21
5.453999999999998
 31
0.0
  0
LINE
  5
392
330
1E
100
AcDbEntity
  8
0
  6
CONTINUOUS
 62
     5
100
AcDbLine
 10
10.612
 20
5.482
 30
0.0
 11
10.62899999999999
 21
5.466
 31
0.0
  0
LINE
  5
393
330
1E
100
AcDbEntity
  8
0
  6
CONTINUOUS
 62
     5
100
AcDbLine
 10
10.823
 20
5.482
 30
0.0
 11
10.837
 21
5.5
 31
0.0
  0
LINE
  5
394
330
1E
100
AcDbEntity
  8
0
  6
CONTINUOUS
 62
     5
100
AcDbLine
 10
10.741
 20
5.439
 30
0.0
 11
10.765
 21
5.445
 31
0.0
  0
LINE
  5
395
330
1E
100
AcDbEntity
  8
0
  6
CONTINUOUS
 62
     5
100
AcDbLine
 10
10.765
 20
5.445
 30
0.0
 11
10.786
 21
5.453999999999998
 31
0.0
  0
LINE
  5
396
330
1E
100
AcDbEntity
  8
0
  6
CONTINUOUS
 62
     5
100
AcDbLine
 10
10.786
 20
5.453999999999998
 30
0.0
 11
10.806
 21
5.466
 31
0.0
  0
LINE
  5
397
330
1E
100
AcDbEntity
  8
0
  6
CONTINUOUS
 62
     5
100
AcDbLine
 10
10.694
 20
5.439
 30
0.0
 11
10.717
 21
5.437
 31
0.0
  0
LINE
  5
398
330
1E
100
AcDbEntity
  8
0
  6
CONTINUOUS
 62
     5
100
AcDbLine
 10
10.717
 20
5.437
 30
0.0
 11
10.741
 21
5.439
 31
0.0
  0
LINE
  5
399
330
1E
100
AcDbEntity
  8
0
  6
CONTINUOUS
 62
     5
100
AcDbLine
 10
10.806
 20
5.466
 30
0.0
 11
10.823
 21
5.482
 31
0.0
  0
LINE
  5
39A
330
1E
100
AcDbEntity
  8
0
  6
CONTINUOUS
 62
     5
100
AcDbLine
 10
9.755
 20
5.562
 30
0.0
 11
10.055
 21
5.562
 31
0.0
  0
LINE
  5
39B
330
1E
100
AcDbEntity
  8
0
  6
CONTINUOUS
 62
     5
100
AcDbLine
 10
9.904999999999999
 20
5.690999999999998
 30
0.0
 11
9.882999999999999
 21
5.689
 31
0.0
  0
LINE
  5
39C
330
1E
100
AcDbEntity
  8
0
  6
CONTINUOUS
 62
     5
100
AcDbLine
 10
9.782
 20
5.54
 30
0.0
 11
9.788
 21
5.517999999999998
 31
0.0
  0
LINE
  5
39D
330
1E
100
AcDbEntity
  8
0
  6
CONTINUOUS
 62
     5
100
AcDbLine
 10
9.797
 20
5.626999999999998
 30
0.0
 11
9.788
 21
5.605999999999998
 31
0.0
  0
LINE
  5
39E
330
1E
100
AcDbEntity
  8
0
  6
CONTINUOUS
 62
     5
100
AcDbLine
 10
9.808999999999999
 20
5.644999999999998
 30
0.0
 11
9.797
 21
5.626999999999998
 31
0.0
  0
LINE
  5
39F
330
1E
100
AcDbEntity
  8
0
  6
CONTINUOUS
 62
     5
100
AcDbLine
 10
9.788
 20
5.605999999999998
 30
0.0
 11
9.782
 21
5.583999999999998
 31
0.0
  0
LINE
  5
3A0
330
1E
100
AcDbEntity
  8
0
  6
CONTINUOUS
 62
     5
100
AcDbLine
 10
9.779999999999999
 20
5.562
 30
0.0
 11
9.782
 21
5.54
 31
0.0
  0
LINE
  5
3A1
330
1E
100
AcDbEntity
  8
0
  6
CONTINUOUS
 62
     5
100
AcDbLine
 10
9.782
 20
5.583999999999998
 30
0.0
 11
9.779999999999999
 21
5.562
 31
0.0
  0
LINE
  5
3A2
330
1E
100
AcDbEntity
  8
0
  6
CONTINUOUS
 62
     5
100
AcDbLine
 10
9.882999999999999
 20
5.689
 30
0.0
 11
9.862
 21
5.684
 31
0.0
  0
LINE
  5
3A3
330
1E
100
AcDbEntity
  8
0
  6
CONTINUOUS
 62
     5
100
AcDbLine
 10
9.862
 20
5.684
 30
0.0
 11
9.841999999999996
 21
5.673999999999999
 31
0.0
  0
LINE
  5
3A4
330
1E
100
AcDbEntity
  8
0
  6
CONTINUOUS
 62
     5
100
AcDbLine
 10
9.841999999999996
 20
5.673999999999999
 30
0.0
 11
9.824999999999999
 21
5.660999999999998
 31
0.0
  0
LINE
  5
3A5
330
1E
100
AcDbEntity
  8
0
  6
CONTINUOUS
 62
     5
100
AcDbLine
 10
9.824999999999999
 20
5.660999999999998
 30
0.0
 11
9.808999999999999
 21
5.644999999999998
 31
0.0
  0
ARC
  5
3A6
330
1E
100
AcDbEntity
  8
4
  6
CONTINUOUS
 62
     5
100
AcDbCircle
 10
9.701999999999999
 20
6.405999999999998
 30
0.0
 40
0.087
100
AcDbArc
 50
85.00000099999999
 51
5.0
  0
CIRCLE
  5
3A7
330
1E
100
AcDbEntity
  8
0
  6
CONTINUOUS
 62
     5
100
AcDbCircle
 10
9.701999999999999
 20
6.405999999999998
 30
0.0
 40
0.095
  0
CIRCLE
  5
3A8
330
1E
100
AcDbEntity
  8
0
  6
CONTINUOUS
 62
     5
100
AcDbCircle
 10
9.701999999999999
 20
6.405999999999998
 30
0.0
 40
0.075
  0
LINE
  5
3A9
330
1E
100
AcDbEntity
  8
0
  6
CONTINUOUS
 62
     5
100
AcDbLine
 10
9.587999999999999
 20
6.405999999999998
 30
0.0
 11
9.815999999999997
 21
6.405999999999998
 31
0.0
  0
LINE
  5
3AA
330
1E
100
AcDbEntity
  8
0
  6
CONTINUOUS
 62
     5
100
AcDbLine
 10
9.701999999999999
 20
6.291999999999998
 30
0.0
 11
9.701999999999999
 21
6.519999999999998
 31
0.0
  0
LINE
  5
3AB
330
1E
100
AcDbEntity
  8
0
  6
CONTINUOUS
 62
     5
100
AcDbLine
 10
10.249
 20
6.017999999999998
 30
0.0
 11
10.231
 21
6.004999999999999
 31
0.0
  0
LINE
  5
3AC
330
1E
100
AcDbEntity
  8
0
  6
CONTINUOUS
 62
     5
100
AcDbLine
 10
10.311
 20
5.756
 30
0.0
 11
10.311
 21
6.056
 31
0.0
  0
LINE
  5
3AD
330
1E
100
AcDbEntity
  8
0
  6
CONTINUOUS
 62
     5
100
AcDbLine
 10
10.39199999999999
 20
6.004999999999999
 30
0.0
 11
10.374
 21
6.017999999999998
 31
0.0
  0
LINE
  5
3AE
330
1E
100
AcDbEntity
  8
0
  6
CONTINUOUS
 62
     5
100
AcDbLine
 10
10.161
 20
5.905999999999998
 30
0.0
 11
10.46099999999999
 21
5.905999999999998
 31
0.0
  0
LINE
  5
3AF
330
1E
100
AcDbEntity
  8
0
  6
CONTINUOUS
 62
     5
100
AcDbLine
 10
10.215
 20
5.988999999999998
 30
0.0
 11
10.20299999999999
 21
5.969999999999998
 31
0.0
  0
LINE
  5
3B0
330
1E
100
AcDbEntity
  8
0
  6
CONTINUOUS
 62
     5
100
AcDbLine
 10
10.20299999999999
 20
5.841
 30
0.0
 11
10.215
 21
5.822999999999999
 31
0.0
  0
LINE
  5
3B1
330
1E
100
AcDbEntity
  8
0
  6
CONTINUOUS
 62
     5
100
AcDbLine
 10
10.02199999999999
 20
5.517999999999998
 30
0.0
 11
10.02799999999999
 21
5.54
 31
0.0
  0
LINE
  5
3B2
330
1E
100
AcDbEntity
  8
0
  6
CONTINUOUS
 62
     5
100
AcDbLine
 10
10.013
 20
5.626999999999998
 30
0.0
 11
10.00099999999999
 21
5.644999999999998
 31
0.0
  0
LINE
  5
3B3
330
1E
100
AcDbEntity
  8
0
  6
CONTINUOUS
 62
     5
100
AcDbLine
 10
10.00099999999999
 20
5.644999999999998
 30
0.0
 11
9.984999999999999
 21
5.660999999999998
 31
0.0
  0
LINE
  5
3B4
330
1E
100
AcDbEntity
  8
0
  6
CONTINUOUS
 62
     5
100
AcDbLine
 10
9.984999999999999
 20
5.660999999999998
 30
0.0
 11
9.966999999999996
 21
5.673999999999999
 31
0.0
  0
LINE
  5
3B5
330
1E
100
AcDbEntity
  8
0
  6
CONTINUOUS
 62
     5
100
AcDbLine
 10
9.926999999999999
 20
5.689
 30
0.0
 11
9.904999999999999
 21
5.690999999999998
 31
0.0
  0
LINE
  5
3B6
330
1E
100
AcDbEntity
  8
0
  6
CONTINUOUS
 62
     5
100
AcDbLine
 10
9.948
 20
5.684
 30
0.0
 11
9.926999999999999
 21
5.689
 31
0.0
  0
LINE
  5
3B7
330
1E
100
AcDbEntity
  8
0
  6
CONTINUOUS
 62
     5
100
AcDbLine
 10
9.966999999999996
 20
5.673999999999999
 30
0.0
 11
9.948
 21
5.684
 31
0.0
  0
LINE
  5
3B8
330
1E
100
AcDbEntity
  8
0
  6
CONTINUOUS
 62
     5
100
AcDbLine
 10
10.02199999999999
 20
5.605999999999998
 30
0.0
 11
10.013
 21
5.626999999999998
 31
0.0
  0
LINE
  5
3B9
330
1E
100
AcDbEntity
  8
0
  6
CONTINUOUS
 62
     5
100
AcDbLine
 10
10.02799999999999
 20
5.583999999999998
 30
0.0
 11
10.02199999999999
 21
5.605999999999998
 31
0.0
  0
LINE
  5
3BA
330
1E
100
AcDbEntity
  8
0
  6
CONTINUOUS
 62
     5
100
AcDbLine
 10
10.02799999999999
 20
5.54
 30
0.0
 11
10.02999999999999
 21
5.562
 31
0.0
  0
LINE
  5
3BB
330
1E
100
AcDbEntity
  8
0
  6
CONTINUOUS
 62
     5
100
AcDbLine
 10
10.02999999999999
 20
5.562
 30
0.0
 11
10.02799999999999
 21
5.583999999999998
 31
0.0
  0
LINE
  5
3BC
330
1E
100
AcDbEntity
  8
0
  6
CONTINUOUS
 62
     5
100
AcDbLine
 10
10.20299999999999
 20
5.969999999999998
 30
0.0
 11
10.19399999999999
 21
5.95
 31
0.0
  0
LINE
  5
3BD
330
1E
100
AcDbEntity
  8
0
  6
CONTINUOUS
 62
     5
100
AcDbLine
 10
10.19399999999999
 20
5.860999999999998
 30
0.0
 11
10.20299999999999
 21
5.841
 31
0.0
  0
LINE
  5
3BE
330
1E
100
AcDbEntity
  8
0
  6
CONTINUOUS
 62
     5
100
AcDbLine
 10
10.19399999999999
 20
5.95
 30
0.0
 11
10.18799999999999
 21
5.927999999999999
 31
0.0
  0
LINE
  5
3BF
330
1E
100
AcDbEntity
  8
0
  6
CONTINUOUS
 62
     5
100
AcDbLine
 10
10.18799999999999
 20
5.927999999999999
 30
0.0
 11
10.18599999999999
 21
5.905999999999998
 31
0.0
  0
LINE
  5
3C0
330
1E
100
AcDbEntity
  8
0
  6
CONTINUOUS
 62
     5
100
AcDbLine
 10
10.18799999999999
 20
5.882999999999999
 30
0.0
 11
10.19399999999999
 21
5.860999999999998
 31
0.0
  0
LINE
  5
3C1
330
1E
100
AcDbEntity
  8
0
  6
CONTINUOUS
 62
     5
100
AcDbLine
 10
10.18599999999999
 20
5.905999999999998
 30
0.0
 11
10.18799999999999
 21
5.882999999999999
 31
0.0
  0
LINE
  5
3C2
330
1E
100
AcDbEntity
  8
0
  6
CONTINUOUS
 62
     5
100
AcDbLine
 10
10.35399999999998
 20
5.783999999999998
 30
0.0
 11
10.374
 21
5.793999999999998
 31
0.0
  0
LINE
  5
3C3
330
1E
100
AcDbEntity
  8
0
  6
CONTINUOUS
 62
     5
100
AcDbLine
 10
10.26799999999999
 20
5.783999999999998
 30
0.0
 11
10.28999999999999
 21
5.777999999999998
 31
0.0
  0
LINE
  5
3C4
330
1E
100
AcDbEntity
  8
0
  6
CONTINUOUS
 62
     5
100
AcDbLine
 10
10.249
 20
5.793999999999998
 30
0.0
 11
10.26799999999999
 21
5.783999999999998
 31
0.0
  0
LINE
  5
3C5
330
1E
100
AcDbEntity
  8
0
  6
CONTINUOUS
 62
     5
100
AcDbLine
 10
10.231
 20
6.004999999999999
 30
0.0
 11
10.215
 21
5.988999999999998
 31
0.0
  0
LINE
  5
3C6
330
1E
100
AcDbEntity
  8
0
  6
CONTINUOUS
 62
     5
100
AcDbLine
 10
10.215
 20
5.822999999999999
 30
0.0
 11
10.231
 21
5.807
 31
0.0
  0
LINE
  5
3C7
330
1E
100
AcDbEntity
  8
0
  6
CONTINUOUS
 62
     5
100
AcDbLine
 10
10.231
 20
5.807
 30
0.0
 11
10.249
 21
5.793999999999998
 31
0.0
  0
LINE
  5
3C8
330
1E
100
AcDbEntity
  8
0
  6
CONTINUOUS
 62
     5
100
AcDbLine
 10
10.311
 20
5.775999999999998
 30
0.0
 11
10.333
 21
5.777999999999998
 31
0.0
  0
LINE
  5
3C9
330
1E
100
AcDbEntity
  8
0
  6
CONTINUOUS
 62
     5
100
AcDbLine
 10
10.333
 20
5.777999999999998
 30
0.0
 11
10.35399999999998
 21
5.783999999999998
 31
0.0
  0
LINE
  5
3CA
330
1E
100
AcDbEntity
  8
0
  6
CONTINUOUS
 62
     5
100
AcDbLine
 10
10.28999999999999
 20
5.777999999999998
 30
0.0
 11
10.311
 21
5.775999999999998
 31
0.0
  0
LINE
  5
3CB
330
1E
100
AcDbEntity
  8
0
  6
CONTINUOUS
 62
     5
100
AcDbLine
 10
10.374
 20
5.793999999999998
 30
0.0
 11
10.39199999999999
 21
5.807
 31
0.0
  0
LINE
  5
3CC
330
1E
100
AcDbEntity
  8
0
  6
CONTINUOUS
 62
     5
100
AcDbLine
 10
10.40699999999999
 20
5.988999999999998
 30
0.0
 11
10.39199999999999
 21
6.004999999999999
 31
0.0
  0
LINE
  5
3CD
330
1E
100
AcDbEntity
  8
0
  6
CONTINUOUS
 62
     5
100
AcDbLine
 10
10.43399999999998
 20
5.882999999999999
 30
0.0
 11
10.436
 21
5.905999999999998
 31
0.0
  0
LINE
  5
3CE
330
1E
100
AcDbEntity
  8
0
  6
CONTINUOUS
 62
     5
100
AcDbLine
 10
10.436
 20
5.905999999999998
 30
0.0
 11
10.43399999999998
 21
5.927999999999999
 31
0.0
  0
LINE
  5
3CF
330
1E
100
AcDbEntity
  8
0
  6
CONTINUOUS
 62
     5
100
AcDbLine
 10
10.39199999999999
 20
5.807
 30
0.0
 11
10.40699999999999
 21
5.822999999999999
 31
0.0
  0
LINE
  5
3D0
330
1E
100
AcDbEntity
  8
0
  6
CONTINUOUS
 62
     5
100
AcDbLine
 10
10.40699999999999
 20
5.822999999999999
 30
0.0
 11
10.42
 21
5.841
 31
0.0
  0
LINE
  5
3D1
330
1E
100
AcDbEntity
  8
0
  6
CONTINUOUS
 62
     5
100
AcDbLine
 10
10.42
 20
5.841
 30
0.0
 11
10.429
 21
5.860999999999998
 31
0.0
  0
LINE
  5
3D2
330
1E
100
AcDbEntity
  8
0
  6
CONTINUOUS
 62
     5
100
AcDbLine
 10
10.429
 20
5.860999999999998
 30
0.0
 11
10.43399999999998
 21
5.882999999999999
 31
0.0
  0
LINE
  5
3D3
330
1E
100
AcDbEntity
  8
0
  6
CONTINUOUS
 62
     5
100
AcDbLine
 10
10.43399999999998
 20
5.927999999999999
 30
0.0
 11
10.429
 21
5.95
 31
0.0
  0
LINE
  5
3D4
330
1E
100
AcDbEntity
  8
0
  6
CONTINUOUS
 62
     5
100
AcDbLine
 10
10.429
 20
5.95
 30
0.0
 11
10.42
 21
5.969999999999998
 31
0.0
  0
LINE
  5
3D5
330
1E
100
AcDbEntity
  8
0
  6
CONTINUOUS
 62
     5
100
AcDbLine
 10
10.42
 20
5.969999999999998
 30
0.0
 11
10.40699999999999
 21
5.988999999999998
 31
0.0
  0
LINE
  5
3D6
330
1E
100
AcDbEntity
  8
0
  6
CONTINUOUS
 62
     5
100
AcDbLine
 10
10.374
 20
6.017999999999998
 30
0.0
 11
10.35399999999998
 21
6.027
 31
0.0
  0
LINE
  5
3D7
330
1E
100
AcDbEntity
  8
0
  6
CONTINUOUS
 62
     5
100
AcDbLine
 10
10.28999999999999
 20
6.032999999999999
 30
0.0
 11
10.26799999999999
 21
6.027
 31
0.0
  0
LINE
  5
3D8
330
1E
100
AcDbEntity
  8
0
  6
CONTINUOUS
 62
     5
100
AcDbLine
 10
10.26799999999999
 20
6.027
 30
0.0
 11
10.249
 21
6.017999999999998
 31
0.0
  0
LINE
  5
3D9
330
1E
100
AcDbEntity
  8
0
  6
CONTINUOUS
 62
     5
100
AcDbLine
 10
10.35399999999998
 20
6.027
 30
0.0
 11
10.333
 21
6.032999999999999
 31
0.0
  0
LINE
  5
3DA
330
1E
100
AcDbEntity
  8
0
  6
CONTINUOUS
 62
     5
100
AcDbLine
 10
10.333
 20
6.032999999999999
 30
0.0
 11
10.311
 21
6.035
 31
0.0
  0
LINE
  5
3DB
330
1E
100
AcDbEntity
  8
0
  6
CONTINUOUS
 62
     5
100
AcDbLine
 10
10.311
 20
6.035
 30
0.0
 11
10.28999999999999
 21
6.032999999999999
 31
0.0
  0
LINE
  5
3DC
330
1E
100
AcDbEntity
  8
0
  6
CONTINUOUS
 62
     5
100
AcDbLine
 10
10.56799999999999
 20
5.562
 30
0.0
 11
10.867
 21
5.562
 31
0.0
  0
LINE
  5
3DD
330
1E
100
AcDbEntity
  8
0
  6
CONTINUOUS
 62
     5
100
AcDbLine
 10
10.84699999999999
 20
5.605
 30
0.0
 11
10.837
 21
5.625
 31
0.0
  0
LINE
  5
3DE
330
1E
100
AcDbEntity
  8
0
  6
CONTINUOUS
 62
     5
100
AcDbLine
 10
10.694
 20
5.684999999999998
 30
0.0
 11
10.66999999999999
 21
5.678999999999999
 31
0.0
  0
LINE
  5
3DF
330
1E
100
AcDbEntity
  8
0
  6
CONTINUOUS
 62
     5
100
AcDbLine
 10
10.582
 20
5.54
 30
0.0
 11
10.58799999999999
 21
5.519
 31
0.0
  0
LINE
  5
3E0
330
1E
100
AcDbEntity
  8
0
  6
CONTINUOUS
 62
     5
100
AcDbLine
 10
10.59799999999999
 20
5.625
 30
0.0
 11
10.58799999999999
 21
5.605
 31
0.0
  0
LINE
  5
3E1
330
1E
100
AcDbEntity
  8
0
  6
CONTINUOUS
 62
     5
100
AcDbLine
 10
10.612
 20
5.642
 30
0.0
 11
10.59799999999999
 21
5.625
 31
0.0
  0
LINE
  5
3E2
330
1E
100
AcDbEntity
  8
0
  6
CONTINUOUS
 62
     5
100
AcDbLine
 10
10.58799999999999
 20
5.605
 30
0.0
 11
10.582
 21
5.583999999999998
 31
0.0
  0
LINE
  5
3E3
330
1E
100
AcDbEntity
  8
0
  6
CONTINUOUS
 62
     5
100
AcDbLine
 10
10.582
 20
5.583999999999998
 30
0.0
 11
10.58
 21
5.562
 31
0.0
  0
LINE
  5
3E4
330
1E
100
AcDbEntity
  8
0
  6
CONTINUOUS
 62
     5
100
AcDbLine
 10
10.58
 20
5.562
 30
0.0
 11
10.582
 21
5.54
 31
0.0
  0
LINE
  5
3E5
330
1E
100
AcDbEntity
  8
0
  6
CONTINUOUS
 62
     5
100
AcDbLine
 10
10.66999999999999
 20
5.678999999999999
 30
0.0
 11
10.64899999999999
 21
5.669999999999999
 31
0.0
  0
LINE
  5
3E6
330
1E
100
AcDbEntity
  8
0
  6
CONTINUOUS
 62
     5
100
AcDbLine
 10
10.64899999999999
 20
5.669999999999999
 30
0.0
 11
10.62899999999999
 21
5.657999999999999
 31
0.0
  0
LINE
  5
3E7
330
1E
100
AcDbEntity
  8
0
  6
CONTINUOUS
 62
     5
100
AcDbLine
 10
10.62899999999999
 20
5.657999999999999
 30
0.0
 11
10.612
 21
5.642
 31
0.0
  0
LINE
  5
3E8
330
1E
100
AcDbEntity
  8
0
  6
CONTINUOUS
 62
     5
100
AcDbLine
 10
10.765
 20
5.678999999999999
 30
0.0
 11
10.741
 21
5.684999999999998
 31
0.0
  0
LINE
  5
3E9
330
1E
100
AcDbEntity
  8
0
  6
CONTINUOUS
 62
     5
100
AcDbLine
 10
10.786
 20
5.669999999999999
 30
0.0
 11
10.765
 21
5.678999999999999
 31
0.0
  0
LINE
  5
3EA
330
1E
100
AcDbEntity
  8
0
  6
CONTINUOUS
 62
     5
100
AcDbLine
 10
10.806
 20
5.657999999999999
 30
0.0
 11
10.786
 21
5.669999999999999
 31
0.0
  0
LINE
  5
3EB
330
1E
100
AcDbEntity
  8
0
  6
CONTINUOUS
 62
     5
100
AcDbLine
 10
10.741
 20
5.684999999999998
 30
0.0
 11
10.717
 21
5.687
 31
0.0
  0
LINE
  5
3EC
330
1E
100
AcDbEntity
  8
0
  6
CONTINUOUS
 62
     5
100
AcDbLine
 10
10.717
 20
5.687
 30
0.0
 11
10.694
 21
5.684999999999998
 31
0.0
  0
LINE
  5
3ED
330
1E
100
AcDbEntity
  8
0
  6
CONTINUOUS
 62
     5
100
AcDbLine
 10
10.837
 20
5.625
 30
0.0
 11
10.823
 21
5.642
 31
0.0
  0
LINE
  5
3EE
330
1E
100
AcDbEntity
  8
0
  6
CONTINUOUS
 62
     5
100
AcDbLine
 10
10.823
 20
5.642
 30
0.0
 11
10.806
 21
5.657999999999999
 31
0.0
  0
LINE
  5
3EF
330
1E
100
AcDbEntity
  8
0
  6
CONTINUOUS
 62
     5
100
AcDbLine
 10
10.84699999999999
 20
5.519
 30
0.0
 11
10.85299999999999
 21
5.54
 31
0.0
  0
LINE
  5
3F0
330
1E
100
AcDbEntity
  8
0
  6
CONTINUOUS
 62
     5
100
AcDbLine
 10
10.85299999999999
 20
5.54
 30
0.0
 11
10.855
 21
5.562
 31
0.0
  0
LINE
  5
3F1
330
1E
100
AcDbEntity
  8
0
  6
CONTINUOUS
 62
     5
100
AcDbLine
 10
10.855
 20
5.562
 30
0.0
 11
10.85299999999999
 21
5.583999999999998
 31
0.0
  0
LINE
  5
3F2
330
1E
100
AcDbEntity
  8
0
  6
CONTINUOUS
 62
     5
100
AcDbLine
 10
10.85299999999999
 20
5.583999999999998
 30
0.0
 11
10.84699999999999
 21
5.605
 31
0.0
  0
CIRCLE
  5
3F3
330
1E
100
AcDbEntity
  8
0
  6
CONTINUOUS
 62
     5
100
AcDbCircle
 10
10.921
 20
6.405999999999998
 30
0.0
 40
0.095
  0
ARC
  5
3F4
330
1E
100
AcDbEntity
  8
4
  6
CONTINUOUS
 62
     5
100
AcDbCircle
 10
10.921
 20
6.405999999999998
 30
0.0
 40
0.087
100
AcDbArc
 50
85.00000099999999
 51
5.0
  0
LINE
  5
3F5
330
1E
100
AcDbEntity
  8
0
  6
CONTINUOUS
 62
     5
100
AcDbLine
 10
10.807
 20
6.405999999999998
 30
0.0
 11
11.035
 21
6.405999999999998
 31
0.0
  0
LINE
  5
3F6
330
1E
100
AcDbEntity
  8
0
  6
CONTINUOUS
 62
     5
100
AcDbLine
 10
10.921
 20
6.291999999999998
 30
0.0
 11
10.921
 21
6.519999999999998
 31
0.0
  0
CIRCLE
  5
3F7
330
1E
100
AcDbEntity
  8
0
  6
CONTINUOUS
 62
     5
100
AcDbCircle
 10
10.921
 20
6.405999999999998
 30
0.0
 40
0.075
  0
CIRCLE
  5
3F8
330
1E
100
AcDbEntity
  8
0
  6
CONTINUOUS
 62
     5
100
AcDbCircle
 10
10.375
 20
2.375
 30
0.0
 40
0.3439999999999999
  0
ARC
  5
3F9
330
1E
100
AcDbEntity
  8
0
  6
CONTINUOUS
 62
     5
100
AcDbCircle
 10
10.375
 20
2.375
 30
0.0
 40
0.329
100
AcDbArc
 50
85.00000099999999
 51
5.0
  0
CIRCLE
  5
3FA
330
1E
100
AcDbEntity
  8
0
  6
CONTINUOUS
 62
     5
100
AcDbCircle
 10
10.375
 20
2.375
 30
0.0
 40
0.282
  0
LINE
  5
3FB
330
1E
100
AcDbEntity
  8
0
  6
CONTINUOUS
 62
     5
100
AcDbLine
 10
9.961999999999999
 20
2.375
 30
0.0
 11
10.78799999999999
 21
2.375
 31
0.0
  0
LINE
  5
3FC
330
1E
100
AcDbEntity
  8
0
  6
CONTINUOUS
 62
     5
100
AcDbLine
 10
10.375
 20
1.963
 30
0.0
 11
10.375
 21
2.786999999999998
 31
0.0
  0
TEXT
  5
3FD
330
1E
100
AcDbEntity
  8
0
 62
     5
100
AcDbText
 10
11.014277
 20
2.741878999999998
 30
0.0
 40
0.188
  1
B
 41
0.9
 72
     5
 11
11.127077
 21
2.741878999999998
 31
0.0
100
AcDbText
  0
ARC
  5
3FE
330
1E
100
AcDbEntity
  8
0
  6
CONTINUOUS
 62
     5
100
AcDbCircle
 10
10.31199999999999
 20
0.625
 30
0.0
 40
0.329
100
AcDbArc
 50
85.00000099999999
 51
5.0
  0
CIRCLE
  5
3FF
330
1E
100
AcDbEntity
  8
0
  6
CONTINUOUS
 62
     5
100
AcDbCircle
 10
10.31199999999999
 20
0.625
 30
0.0
 40
0.3439999999999999
  0
CIRCLE
  5
400
330
1E
100
AcDbEntity
  8
0
  6
CONTINUOUS
 62
     5
100
AcDbCircle
 10
10.31199999999999
 20
0.625
 30
0.0
 40
0.282
  0
LINE
  5
401
330
1E
100
AcDbEntity
  8
0
  6
CONTINUOUS
 62
     5
100
AcDbLine
 10
9.898999999999999
 20
0.625
 30
0.0
 11
10.725
 21
0.625
 31
0.0
  0
LINE
  5
402
330
1E
100
AcDbEntity
  8
0
  6
CONTINUOUS
 62
     5
100
AcDbLine
 10
10.31199999999999
 20
0.213
 30
0.0
 11
10.31199999999999
 21
1.036999999999999
 31
0.0
  0
TEXT
  5
403
330
1E
100
AcDbEntity
  8
0
 62
     5
100
AcDbText
 10
11.014277
 20
0.9606899999999999
 30
0.0
 40
0.188
  1
A
 41
0.9
 72
     5
 11
11.127077
 21
0.9606899999999999
 31
0.0
100
AcDbText
  0
LINE
  5
429
330
1E
100
AcDbEntity
  8
0
  6
CONTINUOUS
 62
     5
100
AcDbLine
 10
12.962
 20
5.5
 30
0.0
 11
12.972
 21
5.519
 31
0.0
  0
LINE
  5
42A
330
1E
100
AcDbEntity
  8
0
  6
CONTINUOUS
 62
     5
100
AcDbLine
 10
12.713
 20
5.519
 30
0.0
 11
12.72299999999999
 21
5.5
 31
0.0
  0
LINE
  5
42B
330
1E
100
AcDbEntity
  8
0
  6
CONTINUOUS
 62
     5
100
AcDbLine
 10
12.842
 20
5.411999999999999
 30
0.0
 11
12.842
 21
5.711999999999998
 31
0.0
  0
LINE
  5
42C
330
1E
100
AcDbEntity
  8
0
  6
CONTINUOUS
 62
     5
100
AcDbLine
 10
12.13799999999999
 20
5.496999999999998
 30
0.0
 11
12.147
 21
5.517999999999998
 31
0.0
  0
LINE
  5
42D
330
1E
100
AcDbEntity
  8
0
  6
CONTINUOUS
 62
     5
100
AcDbLine
 10
11.913
 20
5.517999999999998
 30
0.0
 11
11.922
 21
5.496999999999998
 31
0.0
  0
LINE
  5
42E
330
1E
100
AcDbEntity
  8
0
  6
CONTINUOUS
 62
     5
100
AcDbLine
 10
12.03
 20
5.411999999999999
 30
0.0
 11
12.03
 21
5.711999999999998
 31
0.0
  0
LINE
  5
42F
330
1E
100
AcDbEntity
  8
0
  6
CONTINUOUS
 62
     5
100
AcDbLine
 10
12.437
 20
0.213
 30
0.0
 11
12.437
 21
1.036999999999999
 31
0.0
  0
CIRCLE
  5
430
330
1E
100
AcDbEntity
  8
0
  6
CONTINUOUS
 62
     5
100
AcDbCircle
 10
12.437
 20
0.625
 30
0.0
 40
0.282
  0
CIRCLE
  5
431
330
1E
100
AcDbEntity
  8
0
  6
CONTINUOUS
 62
     5
100
AcDbCircle
 10
12.437
 20
0.625
 30
0.0
 40
0.3439999999999999
  0
ARC
  5
432
330
1E
100
AcDbEntity
  8
0
  6
CONTINUOUS
 62
     5
100
AcDbCircle
 10
12.437
 20
0.625
 30
0.0
 40
0.329
100
AcDbArc
 50
85.00000099999999
 51
5.0
  0
LINE
  5
433
330
1E
100
AcDbEntity
  8
0
  6
CONTINUOUS
 62
     5
100
AcDbLine
 10
12.024
 20
0.625
 30
0.0
 11
12.85
 21
0.625
 31
0.0
  0
TEXT
  5
434
330
1E
100
AcDbEntity
  8
0
 62
     5
100
AcDbText
 10
13.13927699999999
 20
0.9606899999999999
 30
0.0
 40
0.188
  1
A
 41
0.8999999999999433
 72
     5
 11
13.25207699999999
 21
0.9606899999999999
 31
0.0
100
AcDbText
  0
CIRCLE
  5
435
330
1E
100
AcDbEntity
  8
0
  6
CONTINUOUS
 62
     5
100
AcDbCircle
 10
11.79599999999999
 20
5.106787
 30
0.0
 40
0.078
  0
LINE
  5
436
330
1E
100
AcDbEntity
  8
0
  6
CONTINUOUS
 62
     5
100
AcDbLine
 10
11.692
 20
5.106787
 30
0.0
 11
11.899
 21
5.106787
 31
0.0
  0
CIRCLE
  5
437
330
1E
100
AcDbEntity
  8
0
  6
CONTINUOUS
 62
     5
100
AcDbCircle
 10
11.79599999999999
 20
4.812
 30
0.0
 40
0.075
  0
CIRCLE
  5
438
330
1E
100
AcDbEntity
  8
0
  6
CONTINUOUS
 62
     5
100
AcDbCircle
 10
11.79599999999999
 20
4.812
 30
0.0
 40
0.095
  0
ARC
  5
439
330
1E
100
AcDbEntity
  8
4
  6
CONTINUOUS
 62
     5
100
AcDbCircle
 10
11.79599999999999
 20
4.812
 30
0.0
 40
0.087
100
AcDbArc
 50
85.00000099999999
 51
5.0
  0
LINE
  5
43A
330
1E
100
AcDbEntity
  8
0
  6
CONTINUOUS
 62
     5
100
AcDbLine
 10
11.682
 20
4.812
 30
0.0
 11
11.91
 21
4.812
 31
0.0
  0
LINE
  5
43B
330
1E
100
AcDbEntity
  8
0
  6
CONTINUOUS
 62
     5
100
AcDbLine
 10
11.79599999999999
 20
4.698
 30
0.0
 11
11.79599999999999
 21
4.926
 31
0.0
  0
LINE
  5
43C
330
1E
100
AcDbEntity
  8
0
  6
CONTINUOUS
 62
     5
100
AcDbLine
 10
11.79599999999999
 20
5.106787
 30
0.0
 11
11.79599999999999
 21
5.192787
 31
0.0
  0
LINE
  5
43D
330
1E
100
AcDbEntity
  8
0
  6
CONTINUOUS
 62
     5
100
AcDbLine
 10
11.79599999999999
 20
5.003786999999999
 30
0.0
 11
11.79599999999999
 21
5.209787
 31
0.0
  0
LINE
  5
43E
330
1E
100
AcDbEntity
  8
0
  6
CONTINUOUS
 62
     5
100
AcDbLine
 10
12.5
 20
1.963
 30
0.0
 11
12.5
 21
2.786999999999998
 31
0.0
  0
CIRCLE
  5
43F
330
1E
100
AcDbEntity
  8
0
  6
CONTINUOUS
 62
     5
100
AcDbCircle
 10
12.5
 20
2.375
 30
0.0
 40
0.282
  0
ARC
  5
440
330
1E
100
AcDbEntity
  8
0
  6
CONTINUOUS
 62
     5
100
AcDbCircle
 10
12.5
 20
2.375
 30
0.0
 40
0.329
100
AcDbArc
 50
85.00000099999999
 51
5.0
  0
CIRCLE
  5
441
330
1E
100
AcDbEntity
  8
0
  6
CONTINUOUS
 62
     5
100
AcDbCircle
 10
12.5
 20
2.375
 30
0.0
 40
0.3439999999999999
  0
LINE
  5
442
330
1E
100
AcDbEntity
  8
0
  6
CONTINUOUS
 62
     5
100
AcDbLine
 10
12.087
 20
2.375
 30
0.0
 11
12.913
 21
2.375
 31
0.0
  0
TEXT
  5
443
330
1E
100
AcDbEntity
  8
0
 62
     5
100
AcDbText
 10
13.13927699999999
 20
2.741878999999998
 30
0.0
 40
0.188
  1
B
 41
0.8999999999999433
 72
     5
 11
13.25207699999999
 21
2.741878999999998
 31
0.0
100
AcDbText
  0
CIRCLE
  5
444
330
1E
100
AcDbEntity
  8
0
  6
CONTINUOUS
 62
     5
100
AcDbCircle
 10
13.077
 20
4.812
 30
0.0
 40
0.075
  0
ARC
  5
445
330
1E
100
AcDbEntity
  8
4
  6
CONTINUOUS
 62
     5
100
AcDbCircle
 10
13.077
 20
4.812
 30
0.0
 40
0.087
100
AcDbArc
 50
85.00000099999999
 51
5.0
  0
CIRCLE
  5
446
330
1E
100
AcDbEntity
  8
0
  6
CONTINUOUS
 62
     5
100
AcDbCircle
 10
13.077
 20
4.812
 30
0.0
 40
0.095
  0
LINE
  5
447
330
1E
100
AcDbEntity
  8
0
  6
CONTINUOUS
 62
     5
100
AcDbLine
 10
12.963
 20
4.812
 30
0.0
 11
13.19099999999999
 21
4.812
 31
0.0
  0
CIRCLE
  5
448
330
1E
100
AcDbEntity
  8
0
  6
CONTINUOUS
 62
     5
100
AcDbCircle
 10
12.436
 20
5.217999999999999
 30
0.0
 40
0.14
  0
LINE
  5
449
330
1E
100
AcDbEntity
  8
0
  6
CONTINUOUS
 62
     5
100
AcDbLine
 10
12.26799999999999
 20
5.217999999999999
 30
0.0
 11
12.605
 21
5.217999999999999
 31
0.0
  0
LINE
  5
44A
330
1E
100
AcDbEntity
  8
0
  6
CONTINUOUS
 62
     5
100
AcDbLine
 10
12.11
 20
5.462999999999999
 30
0.0
 11
12.126
 21
5.479
 31
0.0
  0
LINE
  5
44B
330
1E
100
AcDbEntity
  8
0
  6
CONTINUOUS
 62
     5
100
AcDbLine
 10
11.95
 20
5.462999999999999
 30
0.0
 11
11.96699999999998
 21
5.45
 31
0.0
  0
LINE
  5
44C
330
1E
100
AcDbEntity
  8
0
  6
CONTINUOUS
 62
     5
100
AcDbLine
 10
11.934
 20
5.479
 30
0.0
 11
11.95
 21
5.462999999999999
 31
0.0
  0
LINE
  5
44D
330
1E
100
AcDbEntity
  8
0
  6
CONTINUOUS
 62
     5
100
AcDbLine
 10
11.922
 20
5.496999999999998
 30
0.0
 11
11.934
 21
5.479
 31
0.0
  0
LINE
  5
44E
330
1E
100
AcDbEntity
  8
0
  6
CONTINUOUS
 62
     5
100
AcDbLine
 10
12.073
 20
5.44
 30
0.0
 11
12.092
 21
5.45
 31
0.0
  0
LINE
  5
44F
330
1E
100
AcDbEntity
  8
0
  6
CONTINUOUS
 62
     5
100
AcDbLine
 10
12.052
 20
5.434999999999998
 30
0.0
 11
12.073
 21
5.44
 31
0.0
  0
LINE
  5
450
330
1E
100
AcDbEntity
  8
0
  6
CONTINUOUS
 62
     5
100
AcDbLine
 10
12.03
 20
5.432999999999998
 30
0.0
 11
12.052
 21
5.434999999999998
 31
0.0
  0
LINE
  5
451
330
1E
100
AcDbEntity
  8
0
  6
CONTINUOUS
 62
     5
100
AcDbLine
 10
12.092
 20
5.45
 30
0.0
 11
12.11
 21
5.462999999999999
 31
0.0
  0
LINE
  5
452
330
1E
100
AcDbEntity
  8
0
  6
CONTINUOUS
 62
     5
100
AcDbLine
 10
11.96699999999998
 20
5.45
 30
0.0
 11
11.987
 21
5.44
 31
0.0
  0
LINE
  5
453
330
1E
100
AcDbEntity
  8
0
  6
CONTINUOUS
 62
     5
100
AcDbLine
 10
11.987
 20
5.44
 30
0.0
 11
12.008
 21
5.434999999999998
 31
0.0
  0
LINE
  5
454
330
1E
100
AcDbEntity
  8
0
  6
CONTINUOUS
 62
     5
100
AcDbLine
 10
12.008
 20
5.434999999999998
 30
0.0
 11
12.03
 21
5.432999999999998
 31
0.0
  0
LINE
  5
455
330
1E
100
AcDbEntity
  8
0
  6
CONTINUOUS
 62
     5
100
AcDbLine
 10
12.436
 20
5.049999999999998
 30
0.0
 11
12.436
 21
5.386999999999998
 31
0.0
  0
LINE
  5
456
330
1E
100
AcDbEntity
  8
0
  6
CONTINUOUS
 62
     5
100
AcDbLine
 10
12.126
 20
5.479
 30
0.0
 11
12.13799999999999
 21
5.496999999999998
 31
0.0
  0
LINE
  5
457
330
1E
100
AcDbEntity
  8
0
  6
CONTINUOUS
 62
     5
100
AcDbLine
 10
13.077
 20
4.698
 30
0.0
 11
13.077
 21
4.926
 31
0.0
  0
LINE
  5
458
330
1E
100
AcDbEntity
  8
0
  6
CONTINUOUS
 62
     5
100
AcDbLine
 10
12.754
 20
5.466
 30
0.0
 11
12.774
 21
5.453999999999998
 31
0.0
  0
LINE
  5
459
330
1E
100
AcDbEntity
  8
0
  6
CONTINUOUS
 62
     5
100
AcDbLine
 10
12.737
 20
5.482
 30
0.0
 11
12.754
 21
5.466
 31
0.0
  0
LINE
  5
45A
330
1E
100
AcDbEntity
  8
0
  6
CONTINUOUS
 62
     5
100
AcDbLine
 10
12.72299999999999
 20
5.5
 30
0.0
 11
12.737
 21
5.482
 31
0.0
  0
LINE
  5
45B
330
1E
100
AcDbEntity
  8
0
  6
CONTINUOUS
 62
     5
100
AcDbLine
 10
12.911
 20
5.453999999999998
 30
0.0
 11
12.93099999999999
 21
5.466
 31
0.0
  0
LINE
  5
45C
330
1E
100
AcDbEntity
  8
0
  6
CONTINUOUS
 62
     5
100
AcDbLine
 10
12.842
 20
5.437
 30
0.0
 11
12.86599999999999
 21
5.439
 31
0.0
  0
LINE
  5
45D
330
1E
100
AcDbEntity
  8
0
  6
CONTINUOUS
 62
     5
100
AcDbLine
 10
12.819
 20
5.439
 30
0.0
 11
12.842
 21
5.437
 31
0.0
  0
LINE
  5
45E
330
1E
100
AcDbEntity
  8
0
  6
CONTINUOUS
 62
     5
100
AcDbLine
 10
12.89
 20
5.445
 30
0.0
 11
12.911
 21
5.453999999999998
 31
0.0
  0
LINE
  5
45F
330
1E
100
AcDbEntity
  8
0
  6
CONTINUOUS
 62
     5
100
AcDbLine
 10
12.86599999999999
 20
5.439
 30
0.0
 11
12.89
 21
5.445
 31
0.0
  0
LINE
  5
460
330
1E
100
AcDbEntity
  8
0
  6
CONTINUOUS
 62
     5
100
AcDbLine
 10
12.774
 20
5.453999999999998
 30
0.0
 11
12.795
 21
5.445
 31
0.0
  0
LINE
  5
461
330
1E
100
AcDbEntity
  8
0
  6
CONTINUOUS
 62
     5
100
AcDbLine
 10
12.795
 20
5.445
 30
0.0
 11
12.819
 21
5.439
 31
0.0
  0
LINE
  5
462
330
1E
100
AcDbEntity
  8
0
  6
CONTINUOUS
 62
     5
100
AcDbLine
 10
12.93099999999999
 20
5.466
 30
0.0
 11
12.948
 21
5.482
 31
0.0
  0
LINE
  5
463
330
1E
100
AcDbEntity
  8
0
  6
CONTINUOUS
 62
     5
100
AcDbLine
 10
12.948
 20
5.482
 30
0.0
 11
12.962
 21
5.5
 31
0.0
  0
LINE
  5
464
330
1E
100
AcDbEntity
  8
0
  6
CONTINUOUS
 62
     5
100
AcDbLine
 10
11.713
 20
6.405999999999998
 30
0.0
 11
11.94099999999999
 21
6.405999999999998
 31
0.0
  0
CIRCLE
  5
465
330
1E
100
AcDbEntity
  8
0
  6
CONTINUOUS
 62
     5
100
AcDbCircle
 10
11.827
 20
6.405999999999998
 30
0.0
 40
0.075
  0
CIRCLE
  5
466
330
1E
100
AcDbEntity
  8
0
  6
CONTINUOUS
 62
     5
100
AcDbCircle
 10
11.827
 20
6.405999999999998
 30
0.0
 40
0.095
  0
ARC
  5
467
330
1E
100
AcDbEntity
  8
4
  6
CONTINUOUS
 62
     5
100
AcDbCircle
 10
11.827
 20
6.405999999999998
 30
0.0
 40
0.087
100
AcDbArc
 50
85.00000099999999
 51
5.0
  0
CIRCLE
  5
468
330
1E
100
AcDbEntity
  8
0
  6
CONTINUOUS
 62
     5
100
AcDbCircle
 10
13.04599999999999
 20
6.405999999999998
 30
0.0
 40
0.075
  0
LINE
  5
469
330
1E
100
AcDbEntity
  8
0
  6
CONTINUOUS
 62
     5
100
AcDbLine
 10
12.932
 20
6.405999999999998
 30
0.0
 11
13.16
 21
6.405999999999998
 31
0.0
  0
ARC
  5
46A
330
1E
100
AcDbEntity
  8
4
  6
CONTINUOUS
 62
     5
100
AcDbCircle
 10
13.04599999999999
 20
6.405999999999998
 30
0.0
 40
0.087
100
AcDbArc
 50
85.00000099999999
 51
5.0
  0
CIRCLE
  5
46B
330
1E
100
AcDbEntity
  8
0
  6
CONTINUOUS
 62
     5
100
AcDbCircle
 10
13.04599999999999
 20
6.405999999999998
 30
0.0
 40
0.095
  0
LINE
  5
46C
330
1E
100
AcDbEntity
  8
0
  6
CONTINUOUS
 62
     5
100
AcDbLine
 10
12.458
 20
6.032999999999999
 30
0.0
 11
12.436
 21
6.035
 31
0.0
  0
LINE
  5
46D
330
1E
100
AcDbEntity
  8
0
  6
CONTINUOUS
 62
     5
100
AcDbLine
 10
12.436
 20
5.775999999999998
 30
0.0
 11
12.458
 21
5.777999999999998
 31
0.0
  0
LINE
  5
46E
330
1E
100
AcDbEntity
  8
0
  6
CONTINUOUS
 62
     5
100
AcDbLine
 10
12.286
 20
5.905999999999998
 30
0.0
 11
12.58599999999999
 21
5.905999999999998
 31
0.0
  0
LINE
  5
46F
330
1E
100
AcDbEntity
  8
0
  6
CONTINUOUS
 62
     5
100
AcDbLine
 10
12.436
 20
5.756
 30
0.0
 11
12.436
 21
6.056
 31
0.0
  0
LINE
  5
470
330
1E
100
AcDbEntity
  8
0
  6
CONTINUOUS
 62
     5
100
AcDbLine
 10
12.374
 20
6.017999999999998
 30
0.0
 11
12.356
 21
6.004999999999999
 31
0.0
  0
LINE
  5
471
330
1E
100
AcDbEntity
  8
0
  6
CONTINUOUS
 62
     5
100
AcDbLine
 10
12.126
 20
5.644999999999998
 30
0.0
 11
12.11
 21
5.660999999999998
 31
0.0
  0
LINE
  5
472
330
1E
100
AcDbEntity
  8
0
  6
CONTINUOUS
 62
     5
100
AcDbLine
 10
11.87999999999999
 20
5.562
 30
0.0
 11
12.17999999999999
 21
5.562
 31
0.0
  0
LINE
  5
473
330
1E
100
AcDbEntity
  8
0
  6
CONTINUOUS
 62
     5
100
AcDbLine
 10
11.96699999999998
 20
5.673999999999999
 30
0.0
 11
11.95
 21
5.660999999999998
 31
0.0
  0
LINE
  5
474
330
1E
100
AcDbEntity
  8
0
  6
CONTINUOUS
 62
     5
100
AcDbLine
 10
11.95
 20
5.660999999999998
 30
0.0
 11
11.934
 21
5.644999999999998
 31
0.0
  0
LINE
  5
475
330
1E
100
AcDbEntity
  8
0
  6
CONTINUOUS
 62
     5
100
AcDbLine
 10
11.907
 20
5.583999999999998
 30
0.0
 11
11.90499999999999
 21
5.562
 31
0.0
  0
LINE
  5
476
330
1E
100
AcDbEntity
  8
0
  6
CONTINUOUS
 62
     5
100
AcDbLine
 10
11.90499999999999
 20
5.562
 30
0.0
 11
11.907
 21
5.54
 31
0.0
  0
LINE
  5
477
330
1E
100
AcDbEntity
  8
0
  6
CONTINUOUS
 62
     5
100
AcDbLine
 10
11.913
 20
5.605999999999998
 30
0.0
 11
11.907
 21
5.583999999999998
 31
0.0
  0
LINE
  5
478
330
1E
100
AcDbEntity
  8
0
  6
CONTINUOUS
 62
     5
100
AcDbLine
 10
11.934
 20
5.644999999999998
 30
0.0
 11
11.922
 21
5.626999999999998
 31
0.0
  0
LINE
  5
479
330
1E
100
AcDbEntity
  8
0
  6
CONTINUOUS
 62
     5
100
AcDbLine
 10
11.922
 20
5.626999999999998
 30
0.0
 11
11.913
 21
5.605999999999998
 31
0.0
  0
LINE
  5
47A
330
1E
100
AcDbEntity
  8
0
  6
CONTINUOUS
 62
     5
100
AcDbLine
 10
11.907
 20
5.54
 30
0.0
 11
11.913
 21
5.517999999999998
 31
0.0
  0
LINE
  5
47B
330
1E
100
AcDbEntity
  8
0
  6
CONTINUOUS
 62
     5
100
AcDbLine
 10
12.092
 20
5.673999999999999
 30
0.0
 11
12.073
 21
5.684
 31
0.0
  0
LINE
  5
47C
330
1E
100
AcDbEntity
  8
0
  6
CONTINUOUS
 62
     5
100
AcDbLine
 10
12.073
 20
5.684
 30
0.0
 11
12.052
 21
5.689
 31
0.0
  0
LINE
  5
47D
330
1E
100
AcDbEntity
  8
0
  6
CONTINUOUS
 62
     5
100
AcDbLine
 10
12.052
 20
5.689
 30
0.0
 11
12.03
 21
5.690999999999998
 31
0.0
  0
LINE
  5
47E
330
1E
100
AcDbEntity
  8
0
  6
CONTINUOUS
 62
     5
100
AcDbLine
 10
12.11
 20
5.660999999999998
 30
0.0
 11
12.092
 21
5.673999999999999
 31
0.0
  0
LINE
  5
47F
330
1E
100
AcDbEntity
  8
0
  6
CONTINUOUS
 62
     5
100
AcDbLine
 10
11.987
 20
5.684
 30
0.0
 11
11.96699999999998
 21
5.673999999999999
 31
0.0
  0
LINE
  5
480
330
1E
100
AcDbEntity
  8
0
  6
CONTINUOUS
 62
     5
100
AcDbLine
 10
12.008
 20
5.689
 30
0.0
 11
11.987
 21
5.684
 31
0.0
  0
LINE
  5
481
330
1E
100
AcDbEntity
  8
0
  6
CONTINUOUS
 62
     5
100
AcDbLine
 10
12.03
 20
5.690999999999998
 30
0.0
 11
12.008
 21
5.689
 31
0.0
  0
LINE
  5
482
330
1E
100
AcDbEntity
  8
0
  6
CONTINUOUS
 62
     5
100
AcDbLine
 10
12.155
 20
5.562
 30
0.0
 11
12.153
 21
5.583999999999998
 31
0.0
  0
LINE
  5
483
330
1E
100
AcDbEntity
  8
0
  6
CONTINUOUS
 62
     5
100
AcDbLine
 10
12.153
 20
5.54
 30
0.0
 11
12.155
 21
5.562
 31
0.0
  0
LINE
  5
484
330
1E
100
AcDbEntity
  8
0
  6
CONTINUOUS
 62
     5
100
AcDbLine
 10
12.153
 20
5.583999999999998
 30
0.0
 11
12.147
 21
5.605999999999998
 31
0.0
  0
LINE
  5
485
330
1E
100
AcDbEntity
  8
0
  6
CONTINUOUS
 62
     5
100
AcDbLine
 10
12.147
 20
5.605999999999998
 30
0.0
 11
12.13799999999999
 21
5.626999999999998
 31
0.0
  0
LINE
  5
486
330
1E
100
AcDbEntity
  8
0
  6
CONTINUOUS
 62
     5
100
AcDbLine
 10
12.13799999999999
 20
5.626999999999998
 30
0.0
 11
12.126
 21
5.644999999999998
 31
0.0
  0
LINE
  5
487
330
1E
100
AcDbEntity
  8
0
  6
CONTINUOUS
 62
     5
100
AcDbLine
 10
12.147
 20
5.517999999999998
 30
0.0
 11
12.153
 21
5.54
 31
0.0
  0
LINE
  5
488
330
1E
100
AcDbEntity
  8
0
  6
CONTINUOUS
 62
     5
100
AcDbLine
 10
12.415
 20
5.777999999999998
 30
0.0
 11
12.436
 21
5.775999999999998
 31
0.0
  0
LINE
  5
489
330
1E
100
AcDbEntity
  8
0
  6
CONTINUOUS
 62
     5
100
AcDbLine
 10
12.356
 20
5.807
 30
0.0
 11
12.374
 21
5.793999999999998
 31
0.0
  0
LINE
  5
48A
330
1E
100
AcDbEntity
  8
0
  6
CONTINUOUS
 62
     5
100
AcDbLine
 10
12.33999999999999
 20
5.822999999999999
 30
0.0
 11
12.356
 21
5.807
 31
0.0
  0
LINE
  5
48B
330
1E
100
AcDbEntity
  8
0
  6
CONTINUOUS
 62
     5
100
AcDbLine
 10
12.356
 20
6.004999999999999
 30
0.0
 11
12.33999999999999
 21
5.988999999999998
 31
0.0
  0
LINE
  5
48C
330
1E
100
AcDbEntity
  8
0
  6
CONTINUOUS
 62
     5
100
AcDbLine
 10
12.374
 20
5.793999999999998
 30
0.0
 11
12.393
 21
5.783999999999998
 31
0.0
  0
LINE
  5
48D
330
1E
100
AcDbEntity
  8
0
  6
CONTINUOUS
 62
     5
100
AcDbLine
 10
12.393
 20
5.783999999999998
 30
0.0
 11
12.415
 21
5.777999999999998
 31
0.0
  0
LINE
  5
48E
330
1E
100
AcDbEntity
  8
0
  6
CONTINUOUS
 62
     5
100
AcDbLine
 10
12.311
 20
5.905999999999998
 30
0.0
 11
12.313
 21
5.882999999999999
 31
0.0
  0
LINE
  5
48F
330
1E
100
AcDbEntity
  8
0
  6
CONTINUOUS
 62
     5
100
AcDbLine
 10
12.313
 20
5.882999999999999
 30
0.0
 11
12.319
 21
5.860999999999998
 31
0.0
  0
LINE
  5
490
330
1E
100
AcDbEntity
  8
0
  6
CONTINUOUS
 62
     5
100
AcDbLine
 10
12.313
 20
5.927999999999999
 30
0.0
 11
12.311
 21
5.905999999999998
 31
0.0
  0
LINE
  5
491
330
1E
100
AcDbEntity
  8
0
  6
CONTINUOUS
 62
     5
100
AcDbLine
 10
12.319
 20
5.95
 30
0.0
 11
12.313
 21
5.927999999999999
 31
0.0
  0
LINE
  5
492
330
1E
100
AcDbEntity
  8
0
  6
CONTINUOUS
 62
     5
100
AcDbLine
 10
12.319
 20
5.860999999999998
 30
0.0
 11
12.328
 21
5.841
 31
0.0
  0
LINE
  5
493
330
1E
100
AcDbEntity
  8
0
  6
CONTINUOUS
 62
     5
100
AcDbLine
 10
12.328
 20
5.969999999999998
 30
0.0
 11
12.319
 21
5.95
 31
0.0
  0
LINE
  5
494
330
1E
100
AcDbEntity
  8
0
  6
CONTINUOUS
 62
     5
100
AcDbLine
 10
12.328
 20
5.841
 30
0.0
 11
12.33999999999999
 21
5.822999999999999
 31
0.0
  0
LINE
  5
495
330
1E
100
AcDbEntity
  8
0
  6
CONTINUOUS
 62
     5
100
AcDbLine
 10
12.33999999999999
 20
5.988999999999998
 30
0.0
 11
12.328
 21
5.969999999999998
 31
0.0
  0
LINE
  5
496
330
1E
100
AcDbEntity
  8
0
  6
CONTINUOUS
 62
     5
100
AcDbLine
 10
11.827
 20
6.291999999999998
 30
0.0
 11
11.827
 21
6.519999999999998
 31
0.0
  0
LINE
  5
497
330
1E
100
AcDbEntity
  8
0
  6
CONTINUOUS
 62
     5
100
AcDbLine
 10
12.436
 20
6.035
 30
0.0
 11
12.415
 21
6.032999999999999
 31
0.0
  0
LINE
  5
498
330
1E
100
AcDbEntity
  8
0
  6
CONTINUOUS
 62
     5
100
AcDbLine
 10
12.393
 20
6.027
 30
0.0
 11
12.374
 21
6.017999999999998
 31
0.0
  0
LINE
  5
499
330
1E
100
AcDbEntity
  8
0
  6
CONTINUOUS
 62
     5
100
AcDbLine
 10
12.415
 20
6.032999999999999
 30
0.0
 11
12.393
 21
6.027
 31
0.0
  0
LINE
  5
49A
330
1E
100
AcDbEntity
  8
0
  6
CONTINUOUS
 62
     5
100
AcDbLine
 10
12.517
 20
6.004999999999999
 30
0.0
 11
12.499
 21
6.017999999999998
 31
0.0
  0
LINE
  5
49B
330
1E
100
AcDbEntity
  8
0
  6
CONTINUOUS
 62
     5
100
AcDbLine
 10
12.774
 20
5.669999999999999
 30
0.0
 11
12.754
 21
5.657999999999999
 31
0.0
  0
LINE
  5
49C
330
1E
100
AcDbEntity
  8
0
  6
CONTINUOUS
 62
     5
100
AcDbLine
 10
12.693
 20
5.562
 30
0.0
 11
12.992
 21
5.562
 31
0.0
  0
LINE
  5
49D
330
1E
100
AcDbEntity
  8
0
  6
CONTINUOUS
 62
     5
100
AcDbLine
 10
12.754
 20
5.657999999999999
 30
0.0
 11
12.737
 21
5.642
 31
0.0
  0
LINE
  5
49E
330
1E
100
AcDbEntity
  8
0
  6
CONTINUOUS
 62
     5
100
AcDbLine
 10
12.705
 20
5.562
 30
0.0
 11
12.707
 21
5.54
 31
0.0
  0
LINE
  5
49F
330
1E
100
AcDbEntity
  8
0
  6
CONTINUOUS
 62
     5
100
AcDbLine
 10
12.707
 20
5.583999999999998
 30
0.0
 11
12.705
 21
5.562
 31
0.0
  0
LINE
  5
4A0
330
1E
100
AcDbEntity
  8
0
  6
CONTINUOUS
 62
     5
100
AcDbLine
 10
12.713
 20
5.605
 30
0.0
 11
12.707
 21
5.583999999999998
 31
0.0
  0
LINE
  5
4A1
330
1E
100
AcDbEntity
  8
0
  6
CONTINUOUS
 62
     5
100
AcDbLine
 10
12.737
 20
5.642
 30
0.0
 11
12.72299999999999
 21
5.625
 31
0.0
  0
LINE
  5
4A2
330
1E
100
AcDbEntity
  8
0
  6
CONTINUOUS
 62
     5
100
AcDbLine
 10
12.72299999999999
 20
5.625
 30
0.0
 11
12.713
 21
5.605
 31
0.0
  0
LINE
  5
4A3
330
1E
100
AcDbEntity
  8
0
  6
CONTINUOUS
 62
     5
100
AcDbLine
 10
12.707
 20
5.54
 30
0.0
 11
12.713
 21
5.519
 31
0.0
  0
LINE
  5
4A4
330
1E
100
AcDbEntity
  8
0
  6
CONTINUOUS
 62
     5
100
AcDbLine
 10
12.545
 20
5.969999999999998
 30
0.0
 11
12.532
 21
5.988999999999998
 31
0.0
  0
LINE
  5
4A5
330
1E
100
AcDbEntity
  8
0
  6
CONTINUOUS
 62
     5
100
AcDbLine
 10
12.554
 20
5.95
 30
0.0
 11
12.545
 21
5.969999999999998
 31
0.0
  0
LINE
  5
4A6
330
1E
100
AcDbEntity
  8
0
  6
CONTINUOUS
 62
     5
100
AcDbLine
 10
12.559
 20
5.927999999999999
 30
0.0
 11
12.554
 21
5.95
 31
0.0
  0
LINE
  5
4A7
330
1E
100
AcDbEntity
  8
0
  6
CONTINUOUS
 62
     5
100
AcDbLine
 10
12.554
 20
5.860999999999998
 30
0.0
 11
12.559
 21
5.882999999999999
 31
0.0
  0
LINE
  5
4A8
330
1E
100
AcDbEntity
  8
0
  6
CONTINUOUS
 62
     5
100
AcDbLine
 10
12.545
 20
5.841
 30
0.0
 11
12.554
 21
5.860999999999998
 31
0.0
  0
LINE
  5
4A9
330
1E
100
AcDbEntity
  8
0
  6
CONTINUOUS
 62
     5
100
AcDbLine
 10
12.532
 20
5.822999999999999
 30
0.0
 11
12.545
 21
5.841
 31
0.0
  0
LINE
  5
4AA
330
1E
100
AcDbEntity
  8
0
  6
CONTINUOUS
 62
     5
100
AcDbLine
 10
12.517
 20
5.807
 30
0.0
 11
12.532
 21
5.822999999999999
 31
0.0
  0
LINE
  5
4AB
330
1E
100
AcDbEntity
  8
0
  6
CONTINUOUS
 62
     5
100
AcDbLine
 10
12.56099999999999
 20
5.905999999999998
 30
0.0
 11
12.559
 21
5.927999999999999
 31
0.0
  0
LINE
  5
4AC
330
1E
100
AcDbEntity
  8
0
  6
CONTINUOUS
 62
     5
100
AcDbLine
 10
12.559
 20
5.882999999999999
 30
0.0
 11
12.56099999999999
 21
5.905999999999998
 31
0.0
  0
LINE
  5
4AD
330
1E
100
AcDbEntity
  8
0
  6
CONTINUOUS
 62
     5
100
AcDbLine
 10
12.532
 20
5.988999999999998
 30
0.0
 11
12.517
 21
6.004999999999999
 31
0.0
  0
LINE
  5
4AE
330
1E
100
AcDbEntity
  8
0
  6
CONTINUOUS
 62
     5
100
AcDbLine
 10
12.499
 20
5.793999999999998
 30
0.0
 11
12.517
 21
5.807
 31
0.0
  0
LINE
  5
4AF
330
1E
100
AcDbEntity
  8
0
  6
CONTINUOUS
 62
     5
100
AcDbLine
 10
12.458
 20
5.777999999999998
 30
0.0
 11
12.479
 21
5.783999999999998
 31
0.0
  0
LINE
  5
4B0
330
1E
100
AcDbEntity
  8
0
  6
CONTINUOUS
 62
     5
100
AcDbLine
 10
12.479
 20
5.783999999999998
 30
0.0
 11
12.499
 21
5.793999999999998
 31
0.0
  0
LINE
  5
4B1
330
1E
100
AcDbEntity
  8
0
  6
CONTINUOUS
 62
     5
100
AcDbLine
 10
12.93099999999999
 20
5.657999999999999
 30
0.0
 11
12.911
 21
5.669999999999999
 31
0.0
  0
LINE
  5
4B2
330
1E
100
AcDbEntity
  8
0
  6
CONTINUOUS
 62
     5
100
AcDbLine
 10
12.842
 20
5.687
 30
0.0
 11
12.819
 21
5.684999999999998
 31
0.0
  0
LINE
  5
4B3
330
1E
100
AcDbEntity
  8
0
  6
CONTINUOUS
 62
     5
100
AcDbLine
 10
12.86599999999999
 20
5.684999999999998
 30
0.0
 11
12.842
 21
5.687
 31
0.0
  0
LINE
  5
4B4
330
1E
100
AcDbEntity
  8
0
  6
CONTINUOUS
 62
     5
100
AcDbLine
 10
12.911
 20
5.669999999999999
 30
0.0
 11
12.89
 21
5.678999999999999
 31
0.0
  0
LINE
  5
4B5
330
1E
100
AcDbEntity
  8
0
  6
CONTINUOUS
 62
     5
100
AcDbLine
 10
12.89
 20
5.678999999999999
 30
0.0
 11
12.86599999999999
 21
5.684999999999998
 31
0.0
  0
LINE
  5
4B6
330
1E
100
AcDbEntity
  8
0
  6
CONTINUOUS
 62
     5
100
AcDbLine
 10
12.795
 20
5.678999999999999
 30
0.0
 11
12.774
 21
5.669999999999999
 31
0.0
  0
LINE
  5
4B7
330
1E
100
AcDbEntity
  8
0
  6
CONTINUOUS
 62
     5
100
AcDbLine
 10
12.819
 20
5.684999999999998
 30
0.0
 11
12.795
 21
5.678999999999999
 31
0.0
  0
LINE
  5
4B8
330
1E
100
AcDbEntity
  8
0
  6
CONTINUOUS
 62
     5
100
AcDbLine
 10
12.978
 20
5.583999999999998
 30
0.0
 11
12.972
 21
5.605
 31
0.0
  0
LINE
  5
4B9
330
1E
100
AcDbEntity
  8
0
  6
CONTINUOUS
 62
     5
100
AcDbLine
 10
12.98
 20
5.562
 30
0.0
 11
12.978
 21
5.583999999999998
 31
0.0
  0
LINE
  5
4BA
330
1E
100
AcDbEntity
  8
0
  6
CONTINUOUS
 62
     5
100
AcDbLine
 10
12.978
 20
5.54
 30
0.0
 11
12.98
 21
5.562
 31
0.0
  0
LINE
  5
4BB
330
1E
100
AcDbEntity
  8
0
  6
CONTINUOUS
 62
     5
100
AcDbLine
 10
12.972
 20
5.519
 30
0.0
 11
12.978
 21
5.54
 31
0.0
  0
LINE
  5
4BC
330
1E
100
AcDbEntity
  8
0
  6
CONTINUOUS
 62
     5
100
AcDbLine
 10
12.948
 20
5.642
 30
0.0
 11
12.93099999999999
 21
5.657999999999999
 31
0.0
  0
LINE
  5
4BD
330
1E
100
AcDbEntity
  8
0
  6
CONTINUOUS
 62
     5
100
AcDbLine
 10
12.962
 20
5.625
 30
0.0
 11
12.948
 21
5.642
 31
0.0
  0
LINE
  5
4BE
330
1E
100
AcDbEntity
  8
0
  6
CONTINUOUS
 62
     5
100
AcDbLine
 10
12.972
 20
5.605
 30
0.0
 11
12.962
 21
5.625
 31
0.0
  0
LINE
  5
4BF
330
1E
100
AcDbEntity
  8
0
  6
CONTINUOUS
 62
     5
100
AcDbLine
 10
12.479
 20
6.027
 30
0.0
 11
12.458
 21
6.032999999999999
 31
0.0
  0
LINE
  5
4C0
330
1E
100
AcDbEntity
  8
0
  6
CONTINUOUS
 62
     5
100
AcDbLine
 10
12.499
 20
6.017999999999998
 30
0.0
 11
12.479
 21
6.027
 31
0.0
  0
LINE
  5
4C1
330
1E
100
AcDbEntity
  8
0
  6
CONTINUOUS
 62
     5
100
AcDbLine
 10
13.04599999999999
 20
6.291999999999998
 30
0.0
 11
13.04599999999999
 21
6.519999999999998
 31
0.0
  0
ENDSEC
  0
SECTION
  2
OBJECTS
  0
DICTIONARY
  5
C
330
0
100
AcDbDictionary
  3
ACAD_GROUP
350
D
  3
ACAD_LAYOUT
350
19
  3
ACAD_MLINESTYLE
350
16
  3
ACAD_PLOTSETTINGS
350
18
  3
ACAD_PLOTSTYLENAME
350
E
  3
ACDBHEADERROUNDTRIPXREC
350
4EE
  0
DICTIONARY
  5
4E5
330
1E
100
AcDbDictionary
280
     1
  3
ACAD_LAYOUTSELFREF
360
50F
  0
DICTIONARY
  5
4E3
330
1A
100
AcDbDictionary
280
     1
  3
ACAD_LAYOUTSELFREF
360
50E
  0
DICTIONARY
  5
D
102
{ACAD_REACTORS
330
C
102
}
330
C
100
AcDbDictionary
  0
DICTIONARY
  5
19
102
{ACAD_REACTORS
330
C
102
}
330
C
100
AcDbDictionary
  0
DICTIONARY
  5
16
102
{ACAD_REACTORS
330
C
102
}
330
C
100
AcDbDictionary
  3
STANDARD
350
17
  0
DICTIONARY
  5
18
102
{ACAD_REACTORS
330
C
102
}
330
C
100
AcDbDictionary
  0
ACDBDICTIONARYWDFLT
  5
E
102
{ACAD_REACTORS
330
C
102
}
330
C
100
AcDbDictionary
281
     1
  3
Normal
350
F
100
AcDbDictionaryWithDefault
340
F
  0
DICTIONARY
  5
4EE
102
{ACAD_REACTORS
330
C
102
}
330
C
100
AcDbDictionary
  3
CEPSNTYPE
350
4F8
  3
FINGERPRINTGUID
350
4F9
  3
HYPERLINKBASE
350
4F1
  3
INSUNITS
350
4F7
  3
LAYOUTDICT
350
4F3
  3
LWETCUNION
350
4F6
  3
PLOTSETDICT
350
4F4
  3
PLOTSTYLNAMDICT
350
4F5
  3
PSVPSCALE
350
4FB
  3
PUCSBASE
350
4FE
  3
PUCSORGBACK
350
504
  3
PUCSORGBOTTOM
350
500
  3
PUCSORGFRONT
350
503
  3
PUCSORGLEFT
350
501
  3
PUCSORGRIGHT
350
502
  3
PUCSORGTOP
350
4FF
  3
PUCSORTHOREF
350
4FC
  3
PUCSORTHOVIEW
350
4FD
  3
STYLESHEET
350
4F2
  3
TSTACKALIGN
350
4EF
  3
TSTACKSIZE
350
4F0
  3
UCSBASE
350
507
  3
UCSORGBACK
350
50D
  3
UCSORGBOTTOM
350
509
  3
UCSORGFRONT
350
50C
  3
UCSORGLEFT
350
50A
  3
UCSORGRIGHT
350
50B
  3
UCSORGTOP
350
508
  3
UCSORTHOREF
350
505
  3
UCSORTHOVIEW
350
506
  3
VERSIONGUID
350
4FA
  0
XRECORD
  5
50F
102
{ACAD_REACTORS
330
4E5
102
}
330
4E5
100
AcDbXrecord
340
1E
  0
XRECORD
  5
50E
102
{ACAD_REACTORS
330
4E3
102
}
330
4E3
100
AcDbXrecord
340
1A
  0
MLINESTYLE
  5
17
102
{ACAD_REACTORS
330
16
102
}
330
16
100
AcDbMlineStyle
  2
STANDARD
 70
     0
  3

 62
   256
 51
90.0
 52
90.0
 71
     2
 49
0.5
 62
   256
  6
BYLAYER
 49
-0.5
 62
   256
  6
BYLAYER
  0
ACDBPLACEHOLDER
  5
F
102
{ACAD_REACTORS
330
E
102
}
330
E
100
AcDbPlaceHolder
280
     0
  0
XRECORD
  5
4F8
102
{ACAD_REACTORS
330
4EE
102
}
330
4EE
100
AcDbXrecord
 90
        0
  0
XRECORD
  5
4F9
102
{ACAD_REACTORS
330
4EE
102
}
330
4EE
100
AcDbXrecord
  1
{A1000027-B57E-4388-9643-F33A2B2CE61C}
  0
XRECORD
  5
4F1
102
{ACAD_REACTORS
330
4EE
102
}
330
4EE
100
AcDbXrecord
  1

  0
XRECORD
  5
4F7
102
{ACAD_REACTORS
330
4EE
102
}
330
4EE
100
AcDbXrecord
 90
        0
  0
XRECORD
  5
4F3
102
{ACAD_REACTORS
330
4EE
102
}
330
4EE
100
AcDbXrecord
340
19
  0
XRECORD
  5
4F6
102
{ACAD_REACTORS
330
4EE
102
}
330
4EE
100
AcDbXrecord
 90
    10781
  0
XRECORD
  5
4F4
102
{ACAD_REACTORS
330
4EE
102
}
330
4EE
100
AcDbXrecord
340
18
  0
XRECORD
  5
4F5
102
{ACAD_REACTORS
330
4EE
102
}
330
4EE
100
AcDbXrecord
340
E
  0
XRECORD
  5
4FB
102
{ACAD_REACTORS
330
4EE
102
}
330
4EE
100
AcDbXrecord
 40
0.0
  0
XRECORD
  5
4FE
102
{ACAD_REACTORS
330
4EE
102
}
330
4EE
100
AcDbXrecord
340
0
  0
XRECORD
  5
504
102
{ACAD_REACTORS
330
4EE
102
}
330
4EE
100
AcDbXrecord
 10
0.0
 20
0.0
 30
0.0
  0
XRECORD
  5
500
102
{ACAD_REACTORS
330
4EE
102
}
330
4EE
100
AcDbXrecord
 10
0.0
 20
0.0
 30
0.0
  0
XRECORD
  5
503
102
{ACAD_REACTORS
330
4EE
102
}
330
4EE
100
AcDbXrecord
 10
0.0
 20
0.0
 30
0.0
  0
XRECORD
  5
501
102
{ACAD_REACTORS
330
4EE
102
}
330
4EE
100
AcDbXrecord
 10
0.0
 20
0.0
 30
0.0
  0
XRECORD
  5
502
102
{ACAD_REACTORS
330
4EE
102
}
330
4EE
100
AcDbXrecord
 10
0.0
 20
0.0
 30
0.0
  0
XRECORD
  5
4FF
102
{ACAD_REACTORS
330
4EE
102
}
330
4EE
100
AcDbXrecord
 10
0.0
 20
0.0
 30
0.0
  0
XRECORD
  5
4FC
102
{ACAD_REACTORS
330
4EE
102
}
330
4EE
100
AcDbXrecord
340
0
  0
XRECORD
  5
4FD
102
{ACAD_REACTORS
330
4EE
102
}
330
4EE
100
AcDbXrecord
 70
     0
  0
XRECORD
  5
4F2
102
{ACAD_REACTORS
330
4EE
102
}
330
4EE
100
AcDbXrecord
  1

  0
XRECORD
  5
4EF
102
{ACAD_REACTORS
330
4EE
102
}
330
4EE
100
AcDbXrecord
 90
        1
  0
XRECORD
  5
4F0
102
{ACAD_REACTORS
330
4EE
102
}
330
4EE
100
AcDbXrecord
 90
       70
  0
XRECORD
  5
507
102
{ACAD_REACTORS
330
4EE
102
}
330
4EE
100
AcDbXrecord
340
0
  0
XRECORD
  5
50D
102
{ACAD_REACTORS
330
4EE
102
}
330
4EE
100
AcDbXrecord
 10
0.0
 20
0.0
 30
0.0
  0
XRECORD
  5
509
102
{ACAD_REACTORS
330
4EE
102
}
330
4EE
100
AcDbXrecord
 10
0.0
 20
0.0
 30
0.0
  0
XRECORD
  5
50C
102
{ACAD_REACTORS
330
4EE
102
}
330
4EE
100
AcDbXrecord
 10
0.0
 20
0.0
 30
0.0
  0
XRECORD
  5
50A
102
{ACAD_REACTORS
330
4EE
102
}
330
4EE
100
AcDbXrecord
 10
0.0
 20
0.0
 30
0.0
  0
XRECORD
  5
50B
102
{ACAD_REACTORS
330
4EE
102
}
330
4EE
100
AcDbXrecord
 10
0.0
 20
0.0
 30
0.0
  0
XRECORD
  5
508
102
{ACAD_REACTORS
330
4EE
102
}
330
4EE
100
AcDbXrecord
 10
0.0
 20
0.0
 30
0.0
  0
XRECORD
  5
505
102
{ACAD_REACTORS
330
4EE
102
}
330
4EE
100
AcDbXrecord
340
0
  0
XRECORD
  5
506
102
{ACAD_REACTORS
330
4EE
102
}
330
4EE
100
AcDbXrecord
 70
     0
  0
XRECORD
  5
4FA
102
{ACAD_REACTORS
330
4EE
102
}
330
4EE
100
AcDbXrecord
  1
{29A3ED9C-371C-4F12-B364-D47F3A361DA8}
  0
ENDSEC
  0
EOF
