  0
SECTION
  2
HEADER
  9
$ACADVER
  1
AC1014
  9
$ACADMAINTVER
 70
     9
  9
$DWGCODEPAGE
  3
ANSI_1252
  9
$INSBASE
 10
0.0
 20
0.0
 30
0.0
  9
$EXTMIN
 10
-1.031030339891934
 20
-1.031816431910435
 30
-0.0000000349181948
  9
$EXTMAX
 10
15.28103049190031
 20
12.03081993837432
 30
0.0000000814935747
  9
$LIMMIN
 10
0.0
 20
0.0
  9
$LIMMAX
 10
12.0
 20
9.0
  9
$ORTHOMODE
 70
     0
  9
$REGENMODE
 70
     1
  9
$FILLMODE
 70
     1
  9
$QTEXTMODE
 70
     0
  9
$MIRRTEXT
 70
     1
  9
$DRAGMODE
 70
     2
  9
$LTSCALE
 40
1.0
  9
$OSMODE
 70
    37
  9
$ATTMODE
 70
     1
  9
$TEXTSIZE
 40
0.2
  9
$TRACEWID
 40
0.05
  9
$TEXTSTYLE
  7
STANDARD
  9
$CLAYER
  8
0
  9
$CELTYPE
  6
CONTINUOUS
  9
$CECOLOR
 62
   256
  9
$CELTSCALE
 40
1.0
  9
$DELOBJ
 70
     1
  9
$DISPSILH
 70
     0
  9
$DIMSCALE
 40
1.0
  9
$DIMASZ
 40
0.18
  9
$DIMEXO
 40
0.0625
  9
$DIMDLI
 40
0.38
  9
$DIMRND
 40
0.0
  9
$DIMDLE
 40
0.0
  9
$DIMEXE
 40
0.18
  9
$DIMTP
 40
0.0
  9
$DIMTM
 40
0.0
  9
$DIMTXT
 40
0.18
  9
$DIMCEN
 40
0.09
  9
$DIMTSZ
 40
0.0
  9
$DIMTOL
 70
     0
  9
$DIMLIM
 70
     0
  9
$DIMTIH
 70
     1
  9
$DIMTOH
 70
     1
  9
$DIMSE1
 70
     0
  9
$DIMSE2
 70
     0
  9
$DIMTAD
 70
     0
  9
$DIMZIN
 70
     0
  9
$DIMBLK
  1

  9
$DIMASO
 70
     1
  9
$DIMSHO
 70
     1
  9
$DIMPOST
  1

  9
$DIMAPOST
  1

  9
$DIMALT
 70
     0
  9
$DIMALTD
 70
     2
  9
$DIMALTF
 40
25.4
  9
$DIMLFAC
 40
1.0
  9
$DIMTOFL
 70
     0
  9
$DIMTVP
 40
0.0
  9
$DIMTIX
 70
     0
  9
$DIMSOXD
 70
     0
  9
$DIMSAH
 70
     0
  9
$DIMBLK1
  1

  9
$DIMBLK2
  1

  9
$DIMSTYLE
  2
STANDARD
  9
$DIMCLRD
 70
     0
  9
$DIMCLRE
 70
     0
  9
$DIMCLRT
 70
     0
  9
$DIMTFAC
 40
1.0
  9
$DIMGAP
 40
0.09
  9
$DIMJUST
 70
     0
  9
$DIMSD1
 70
     0
  9
$DIMSD2
 70
     0
  9
$DIMTOLJ
 70
     1
  9
$DIMTZIN
 70
     0
  9
$DIMALTZ
 70
     0
  9
$DIMALTTZ
 70
     0
  9
$DIMFIT
 70
     3
  9
$DIMUPT
 70
     0
  9
$DIMUNIT
 70
     2
  9
$DIMDEC
 70
     4
  9
$DIMTDEC
 70
     4
  9
$DIMALTU
 70
     2
  9
$DIMALTTD
 70
     2
  9
$DIMTXSTY
  7
STANDARD
  9
$DIMAUNIT
 70
     0
  9
$LUNITS
 70
     2
  9
$LUPREC
 70
     4
  9
$SKETCHINC
 40
0.1
  9
$FILLETRAD
 40
0.0
  9
$AUNITS
 70
     0
  9
$AUPREC
 70
     0
  9
$MENU
  1
.
  9
$ELEVATION
 40
0.0
  9
$PELEVATION
 40
0.0
  9
$THICKNESS
 40
0.0
  9
$LIMCHECK
 70
     0
  9
$BLIPMODE
 70
     0
  9
$CHAMFERA
 40
0.0
  9
$CHAMFERB
 40
0.0
  9
$CHAMFERC
 40
0.0
  9
$CHAMFERD
 40
0.0
  9
$SKPOLY
 70
     0
  9
$TDCREATE
 40
2453411.550074629
  9
$TDUPDATE
 40
2453411.590908206
  9
$TDINDWG
 40
0.0005700463
  9
$TDUSRTIMER
 40
0.0005700463
  9
$USRTIMER
 70
     1
  9
$ANGBASE
 50
0.0
  9
$ANGDIR
 70
     0
  9
$PDMODE
 70
     0
  9
$PDSIZE
 40
0.0
  9
$PLINEWID
 40
0.0
  9
$COORDS
 70
     1
  9
$SPLFRAME
 70
     0
  9
$SPLINETYPE
 70
     6
  9
$SPLINESEGS
 70
     8
  9
$ATTDIA
 70
     0
  9
$ATTREQ
 70
     1
  9
$HANDLING
 70
-16383
  9
$HANDSEED
  5
3AB
  9
$SURFTAB1
 70
     6
  9
$SURFTAB2
 70
     6
  9
$SURFTYPE
 70
     6
  9
$SURFU
 70
     6
  9
$SURFV
 70
     6
  9
$UCSNAME
  2

  9
$UCSORG
 10
0.0
 20
0.0
 30
0.0
  9
$UCSXDIR
 10
1.0
 20
0.0
 30
0.0
  9
$UCSYDIR
 10
0.0
 20
1.0
 30
0.0
  9
$PUCSNAME
  2

  9
$PUCSORG
 10
0.0
 20
0.0
 30
0.0
  9
$PUCSXDIR
 10
1.0
 20
0.0
 30
0.0
  9
$PUCSYDIR
 10
0.0
 20
1.0
 30
0.0
  9
$USERI1
 70
     0
  9
$USERI2
 70
     0
  9
$USERI3
 70
     0
  9
$USERI4
 70
     0
  9
$USERI5
 70
     0
  9
$USERR1
 40
0.0
  9
$USERR2
 40
0.0
  9
$USERR3
 40
0.0
  9
$USERR4
 40
0.0
  9
$USERR5
 40
0.0
  9
$WORLDVIEW
 70
     1
  9
$SHADEDGE
 70
     3
  9
$SHADEDIF
 70
    70
  9
$TILEMODE
 70
     1
  9
$MAXACTVP
 70
    64
  9
$PINSBASE
 10
0.0
 20
0.0
 30
0.0
  9
$PLIMCHECK
 70
     0
  9
$PEXTMIN
 10
1.000000000000000E+20
 20
1.000000000000000E+20
 30
1.000000000000000E+20
  9
$PEXTMAX
 10
-1.000000000000000E+20
 20
-1.000000000000000E+20
 30
-1.000000000000000E+20
  9
$PLIMMIN
 10
0.0
 20
0.0
  9
$PLIMMAX
 10
12.0
 20
9.0
  9
$UNITMODE
 70
     0
  9
$VISRETAIN
 70
     1
  9
$PLINEGEN
 70
     0
  9
$PSLTSCALE
 70
     1
  9
$TREEDEPTH
 70
  3020
  9
$PICKSTYLE
 70
     1
  9
$CMLSTYLE
  2
STANDARD
  9
$CMLJUST
 70
     0
  9
$CMLSCALE
 40
1.0
  9
$PROXYGRAPHICS
 70
     1
  9
$MEASUREMENT
 70
     0
  0
ENDSEC
  0
SECTION
  2
CLASSES
  0
CLASS
  1
ACDBDICTIONARYWDFLT
  2
AcDbDictionaryWithDefault
  3
AutoCAD 2000
 90
        0
280
     0
281
     0
  0
CLASS
  1
ACDBPLACEHOLDER
  2
AcDbPlaceHolder
  3
AutoCAD 2000
 90
        0
280
     0
281
     0
  0
CLASS
  1
LAYOUT
  2
AcDbLayout
  3
AutoCAD 2000
 90
        0
280
     0
281
     0
  0
CLASS
  1
LONG_TRANSACTION
  2
AcDbLongTransaction
  3
AutoCAD 2000
 90
        0
280
     0
281
     0
  0
CLASS
  1
LWPOLYLINE
  2
AcDbPolyline
  3
AutoCAD 2000
 90
        0
280
     0
281
     1
  0
CLASS
  1
HATCH
  2
AcDbHatch
  3
AutoCAD 2000
 90
        0
280
     0
281
     1
  0
CLASS
  1
XRECORD
  2
AcDbXrecord
  3
AutoCAD 2000
 90
        0
280
     0
281
     0
  0
CLASS
  1
LONG_TRANSACTION
  2
AcDbLongTransaction
  3
AutoCAD 2000
 90
        0
280
     0
281
     0
  0
CLASS
  1
LWPOLYLINE
  2
AcDbPolyline
  3
AutoCAD 2000
 90
        0
280
     0
281
     1
  0
CLASS
  1
HATCH
  2
AcDbHatch
  3
AutoCAD 2000
 90
        0
280
     0
281
     1
  0
CLASS
  1
XRECORD
  2
AcDbXrecord
  3
AutoCAD 2000
 90
        0
280
     0
281
     0
  0
ENDSEC
  0
SECTION
  2
TABLES
  0
TABLE
  2
VPORT
  5
8
330
0
100
AcDbSymbolTable
 70
     2
  0
VPORT
  5
388
330
8
100
AcDbSymbolTableRecord
100
AcDbViewportTableRecord
  2
*ACTIVE
 70
     0
 10
0.0
 20
0.0
 11
1.0
 21
1.0
 12
7.125000076004187
 22
5.499501753231943
 13
0.0
 23
0.0
 14
1.0
 24
1.0
 15
0.0
 25
0.0
 16
0.0
 26
0.0
 36
1.0
 17
0.0
 27
0.0
 37
0.0
 40
13.1984696774281
 41
1.647569444444444
 42
50.0
 43
0.0
 44
0.0
 50
0.0
 51
0.0
 71
     0
 72
   100
 73
     1
 74
     1
 75
     0
 76
     0
 77
     0
 78
     0
  0
ENDTAB
  0
TABLE
  2
LTYPE
  5
5
330
0
100
AcDbSymbolTable
 70
    12
  0
LTYPE
  5
13
330
5
100
AcDbSymbolTableRecord
100
AcDbLinetypeTableRecord
  2
BYBLOCK
 70
     0
  3

 72
    65
 73
     0
 40
0.0
  0
LTYPE
  5
14
330
5
100
AcDbSymbolTableRecord
100
AcDbLinetypeTableRecord
  2
BYLAYER
 70
     0
  3

 72
    65
 73
     0
 40
0.0
  0
LTYPE
  5
15
330
5
100
AcDbSymbolTableRecord
100
AcDbLinetypeTableRecord
  2
CONTINUOUS
 70
     0
  3
Solid line
 72
    65
 73
     0
 40
0.0
  0
LTYPE
  5
22
330
5
100
AcDbSymbolTableRecord
100
AcDbLinetypeTableRecord
  2
DASHED
 70
     0
  3
__ __ __ __ __ __ __ __ __ __ __ __ __ __ __
 72
    65
 73
     2
 40
0.241926
 49
0.090722
 74
     0
 49
-0.045361
 74
     0
  0
LTYPE
  5
23
330
5
100
AcDbSymbolTableRecord
100
AcDbLinetypeTableRecord
  2
DOT
 70
     0
  3
...............................................
 72
    65
 73
     2
 40
0.045361
 49
0.0
 74
     0
 49
-0.045361
 74
     0
  0
LTYPE
  5
24
330
5
100
AcDbSymbolTableRecord
100
AcDbLinetypeTableRecord
  2
DASHDOT
 70
     0
  3
__ . __ . __ . __ . __ . __ . __ . __ . __ . __
 72
    65
 73
     4
 40
0.181444
 49
0.090722
 74
     0
 49
-0.045361
 74
     0
 49
0.0
 74
     0
 49
-0.045361
 74
     0
  0
LTYPE
  5
25
330
5
100
AcDbSymbolTableRecord
100
AcDbLinetypeTableRecord
  2
CENTER
 70
     0
  3
____ _ ____ _ ____ _ ____ _ ____ _ ____ _ ____
 72
    65
 73
     4
 40
0.362889
 49
0.226806
 74
     0
 49
-0.045361
 74
     0
 49
0.045361
 74
     0
 49
-0.045361
 74
     0
  0
LTYPE
  5
26
330
5
100
AcDbSymbolTableRecord
100
AcDbLinetypeTableRecord
  2
PHANTOM
 70
     0
  3
_____ _ _ _____ _ _ _____ _ _ _____ _ _ ____
 72
    65
 73
     6
 40
0.453611
 49
0.226806
 74
     0
 49
-0.045361
 74
     0
 49
0.045361
 74
     0
 49
-0.045361
 74
     0
 49
0.045361
 74
     0
 49
-0.045361
 74
     0
  0
LTYPE
  5
27
330
5
100
AcDbSymbolTableRecord
100
AcDbLinetypeTableRecord
  2
HIDDEN
 70
     0
  3
_ _ _ _ _ _ _ _ _ _ _ _ _ _ _ _ _ _ _ _ _ _ _
 72
    65
 73
     2
 40
0.181444
 49
0.120963
 74
     0
 49
-0.060481
 74
     0
  0
LTYPE
  5
28
330
5
100
AcDbSymbolTableRecord
100
AcDbLinetypeTableRecord
  2
BORDER
 70
     0
  3
__ __ . __ __ . __ __ . __ __ . __ __ . __ __
 72
    65
 73
     6
 40
0.317581
 49
0.045361
 74
     0
 49
-0.045361
 74
     0
 49
0.090722
 74
     0
 49
-0.045361
 74
     0
 49
0.0
 74
     0
 49
-0.045361
 74
     0
  0
LTYPE
  5
29
330
5
100
AcDbSymbolTableRecord
100
AcDbLinetypeTableRecord
  2
DIVIDE
 70
     0
  3
__ . . __ . . __ . . __ . . __ . . __ . . __
 72
    65
 73
     6
 40
-0.045361
 49
-0.045361
 74
     0
 49
-0.045361
 74
     0
 49
0.0
 74
     0
 49
-0.045361
 74
     0
 49
0.0
 74
     0
 49
-0.045361
 74
     0
  0
LTYPE
  5
2A
330
5
100
AcDbSymbolTableRecord
100
AcDbLinetypeTableRecord
  2
POINT31
 70
     0
  3
+                                          +
 72
    65
 73
     0
 40
0.0
  0
LTYPE
  5
2B
330
5
100
AcDbSymbolTableRecord
100
AcDbLinetypeTableRecord
  2
POINT63
 70
     0
  3
*                                          *
 72
    65
 73
     0
 40
0.0
  0
LTYPE
  5
2C
330
5
100
AcDbSymbolTableRecord
100
AcDbLinetypeTableRecord
  2
DBLDASH
 70
     0
  3
-- -- -- -- -- -- -- -- -- -- -- -- -- -- --
 72
    65
 73
     4
 40
0.15879
 49
0.045361
 74
     0
 49
-0.045361
 74
     0
 49
0.045361
 74
     0
 49
-0.045361
 74
     0
  0
ENDTAB
  0
TABLE
  2
LAYER
  5
2
330
0
100
AcDbSymbolTable
 70
     2
  0
LAYER
  5
10
330
2
100
AcDbSymbolTableRecord
100
AcDbLayerTableRecord
  2
0
 70
     0
 62
     5
  6
CONTINUOUS
  0
LAYER
  5
2D
330
2
100
AcDbSymbolTableRecord
100
AcDbLayerTableRecord
  2
4
 70
     0
 62
     5
  6
CONTINUOUS
  0
ENDTAB
  0
TABLE
  2
STYLE
  5
3
330
0
100
AcDbSymbolTable
 70
     1
  0
STYLE
  5
11
330
3
100
AcDbSymbolTableRecord
100
AcDbTextStyleTableRecord
  2
STANDARD
 70
     0
 40
0.0
 41
1.0
 50
0.0
 71
     0
 42
0.2
  3
txt
  4

  0
ENDTAB
  0
TABLE
  2
VIEW
  5
6
330
0
100
AcDbSymbolTable
 70
     0
  0
ENDTAB
  0
TABLE
  2
UCS
  5
7
330
0
100
AcDbSymbolTable
 70
     0
  0
ENDTAB
  0
TABLE
  2
APPID
  5
9
330
0
100
AcDbSymbolTable
 70
     1
  0
APPID
  5
12
330
9
100
AcDbSymbolTableRecord
100
AcDbRegAppTableRecord
  2
ACAD
 70
     0
  0
ENDTAB
  0
TABLE
  2
DIMSTYLE
  5
A
330
0
100
AcDbSymbolTable
 70
     1
  0
DIMSTYLE
105
35A
330
A
100
AcDbSymbolTableRecord
100
AcDbDimStyleTableRecord
  2
STANDARD
 70
     0
  3

  4

  5

  6

  7

 40
1.0
 41
0.18
 42
0.0625
 43
0.38
 44
0.18
 45
0.0
 46
0.0
 47
0.0
 48
0.0
140
0.18
141
0.09
142
0.0
143
25.4
144
1.0
145
0.0
146
1.0
147
0.09
 71
     0
 72
     0
 73
     1
 74
     1
 75
     0
 76
     0
 77
     0
 78
     0
170
     0
171
     2
172
     0
173
     0
174
     0
175
     0
176
     0
177
     0
178
     0
270
     2
271
     4
272
     4
273
     2
274
     2
340
11
275
     0
280
     0
281
     0
282
     0
283
     1
284
     0
285
     0
286
     0
287
     3
288
     0
  0
ENDTAB
  0
TABLE
  2
BLOCK_RECORD
  5
1
330
0
100
AcDbSymbolTable
 70
     0
  0
BLOCK_RECORD
  5
1E
102
{ACAD_XDICTIONARY
360
37F
102
}
330
1
100
AcDbSymbolTableRecord
100
AcDbBlockTableRecord
  2
*MODEL_SPACE
  0
BLOCK_RECORD
  5
1A
102
{ACAD_XDICTIONARY
360
37D
102
}
330
1
100
AcDbSymbolTableRecord
100
AcDbBlockTableRecord
  2
*PAPER_SPACE
  0
ENDTAB
  0
ENDSEC
  0
SECTION
  2
BLOCKS
  0
BLOCK
  5
1F
330
1E
100
AcDbEntity
  8
0
100
AcDbBlockBegin
  2
*MODEL_SPACE
 70
     0
 10
0.0
 20
0.0
 30
0.0
  3
*MODEL_SPACE
  1

  0
ENDBLK
  5
20
330
1E
100
AcDbEntity
  8
0
100
AcDbBlockEnd
  0
BLOCK
  5
1B
330
1A
100
AcDbEntity
 67
     1
  8
0
100
AcDbBlockBegin
  2
*PAPER_SPACE
 70
     0
 10
0.0
 20
0.0
 30
0.0
  3
*PAPER_SPACE
  1

  0
ENDBLK
  5
1C
330
1A
100
AcDbEntity
 67
     1
  8
0
100
AcDbBlockEnd
  0
ENDSEC
  0
SECTION
  2
ENTITIES
  0
LINE
  5
30
330
1E
100
AcDbEntity
  8
0
  6
CONTINUOUS
 62
     5
100
AcDbLine
 10
15.09325
 20
6.84375
 30
0.0
 11
15.1245
 21
6.8125
 31
0.0
  0
LINE
  5
31
330
1E
100
AcDbEntity
  8
0
  6
HIDDEN
 62
     5
100
AcDbLine
 10
15.1245
 20
6.8125
 30
0.0
 11
14.6245
 21
6.8125
 31
0.0
  0
LINE
  5
32
330
1E
100
AcDbEntity
  8
0
  6
CONTINUOUS
 62
     5
100
AcDbLine
 10
14.6245
 20
6.84375
 30
0.0
 11
15.09325
 21
6.84375
 31
0.0
  0
LINE
  5
33
330
1E
100
AcDbEntity
  8
0
  6
CONTINUOUS
 62
     5
100
AcDbLine
 10
13.93799999999999
 20
6.772499999999999
 30
0.0
 11
13.93799999999999
 21
6.96375
 31
0.0
  0
LINE
  5
34
330
1E
100
AcDbEntity
  8
0
  6
CONTINUOUS
 62
     5
100
AcDbLine
 10
14.1895
 20
6.831338
 30
0.0
 11
13.9395
 21
6.975674999999998
 31
0.0
  0
LINE
  5
35
330
1E
100
AcDbEntity
  8
0
  6
CONTINUOUS
 62
     5
100
AcDbLine
 10
13.9805
 20
6.6875
 30
0.0
 11
13.8955
 21
6.6875
 31
0.0
  0
LINE
  5
36
330
1E
100
AcDbEntity
  8
0
  6
CONTINUOUS
 62
     5
100
AcDbLine
 10
14.224875
 20
6.6875
 30
0.0
 11
14.033625
 21
6.6875
 31
0.0
  0
LINE
  5
37
330
1E
100
AcDbEntity
  8
0
  6
CONTINUOUS
 62
     5
100
AcDbLine
 10
13.842375
 20
6.6875
 30
0.0
 11
13.672375
 21
6.6875
 31
0.0
  0
LINE
  5
38
330
1E
100
AcDbEntity
  8
0
  6
CONTINUOUS
 62
     5
100
AcDbLine
 10
14.28074999999999
 20
6.976174999999998
 30
0.0
 11
14.24949999999999
 21
6.9375
 31
0.0
  0
ARC
  5
39
330
1E
100
AcDbEntity
  8
0
  6
CONTINUOUS
 62
     5
100
AcDbCircle
 10
14.34845799999999
 20
6.904005999999998
 30
0.0
 40
0.098958
100
AcDbArc
 50
133.173551
 51
226.826446
  0
LINE
  5
3A
330
1E
100
AcDbEntity
  8
0
  6
CONTINUOUS
 62
     5
100
AcDbLine
 10
14.28074999999999
 20
6.976174999999998
 30
0.0
 11
14.4995
 21
6.976174999999998
 31
0.0
  0
LINE
  5
3B
330
1E
100
AcDbEntity
  8
0
  6
CONTINUOUS
 62
     5
100
AcDbLine
 10
14.4995
 20
6.831838
 30
0.0
 11
14.28074999999999
 21
6.831838
 31
0.0
  0
LINE
  5
3C
330
1E
100
AcDbEntity
  8
0
  6
CONTINUOUS
 62
     5
100
AcDbLine
 10
14.12449999999999
 20
6.6875
 30
0.0
 11
15.28075
 21
6.6875
 31
0.0
  0
LINE
  5
3D
330
1E
100
AcDbEntity
  8
0
  6
CONTINUOUS
 62
     5
100
AcDbLine
 10
13.6255
 20
7.0
 30
0.0
 11
14.6255
 21
7.0
 31
0.0
  0
LINE
  5
3E
330
1E
100
AcDbEntity
  8
0
  6
CONTINUOUS
 62
     5
100
AcDbLine
 10
15.1245
 20
6.5625
 30
0.0
 11
15.09325
 21
6.53125
 31
0.0
  0
LINE
  5
3F
330
1E
100
AcDbEntity
  8
0
  6
CONTINUOUS
 62
     5
100
AcDbLine
 10
15.09325
 20
6.53125
 30
0.0
 11
14.6245
 21
6.53125
 31
0.0
  0
LINE
  5
40
330
1E
100
AcDbEntity
  8
0
  6
HIDDEN
 62
     5
100
AcDbLine
 10
14.6245
 20
6.5625
 30
0.0
 11
15.1245
 21
6.5625
 31
0.0
  0
LINE
  5
41
330
1E
100
AcDbEntity
  8
0
  6
CONTINUOUS
 62
     5
100
AcDbLine
 10
13.93799999999999
 20
6.411249999999999
 30
0.0
 11
13.93799999999999
 21
6.6025
 31
0.0
  0
LINE
  5
42
330
1E
100
AcDbEntity
  8
0
  6
CONTINUOUS
 62
     5
100
AcDbLine
 10
14.28074999999999
 20
6.398825
 30
0.0
 11
14.24949999999999
 21
6.4375
 31
0.0
  0
ARC
  5
43
330
1E
100
AcDbEntity
  8
0
  6
CONTINUOUS
 62
     5
100
AcDbCircle
 10
14.34845799999999
 20
6.470994
 30
0.0
 40
0.098958
100
AcDbArc
 50
133.173551
 51
226.826446
  0
LINE
  5
44
330
1E
100
AcDbEntity
  8
0
  6
CONTINUOUS
 62
     5
100
AcDbLine
 10
14.28074999999999
 20
6.543162
 30
0.0
 11
14.4995
 21
6.543162
 31
0.0
  0
LINE
  5
45
330
1E
100
AcDbEntity
  8
0
  6
CONTINUOUS
 62
     5
100
AcDbLine
 10
14.4995
 20
6.398825
 30
0.0
 11
14.28074999999999
 21
6.398825
 31
0.0
  0
LINE
  5
46
330
1E
100
AcDbEntity
  8
0
  6
CONTINUOUS
 62
     5
100
AcDbLine
 10
15.1245
 20
6.8125
 30
0.0
 11
15.1245
 21
6.5625
 31
0.0
  0
LINE
  5
47
330
1E
100
AcDbEntity
  8
0
  6
CONTINUOUS
 62
     5
100
AcDbLine
 10
15.09325
 20
6.84375
 30
0.0
 11
15.09325
 21
6.53125
 31
0.0
  0
LINE
  5
48
330
1E
100
AcDbEntity
  8
0
  6
CONTINUOUS
 62
     5
100
AcDbLine
 10
13.93799999999999
 20
6.655624999999998
 30
0.0
 11
13.93799999999999
 21
6.719375
 31
0.0
  0
LINE
  5
49
330
1E
100
AcDbEntity
  8
0
  6
CONTINUOUS
 62
     5
100
AcDbLine
 10
14.24949999999999
 20
6.4375
 30
0.0
 11
14.24949999999999
 21
6.9375
 31
0.0
  0
CIRCLE
  5
4A
330
1E
100
AcDbEntity
  8
0
  6
CONTINUOUS
 62
     5
100
AcDbCircle
 10
13.93699999999999
 20
6.6875
 30
0.0
 40
0.249501
  0
LWPOLYLINE
  5
4B
330
1E
100
AcDbEntity
  8
0
  6
CONTINUOUS
 62
     5
100
AcDbPolyline
 90
        6
 70
     0
 43
0.0
 10
14.1875
 20
6.831338
 10
14.1875
 20
6.542661999999999
 10
13.9375
 20
6.398324999999998
 10
13.6875
 20
6.542661999999999
 10
13.6875
 20
6.831338
 10
13.9375
 20
6.975674999999998
  0
ARC
  5
53
330
1E
100
AcDbEntity
  8
0
  6
CONTINUOUS
 62
     5
100
AcDbCircle
 10
14.598458
 20
6.6875
 30
0.0
 40
0.348958
100
AcDbArc
 50
155.567302
 51
204.4326949999999
  0
TEXT
  5
54
330
1E
100
AcDbEntity
  8
0
 62
     5
100
AcDbText
 10
12.077566
 20
6.671372999999999
 30
0.0
 40
0.188
  1
T
 50
90.0
 41
0.9000000000000071
 72
     5
 11
12.077566
 21
6.784173
 31
0.0
100
AcDbText
  0
CIRCLE
  5
55
330
1E
100
AcDbEntity
  8
0
  6
CONTINUOUS
 62
     5
100
AcDbCircle
 10
12.75
 20
6.202999999999999
 30
0.0
 40
0.308
  0
ARC
  5
56
330
1E
100
AcDbEntity
  8
4
  6
CONTINUOUS
 62
     5
100
AcDbCircle
 10
12.75
 20
6.202999999999999
 30
0.0
 40
0.361
100
AcDbArc
 50
85.00000099999999
 51
5.0
  0
CIRCLE
  5
57
330
1E
100
AcDbEntity
  8
0
  6
CONTINUOUS
 62
     5
100
AcDbCircle
 10
12.75
 20
6.202999999999999
 30
0.0
 40
0.4060000000000001
  0
CIRCLE
  5
58
330
1E
100
AcDbEntity
  8
0
  6
CONTINUOUS
 62
     5
100
AcDbCircle
 10
12.75
 20
6.202999999999999
 30
0.0
 40
0.4379999999999999
  0
CIRCLE
  5
59
330
1E
100
AcDbEntity
  8
0
  6
CONTINUOUS
 62
     5
100
AcDbCircle
 10
12.75
 20
6.202999999999999
 30
0.0
 40
0.471
  0
CIRCLE
  5
5A
330
1E
100
AcDbEntity
  8
0
  6
CONTINUOUS
 62
     5
100
AcDbCircle
 10
12.75
 20
6.202999999999999
 30
0.0
 40
0.6690000000000002
  0
LINE
  5
5B
330
1E
100
AcDbEntity
  8
0
  6
CONTINUOUS
 62
     5
100
AcDbLine
 10
12.75
 20
5.377999999999999
 30
0.0
 11
12.75
 21
7.027999999999998
 31
0.0
  0
LINE
  5
5C
330
1E
100
AcDbEntity
  8
0
  6
CONTINUOUS
 62
     5
100
AcDbLine
 10
11.925
 20
6.202999999999999
 30
0.0
 11
13.57499999999999
 21
6.202999999999999
 31
0.0
  0
LINE
  5
5D
330
1E
100
AcDbEntity
  8
0
  6
CONTINUOUS
 62
     5
100
AcDbLine
 10
10.25
 20
11.3745
 30
0.0
 11
9.5
 21
11.3745
 31
0.0
  0
LINE
  5
5E
330
1E
100
AcDbEntity
  8
0
  6
CONTINUOUS
 62
     5
100
AcDbLine
 10
9.5
 20
11.24949999999999
 30
0.0
 11
10.25
 21
11.24949999999999
 31
0.0
  0
LINE
  5
5F
330
1E
100
AcDbEntity
  8
0
  6
CONTINUOUS
 62
     5
100
AcDbLine
 10
10.09375
 20
11.84325
 30
0.0
 11
9.78125
 21
11.84325
 31
0.0
  0
LINE
  5
60
330
1E
100
AcDbEntity
  8
0
  6
CONTINUOUS
 62
     5
100
AcDbLine
 10
10.0625
 20
11.87449999999999
 30
0.0
 11
9.8125
 21
11.87449999999999
 31
0.0
  0
LINE
  5
61
330
1E
100
AcDbEntity
  8
0
  6
CONTINUOUS
 62
     5
100
AcDbLine
 10
9.6875
 20
10.99949999999999
 30
0.0
 11
10.1875
 21
10.99949999999999
 31
0.0
  0
ARC
  5
62
330
1E
100
AcDbEntity
  8
0
  6
CONTINUOUS
 62
     5
100
AcDbCircle
 10
9.9375
 20
11.348458
 30
0.0
 40
0.348958
100
AcDbArc
 50
245.567304
 51
294.4327009999998
  0
LINE
  5
63
330
1E
100
AcDbEntity
  8
0
  6
CONTINUOUS
 62
     5
100
AcDbLine
 10
9.9375
 20
10.8745
 30
0.0
 11
9.9375
 21
12.03075
 31
0.0
  0
LINE
  5
64
330
1E
100
AcDbEntity
  8
0
  6
HIDDEN
 62
     5
100
AcDbLine
 10
10.0625
 20
11.87449999999999
 30
0.0
 11
10.0625
 21
11.3745
 31
0.0
  0
LINE
  5
65
330
1E
100
AcDbEntity
  8
0
  6
CONTINUOUS
 62
     5
100
AcDbLine
 10
10.09375
 20
11.3745
 30
0.0
 11
10.09375
 21
11.84325
 31
0.0
  0
LINE
  5
66
330
1E
100
AcDbEntity
  8
0
  6
CONTINUOUS
 62
     5
100
AcDbLine
 10
10.09375
 20
11.84325
 30
0.0
 11
10.0625
 21
11.87449999999999
 31
0.0
  0
LINE
  5
67
330
1E
100
AcDbEntity
  8
0
  6
CONTINUOUS
 62
     5
100
AcDbLine
 10
10.25
 20
11.24949999999999
 30
0.0
 11
10.25
 21
11.3745
 31
0.0
  0
ARC
  5
68
330
1E
100
AcDbEntity
  8
0
  6
CONTINUOUS
 62
     5
100
AcDbCircle
 10
10.15400599999999
 20
11.098458
 30
0.0
 40
0.098958
100
AcDbArc
 50
223.1735529999999
 51
316.826452
  0
LINE
  5
69
330
1E
100
AcDbEntity
  8
0
  6
CONTINUOUS
 62
     5
100
AcDbLine
 10
10.22617499999999
 20
11.03075
 30
0.0
 11
10.22617499999999
 21
11.24949999999999
 31
0.0
  0
LINE
  5
6A
330
1E
100
AcDbEntity
  8
0
  6
CONTINUOUS
 62
     5
100
AcDbLine
 10
10.22617499999999
 20
11.03075
 30
0.0
 11
10.1875
 21
10.99949999999999
 31
0.0
  0
LINE
  5
6B
330
1E
100
AcDbEntity
  8
0
  6
CONTINUOUS
 62
     5
100
AcDbLine
 10
10.081838
 20
11.24949999999999
 30
0.0
 11
10.081838
 21
11.03075
 31
0.0
  0
LINE
  5
6C
330
1E
100
AcDbEntity
  8
0
  6
CONTINUOUS
 62
     5
100
AcDbLine
 10
9.25
 20
11.12449999999999
 30
0.0
 11
9.25
 21
10.37449999999999
 31
0.0
  0
LINE
  5
6D
330
1E
100
AcDbEntity
  8
0
  6
CONTINUOUS
 62
     5
100
AcDbLine
 10
9.375
 20
10.37449999999999
 30
0.0
 11
9.375
 21
11.12449999999999
 31
0.0
  0
LINE
  5
6E
330
1E
100
AcDbEntity
  8
0
  6
HIDDEN
 62
     5
100
AcDbLine
 10
9.8125
 20
11.3745
 30
0.0
 11
9.8125
 21
11.87449999999999
 31
0.0
  0
LINE
  5
6F
330
1E
100
AcDbEntity
  8
0
  6
CONTINUOUS
 62
     5
100
AcDbLine
 10
9.78125
 20
11.84325
 30
0.0
 11
9.78125
 21
11.3745
 31
0.0
  0
LINE
  5
70
330
1E
100
AcDbEntity
  8
0
  6
CONTINUOUS
 62
     5
100
AcDbLine
 10
9.8125
 20
11.87449999999999
 30
0.0
 11
9.78125
 21
11.84325
 31
0.0
  0
ARC
  5
71
330
1E
100
AcDbEntity
  8
0
  6
CONTINUOUS
 62
     5
100
AcDbCircle
 10
9.5
 20
11.12449999999999
 30
0.0
 40
0.25
100
AcDbArc
 50
90.00000400000002
 51
180.0000019999998
  0
ARC
  5
72
330
1E
100
AcDbEntity
  8
0
  6
CONTINUOUS
 62
     5
100
AcDbCircle
 10
9.5
 20
11.12449999999999
 30
0.0
 40
0.125
100
AcDbArc
 50
90.00000400000002
 51
180.0000019999998
  0
LINE
  5
73
330
1E
100
AcDbEntity
  8
0
  6
CONTINUOUS
 62
     5
100
AcDbLine
 10
9.793161999999997
 20
11.03075
 30
0.0
 11
9.793161999999997
 21
11.24949999999999
 31
0.0
  0
LINE
  5
74
330
1E
100
AcDbEntity
  8
0
  6
CONTINUOUS
 62
     5
100
AcDbLine
 10
9.648825
 20
11.24949999999999
 30
0.0
 11
9.648825
 21
11.03075
 31
0.0
  0
ARC
  5
75
330
1E
100
AcDbEntity
  8
0
  6
CONTINUOUS
 62
     5
100
AcDbCircle
 10
9.720993999999999
 20
11.098458
 30
0.0
 40
0.098958
100
AcDbArc
 50
223.1735529999999
 51
316.826452
  0
LINE
  5
76
330
1E
100
AcDbEntity
  8
0
  6
CONTINUOUS
 62
     5
100
AcDbLine
 10
9.648825
 20
11.03075
 30
0.0
 11
9.6875
 21
10.99949999999999
 31
0.0
  0
LINE
  5
77
330
1E
100
AcDbEntity
  8
0
  6
CONTINUOUS
 62
     5
100
AcDbLine
 10
9.375
 20
10.831338
 30
0.0
 11
9.59375
 21
10.831338
 31
0.0
  0
LINE
  5
78
330
1E
100
AcDbEntity
  8
0
  6
CONTINUOUS
 62
     5
100
AcDbLine
 10
9.59375
 20
10.975675
 30
0.0
 11
9.375
 21
10.975675
 31
0.0
  0
LINE
  5
79
330
1E
100
AcDbEntity
  8
0
  6
CONTINUOUS
 62
     5
100
AcDbLine
 10
9.59375
 20
10.542662
 30
0.0
 11
9.375
 21
10.542662
 31
0.0
  0
LINE
  5
7A
330
1E
100
AcDbEntity
  8
0
  6
CONTINUOUS
 62
     5
100
AcDbLine
 10
9.375
 20
10.39832499999999
 30
0.0
 11
9.59375
 21
10.39832499999999
 31
0.0
  0
ARC
  5
7B
330
1E
100
AcDbEntity
  8
0
  6
CONTINUOUS
 62
     5
100
AcDbCircle
 10
9.276042
 20
10.68699999999999
 30
0.0
 40
0.348958
100
AcDbArc
 50
335.567305
 51
24.432701
  0
LINE
  5
7C
330
1E
100
AcDbEntity
  8
0
  6
CONTINUOUS
 62
     5
100
AcDbLine
 10
9.625
 20
10.437
 30
0.0
 11
9.625
 21
10.93699999999999
 31
0.0
  0
LINE
  5
7D
330
1E
100
AcDbEntity
  8
0
  6
CONTINUOUS
 62
     5
100
AcDbLine
 10
9.59375
 20
10.975675
 30
0.0
 11
9.625
 21
10.93699999999999
 31
0.0
  0
ARC
  5
7E
330
1E
100
AcDbEntity
  8
0
  6
CONTINUOUS
 62
     5
100
AcDbCircle
 10
9.526042
 20
10.903506
 30
0.0
 40
0.098958
100
AcDbArc
 50
313.173554
 51
46.82645299999999
  0
LINE
  5
7F
330
1E
100
AcDbEntity
  8
0
  6
CONTINUOUS
 62
     5
100
AcDbLine
 10
9.59375
 20
10.39832499999999
 30
0.0
 11
9.625
 21
10.437
 31
0.0
  0
ARC
  5
80
330
1E
100
AcDbEntity
  8
0
  6
CONTINUOUS
 62
     5
100
AcDbCircle
 10
9.526042
 20
10.470494
 30
0.0
 40
0.098958
100
AcDbArc
 50
313.173554
 51
46.82645299999999
  0
LINE
  5
81
330
1E
100
AcDbEntity
  8
0
  6
CONTINUOUS
 62
     5
100
AcDbLine
 10
9.25
 20
10.37449999999999
 30
0.0
 11
9.375
 21
10.37449999999999
 31
0.0
  0
LINE
  5
82
330
1E
100
AcDbEntity
  8
0
  6
CONTINUOUS
 62
     5
100
AcDbLine
 10
9.75
 20
10.68699999999999
 30
0.0
 11
8.875
 21
10.68699999999999
 31
0.0
  0
LINE
  5
83
330
1E
100
AcDbEntity
  8
0
  6
CONTINUOUS
 62
     5
100
AcDbLine
 10
9.936999999999999
 20
6.772499999999999
 30
0.0
 11
9.936999999999999
 21
6.96375
 31
0.0
  0
LINE
  5
84
330
1E
100
AcDbEntity
  8
0
  6
CONTINUOUS
 62
     5
100
AcDbLine
 10
9.8945
 20
6.6875
 30
0.0
 11
9.979499999999999
 21
6.6875
 31
0.0
  0
ARC
  5
85
330
1E
100
AcDbEntity
  8
0
  6
CONTINUOUS
 62
     5
100
AcDbCircle
 10
9.526541999999999
 20
6.904005999999998
 30
0.0
 40
0.098958
100
AcDbArc
 50
313.173554
 51
46.82644899999999
  0
LINE
  5
86
330
1E
100
AcDbEntity
  8
0
  6
CONTINUOUS
 62
     5
100
AcDbLine
 10
9.59425
 20
6.976174999999998
 30
0.0
 11
9.6255
 21
6.9375
 31
0.0
  0
LINE
  5
87
330
1E
100
AcDbEntity
  8
0
  6
CONTINUOUS
 62
     5
100
AcDbLine
 10
9.6835
 20
6.831338
 30
0.0
 11
9.9335
 21
6.975674999999998
 31
0.0
  0
LINE
  5
88
330
1E
100
AcDbEntity
  8
0
  6
CONTINUOUS
 62
     5
100
AcDbLine
 10
9.650124999999999
 20
6.6875
 30
0.0
 11
9.841374999999999
 21
6.6875
 31
0.0
  0
LINE
  5
89
330
1E
100
AcDbEntity
  8
0
  6
CONTINUOUS
 62
     5
100
AcDbLine
 10
10.03262499999999
 20
6.6875
 30
0.0
 11
10.202625
 21
6.6875
 31
0.0
  0
LINE
  5
8A
330
1E
100
AcDbEntity
  8
0
  6
CONTINUOUS
 62
     5
100
AcDbLine
 10
9.936999999999999
 20
6.411249999999999
 30
0.0
 11
9.936999999999999
 21
6.6025
 31
0.0
  0
ARC
  5
8B
330
1E
100
AcDbEntity
  8
0
  6
CONTINUOUS
 62
     5
100
AcDbCircle
 10
9.526541999999999
 20
6.470994
 30
0.0
 40
0.098958
100
AcDbArc
 50
313.173554
 51
46.82644899999999
  0
LINE
  5
8C
330
1E
100
AcDbEntity
  8
0
  6
CONTINUOUS
 62
     5
100
AcDbLine
 10
9.59425
 20
6.398825
 30
0.0
 11
9.6255
 21
6.4375
 31
0.0
  0
LINE
  5
8D
330
1E
100
AcDbEntity
  8
0
  6
CONTINUOUS
 62
     5
100
AcDbLine
 10
9.936999999999999
 20
6.655624999999998
 30
0.0
 11
9.936999999999999
 21
6.719375
 31
0.0
  0
LINE
  5
8E
330
1E
100
AcDbEntity
  8
0
  6
CONTINUOUS
 62
     5
100
AcDbLine
 10
9.6255
 20
6.4375
 30
0.0
 11
9.6255
 21
6.9375
 31
0.0
  0
ARC
  5
8F
330
1E
100
AcDbEntity
  8
0
  6
CONTINUOUS
 62
     5
100
AcDbCircle
 10
9.276541999999999
 20
6.6875
 30
0.0
 40
0.348958
100
AcDbArc
 50
335.567305
 51
24.432698
  0
CIRCLE
  5
90
330
1E
100
AcDbEntity
  8
0
  6
CONTINUOUS
 62
     5
100
AcDbCircle
 10
9.937999999999998
 20
6.6875
 30
0.0
 40
0.249501
  0
LWPOLYLINE
  5
91
330
1E
100
AcDbEntity
  8
0
  6
CONTINUOUS
 62
     5
100
AcDbPolyline
 90
        6
 70
     0
 43
0.0
 10
9.6875
 20
6.831338
 10
9.6875
 20
6.542661999999999
 10
9.9375
 20
6.398324999999998
 10
10.1875
 20
6.542661999999999
 10
10.1875
 20
6.831338
 10
9.9375
 20
6.975674999999998
  0
LINE
  5
99
330
1E
100
AcDbEntity
  8
0
  6
CONTINUOUS
 62
     5
100
AcDbLine
 10
8.682
 20
6.405999999999998
 30
0.0
 11
8.91
 21
6.405999999999998
 31
0.0
  0
LINE
  5
9A
330
1E
100
AcDbEntity
  8
0
  6
CONTINUOUS
 62
     5
100
AcDbLine
 10
8.698
 20
5.642
 30
0.0
 11
8.680999999999999
 21
5.657999999999999
 31
0.0
  0
LINE
  5
9B
330
1E
100
AcDbEntity
  8
0
  6
CONTINUOUS
 62
     5
100
AcDbLine
 10
8.727999999999997
 20
5.583999999999998
 30
0.0
 11
8.721999999999999
 21
5.605
 31
0.0
  0
LINE
  5
9C
330
1E
100
AcDbEntity
  8
0
  6
CONTINUOUS
 62
     5
100
AcDbLine
 10
8.73
 20
5.562
 30
0.0
 11
8.727999999999997
 21
5.583999999999998
 31
0.0
  0
LINE
  5
9D
330
1E
100
AcDbEntity
  8
0
  6
CONTINUOUS
 62
     5
100
AcDbLine
 10
8.727999999999997
 20
5.54
 30
0.0
 11
8.73
 21
5.562
 31
0.0
  0
LINE
  5
9E
330
1E
100
AcDbEntity
  8
0
  6
CONTINUOUS
 62
     5
100
AcDbLine
 10
8.711999999999997
 20
5.625
 30
0.0
 11
8.698
 21
5.642
 31
0.0
  0
LINE
  5
9F
330
1E
100
AcDbEntity
  8
0
  6
CONTINUOUS
 62
     5
100
AcDbLine
 10
8.721999999999999
 20
5.605
 30
0.0
 11
8.711999999999997
 21
5.625
 31
0.0
  0
LINE
  5
A0
330
1E
100
AcDbEntity
  8
0
  6
CONTINUOUS
 62
     5
100
AcDbLine
 10
8.592
 20
5.687
 30
0.0
 11
8.568999999999999
 21
5.684999999999998
 31
0.0
  0
LINE
  5
A1
330
1E
100
AcDbEntity
  8
0
  6
CONTINUOUS
 62
     5
100
AcDbLine
 10
8.615999999999999
 20
5.684999999999998
 30
0.0
 11
8.592
 21
5.687
 31
0.0
  0
LINE
  5
A2
330
1E
100
AcDbEntity
  8
0
  6
CONTINUOUS
 62
     5
100
AcDbLine
 10
8.503999999999999
 20
5.657999999999999
 30
0.0
 11
8.487
 21
5.642
 31
0.0
  0
LINE
  5
A3
330
1E
100
AcDbEntity
  8
0
  6
CONTINUOUS
 62
     5
100
AcDbLine
 10
8.523999999999999
 20
5.669999999999999
 30
0.0
 11
8.503999999999999
 21
5.657999999999999
 31
0.0
  0
LINE
  5
A4
330
1E
100
AcDbEntity
  8
0
  6
CONTINUOUS
 62
     5
100
AcDbLine
 10
8.544999999999998
 20
5.678999999999999
 30
0.0
 11
8.523999999999999
 21
5.669999999999999
 31
0.0
  0
LINE
  5
A5
330
1E
100
AcDbEntity
  8
0
  6
CONTINUOUS
 62
     5
100
AcDbLine
 10
8.568999999999999
 20
5.684999999999998
 30
0.0
 11
8.544999999999998
 21
5.678999999999999
 31
0.0
  0
LINE
  5
A6
330
1E
100
AcDbEntity
  8
0
  6
CONTINUOUS
 62
     5
100
AcDbLine
 10
8.455
 20
5.562
 30
0.0
 11
8.457
 21
5.54
 31
0.0
  0
LINE
  5
A7
330
1E
100
AcDbEntity
  8
0
  6
CONTINUOUS
 62
     5
100
AcDbLine
 10
8.457
 20
5.583999999999998
 30
0.0
 11
8.455
 21
5.562
 31
0.0
  0
LINE
  5
A8
330
1E
100
AcDbEntity
  8
0
  6
CONTINUOUS
 62
     5
100
AcDbLine
 10
8.462999999999999
 20
5.605
 30
0.0
 11
8.457
 21
5.583999999999998
 31
0.0
  0
LINE
  5
A9
330
1E
100
AcDbEntity
  8
0
  6
CONTINUOUS
 62
     5
100
AcDbLine
 10
8.487
 20
5.642
 30
0.0
 11
8.472999999999998
 21
5.625
 31
0.0
  0
LINE
  5
AA
330
1E
100
AcDbEntity
  8
0
  6
CONTINUOUS
 62
     5
100
AcDbLine
 10
8.472999999999998
 20
5.625
 30
0.0
 11
8.462999999999999
 21
5.605
 31
0.0
  0
LINE
  5
AB
330
1E
100
AcDbEntity
  8
0
  6
CONTINUOUS
 62
     5
100
AcDbLine
 10
8.680999999999999
 20
5.657999999999999
 30
0.0
 11
8.660999999999999
 21
5.669999999999999
 31
0.0
  0
LINE
  5
AC
330
1E
100
AcDbEntity
  8
0
  6
CONTINUOUS
 62
     5
100
AcDbLine
 10
8.660999999999999
 20
5.669999999999999
 30
0.0
 11
8.64
 21
5.678999999999999
 31
0.0
  0
LINE
  5
AD
330
1E
100
AcDbEntity
  8
0
  6
CONTINUOUS
 62
     5
100
AcDbLine
 10
8.64
 20
5.678999999999999
 30
0.0
 11
8.615999999999999
 21
5.684999999999998
 31
0.0
  0
LINE
  5
AE
330
1E
100
AcDbEntity
  8
0
  6
CONTINUOUS
 62
     5
100
AcDbLine
 10
8.442999999999999
 20
5.562
 30
0.0
 11
8.742
 21
5.562
 31
0.0
  0
LINE
  5
AF
330
1E
100
AcDbEntity
  8
0
  6
CONTINUOUS
 62
     5
100
AcDbLine
 10
8.795999999999999
 20
6.291999999999998
 30
0.0
 11
8.795999999999999
 21
6.519999999999998
 31
0.0
  0
CIRCLE
  5
B0
330
1E
100
AcDbEntity
  8
0
  6
CONTINUOUS
 62
     5
100
AcDbCircle
 10
8.795999999999999
 20
6.405999999999998
 30
0.0
 40
0.075
  0
ARC
  5
B1
330
1E
100
AcDbEntity
  8
4
  6
CONTINUOUS
 62
     5
100
AcDbCircle
 10
8.795999999999999
 20
6.405999999999998
 30
0.0
 40
0.087
100
AcDbArc
 50
85.00000099999999
 51
5.0
  0
CIRCLE
  5
B2
330
1E
100
AcDbEntity
  8
0
  6
CONTINUOUS
 62
     5
100
AcDbCircle
 10
8.795999999999999
 20
6.405999999999998
 30
0.0
 40
0.095
  0
LINE
  5
B3
330
1E
100
AcDbEntity
  8
0
  6
CONTINUOUS
 62
     5
100
AcDbLine
 10
8.680999999999999
 20
5.466
 30
0.0
 11
8.698
 21
5.482
 31
0.0
  0
LINE
  5
B4
330
1E
100
AcDbEntity
  8
0
  6
CONTINUOUS
 62
     5
100
AcDbLine
 10
8.592
 20
5.437
 30
0.0
 11
8.615999999999999
 21
5.439
 31
0.0
  0
LINE
  5
B5
330
1E
100
AcDbEntity
  8
0
  6
CONTINUOUS
 62
     5
100
AcDbLine
 10
8.568999999999999
 20
5.439
 30
0.0
 11
8.592
 21
5.437
 31
0.0
  0
LINE
  5
B6
330
1E
100
AcDbEntity
  8
0
  6
CONTINUOUS
 62
     5
100
AcDbLine
 10
8.487
 20
5.482
 30
0.0
 11
8.503999999999999
 21
5.466
 31
0.0
  0
LINE
  5
B7
330
1E
100
AcDbEntity
  8
0
  6
CONTINUOUS
 62
     5
100
AcDbLine
 10
8.503999999999999
 20
5.466
 30
0.0
 11
8.523999999999999
 21
5.453999999999998
 31
0.0
  0
LINE
  5
B8
330
1E
100
AcDbEntity
  8
0
  6
CONTINUOUS
 62
     5
100
AcDbLine
 10
8.523999999999999
 20
5.453999999999998
 30
0.0
 11
8.544999999999998
 21
5.445
 31
0.0
  0
LINE
  5
B9
330
1E
100
AcDbEntity
  8
0
  6
CONTINUOUS
 62
     5
100
AcDbLine
 10
8.544999999999998
 20
5.445
 30
0.0
 11
8.568999999999999
 21
5.439
 31
0.0
  0
LINE
  5
BA
330
1E
100
AcDbEntity
  8
0
  6
CONTINUOUS
 62
     5
100
AcDbLine
 10
8.660999999999999
 20
5.453999999999998
 30
0.0
 11
8.680999999999999
 21
5.466
 31
0.0
  0
LINE
  5
BB
330
1E
100
AcDbEntity
  8
0
  6
CONTINUOUS
 62
     5
100
AcDbLine
 10
8.64
 20
5.445
 30
0.0
 11
8.660999999999999
 21
5.453999999999998
 31
0.0
  0
LINE
  5
BC
330
1E
100
AcDbEntity
  8
0
  6
CONTINUOUS
 62
     5
100
AcDbLine
 10
8.615999999999999
 20
5.439
 30
0.0
 11
8.64
 21
5.445
 31
0.0
  0
LINE
  5
BD
330
1E
100
AcDbEntity
  8
0
  6
CONTINUOUS
 62
     5
100
AcDbLine
 10
8.698
 20
5.482
 30
0.0
 11
8.711999999999997
 21
5.5
 31
0.0
  0
LINE
  5
BE
330
1E
100
AcDbEntity
  8
0
  6
CONTINUOUS
 62
     5
100
AcDbLine
 10
8.721999999999999
 20
5.519
 30
0.0
 11
8.727999999999997
 21
5.54
 31
0.0
  0
LINE
  5
BF
330
1E
100
AcDbEntity
  8
0
  6
CONTINUOUS
 62
     5
100
AcDbLine
 10
8.711999999999997
 20
5.5
 30
0.0
 11
8.721999999999999
 21
5.519
 31
0.0
  0
LINE
  5
C0
330
1E
100
AcDbEntity
  8
0
  6
CONTINUOUS
 62
     5
100
AcDbLine
 10
8.472999999999998
 20
5.5
 30
0.0
 11
8.487
 21
5.482
 31
0.0
  0
LINE
  5
C1
330
1E
100
AcDbEntity
  8
0
  6
CONTINUOUS
 62
     5
100
AcDbLine
 10
8.457
 20
5.54
 30
0.0
 11
8.462999999999999
 21
5.519
 31
0.0
  0
LINE
  5
C2
330
1E
100
AcDbEntity
  8
0
  6
CONTINUOUS
 62
     5
100
AcDbLine
 10
8.462999999999999
 20
5.519
 30
0.0
 11
8.472999999999998
 21
5.5
 31
0.0
  0
LINE
  5
C3
330
1E
100
AcDbEntity
  8
0
  6
CONTINUOUS
 62
     5
100
AcDbLine
 10
8.592
 20
5.411999999999999
 30
0.0
 11
8.592
 21
5.711999999999998
 31
0.0
  0
LINE
  5
C4
330
1E
100
AcDbEntity
  8
0
  6
CONTINUOUS
 62
     5
100
AcDbLine
 10
8.294999999999998
 20
5.969999999999998
 30
0.0
 11
8.282
 21
5.988999999999998
 31
0.0
  0
LINE
  5
C5
330
1E
100
AcDbEntity
  8
0
  6
CONTINUOUS
 62
     5
100
AcDbLine
 10
8.304
 20
5.95
 30
0.0
 11
8.294999999999998
 21
5.969999999999998
 31
0.0
  0
LINE
  5
C6
330
1E
100
AcDbEntity
  8
0
  6
CONTINUOUS
 62
     5
100
AcDbLine
 10
8.308999999999999
 20
5.927999999999999
 30
0.0
 11
8.304
 21
5.95
 31
0.0
  0
LINE
  5
C7
330
1E
100
AcDbEntity
  8
0
  6
CONTINUOUS
 62
     5
100
AcDbLine
 10
8.304
 20
5.860999999999998
 30
0.0
 11
8.308999999999999
 21
5.882999999999999
 31
0.0
  0
LINE
  5
C8
330
1E
100
AcDbEntity
  8
0
  6
CONTINUOUS
 62
     5
100
AcDbLine
 10
8.294999999999998
 20
5.841
 30
0.0
 11
8.304
 21
5.860999999999998
 31
0.0
  0
LINE
  5
C9
330
1E
100
AcDbEntity
  8
0
  6
CONTINUOUS
 62
     5
100
AcDbLine
 10
8.282
 20
5.822999999999999
 30
0.0
 11
8.294999999999998
 21
5.841
 31
0.0
  0
LINE
  5
CA
330
1E
100
AcDbEntity
  8
0
  6
CONTINUOUS
 62
     5
100
AcDbLine
 10
8.266999999999999
 20
5.807
 30
0.0
 11
8.282
 21
5.822999999999999
 31
0.0
  0
LINE
  5
CB
330
1E
100
AcDbEntity
  8
0
  6
CONTINUOUS
 62
     5
100
AcDbLine
 10
8.310999999999998
 20
5.905999999999998
 30
0.0
 11
8.308999999999999
 21
5.927999999999999
 31
0.0
  0
LINE
  5
CC
330
1E
100
AcDbEntity
  8
0
  6
CONTINUOUS
 62
     5
100
AcDbLine
 10
8.308999999999999
 20
5.882999999999999
 30
0.0
 11
8.310999999999998
 21
5.905999999999998
 31
0.0
  0
LINE
  5
CD
330
1E
100
AcDbEntity
  8
0
  6
CONTINUOUS
 62
     5
100
AcDbLine
 10
8.282
 20
5.988999999999998
 30
0.0
 11
8.266999999999999
 21
6.004999999999999
 31
0.0
  0
LINE
  5
CE
330
1E
100
AcDbEntity
  8
0
  6
CONTINUOUS
 62
     5
100
AcDbLine
 10
8.249
 20
5.793999999999998
 30
0.0
 11
8.266999999999999
 21
5.807
 31
0.0
  0
LINE
  5
CF
330
1E
100
AcDbEntity
  8
0
  6
CONTINUOUS
 62
     5
100
AcDbLine
 10
8.228999999999999
 20
5.783999999999998
 30
0.0
 11
8.249
 21
5.793999999999998
 31
0.0
  0
LINE
  5
D0
330
1E
100
AcDbEntity
  8
0
  6
CONTINUOUS
 62
     5
100
AcDbLine
 10
8.164999999999999
 20
5.777999999999998
 30
0.0
 11
8.185999999999998
 21
5.775999999999998
 31
0.0
  0
LINE
  5
D1
330
1E
100
AcDbEntity
  8
0
  6
CONTINUOUS
 62
     5
100
AcDbLine
 10
8.208
 20
5.777999999999998
 30
0.0
 11
8.228999999999999
 21
5.783999999999998
 31
0.0
  0
LINE
  5
D2
330
1E
100
AcDbEntity
  8
0
  6
CONTINUOUS
 62
     5
100
AcDbLine
 10
8.185999999999998
 20
5.775999999999998
 30
0.0
 11
8.208
 21
5.777999999999998
 31
0.0
  0
LINE
  5
D3
330
1E
100
AcDbEntity
  8
0
  6
CONTINUOUS
 62
     5
100
AcDbLine
 10
8.249
 20
6.017999999999998
 30
0.0
 11
8.228999999999999
 21
6.027
 31
0.0
  0
LINE
  5
D4
330
1E
100
AcDbEntity
  8
0
  6
CONTINUOUS
 62
     5
100
AcDbLine
 10
8.266999999999999
 20
6.004999999999999
 30
0.0
 11
8.249
 21
6.017999999999998
 31
0.0
  0
LINE
  5
D5
330
1E
100
AcDbEntity
  8
0
  6
CONTINUOUS
 62
     5
100
AcDbLine
 10
8.185999999999998
 20
6.035
 30
0.0
 11
8.164999999999999
 21
6.032999999999999
 31
0.0
  0
LINE
  5
D6
330
1E
100
AcDbEntity
  8
0
  6
CONTINUOUS
 62
     5
100
AcDbLine
 10
8.185999999999998
 20
5.756
 30
0.0
 11
8.185999999999998
 21
6.056
 31
0.0
  0
LINE
  5
D7
330
1E
100
AcDbEntity
  8
0
  6
CONTINUOUS
 62
     5
100
AcDbLine
 10
8.208
 20
6.032999999999999
 30
0.0
 11
8.185999999999998
 21
6.035
 31
0.0
  0
LINE
  5
D8
330
1E
100
AcDbEntity
  8
0
  6
CONTINUOUS
 62
     5
100
AcDbLine
 10
8.228999999999999
 20
6.027
 30
0.0
 11
8.208
 21
6.032999999999999
 31
0.0
  0
LINE
  5
D9
330
1E
100
AcDbEntity
  8
0
  6
CONTINUOUS
 62
     5
100
AcDbLine
 10
7.462999999999999
 20
6.405999999999998
 30
0.0
 11
7.690999999999998
 21
6.405999999999998
 31
0.0
  0
LINE
  5
DA
330
1E
100
AcDbEntity
  8
0
  6
CONTINUOUS
 62
     5
100
AcDbLine
 10
8.105999999999998
 20
5.807
 30
0.0
 11
8.124
 21
5.793999999999998
 31
0.0
  0
LINE
  5
DB
330
1E
100
AcDbEntity
  8
0
  6
CONTINUOUS
 62
     5
100
AcDbLine
 10
8.060999999999998
 20
5.905999999999998
 30
0.0
 11
8.062999999999998
 21
5.882999999999999
 31
0.0
  0
LINE
  5
DC
330
1E
100
AcDbEntity
  8
0
  6
CONTINUOUS
 62
     5
100
AcDbLine
 10
8.062999999999998
 20
5.882999999999999
 30
0.0
 11
8.068999999999999
 21
5.860999999999998
 31
0.0
  0
LINE
  5
DD
330
1E
100
AcDbEntity
  8
0
  6
CONTINUOUS
 62
     5
100
AcDbLine
 10
8.062999999999998
 20
5.927999999999999
 30
0.0
 11
8.060999999999998
 21
5.905999999999998
 31
0.0
  0
LINE
  5
DE
330
1E
100
AcDbEntity
  8
0
  6
CONTINUOUS
 62
     5
100
AcDbLine
 10
8.068999999999999
 20
5.95
 30
0.0
 11
8.062999999999998
 21
5.927999999999999
 31
0.0
  0
LINE
  5
DF
330
1E
100
AcDbEntity
  8
0
  6
CONTINUOUS
 62
     5
100
AcDbLine
 10
8.068999999999999
 20
5.860999999999998
 30
0.0
 11
8.077999999999999
 21
5.841
 31
0.0
  0
LINE
  5
E0
330
1E
100
AcDbEntity
  8
0
  6
CONTINUOUS
 62
     5
100
AcDbLine
 10
8.077999999999999
 20
5.841
 30
0.0
 11
8.089999999999998
 21
5.822999999999999
 31
0.0
  0
LINE
  5
E1
330
1E
100
AcDbEntity
  8
0
  6
CONTINUOUS
 62
     5
100
AcDbLine
 10
8.089999999999998
 20
5.822999999999999
 30
0.0
 11
8.105999999999998
 21
5.807
 31
0.0
  0
LINE
  5
E2
330
1E
100
AcDbEntity
  8
0
  6
CONTINUOUS
 62
     5
100
AcDbLine
 10
8.077999999999999
 20
5.969999999999998
 30
0.0
 11
8.068999999999999
 21
5.95
 31
0.0
  0
LINE
  5
E3
330
1E
100
AcDbEntity
  8
0
  6
CONTINUOUS
 62
     5
100
AcDbLine
 10
8.089999999999998
 20
5.988999999999998
 30
0.0
 11
8.077999999999999
 21
5.969999999999998
 31
0.0
  0
LINE
  5
E4
330
1E
100
AcDbEntity
  8
0
  6
CONTINUOUS
 62
     5
100
AcDbLine
 10
8.105999999999998
 20
6.004999999999999
 30
0.0
 11
8.089999999999998
 21
5.988999999999998
 31
0.0
  0
LINE
  5
E5
330
1E
100
AcDbEntity
  8
0
  6
CONTINUOUS
 62
     5
100
AcDbLine
 10
8.124
 20
6.017999999999998
 30
0.0
 11
8.105999999999998
 21
6.004999999999999
 31
0.0
  0
LINE
  5
E6
330
1E
100
AcDbEntity
  8
0
  6
CONTINUOUS
 62
     5
100
AcDbLine
 10
7.841999999999998
 20
5.673999999999999
 30
0.0
 11
7.822999999999999
 21
5.684
 31
0.0
  0
LINE
  5
E7
330
1E
100
AcDbEntity
  8
0
  6
CONTINUOUS
 62
     5
100
AcDbLine
 10
7.86
 20
5.660999999999998
 30
0.0
 11
7.841999999999998
 21
5.673999999999999
 31
0.0
  0
LINE
  5
E8
330
1E
100
AcDbEntity
  8
0
  6
CONTINUOUS
 62
     5
100
AcDbLine
 10
7.876
 20
5.644999999999998
 30
0.0
 11
7.86
 21
5.660999999999998
 31
0.0
  0
LINE
  5
E9
330
1E
100
AcDbEntity
  8
0
  6
CONTINUOUS
 62
     5
100
AcDbLine
 10
7.905
 20
5.562
 30
0.0
 11
7.902999999999998
 21
5.583999999999998
 31
0.0
  0
LINE
  5
EA
330
1E
100
AcDbEntity
  8
0
  6
CONTINUOUS
 62
     5
100
AcDbLine
 10
7.902999999999998
 20
5.54
 30
0.0
 11
7.905
 21
5.562
 31
0.0
  0
LINE
  5
EB
330
1E
100
AcDbEntity
  8
0
  6
CONTINUOUS
 62
     5
100
AcDbLine
 10
7.902999999999998
 20
5.583999999999998
 30
0.0
 11
7.897
 21
5.605999999999998
 31
0.0
  0
LINE
  5
EC
330
1E
100
AcDbEntity
  8
0
  6
CONTINUOUS
 62
     5
100
AcDbLine
 10
7.887999999999999
 20
5.626999999999998
 30
0.0
 11
7.876
 21
5.644999999999998
 31
0.0
  0
LINE
  5
ED
330
1E
100
AcDbEntity
  8
0
  6
CONTINUOUS
 62
     5
100
AcDbLine
 10
7.897
 20
5.605999999999998
 30
0.0
 11
7.887999999999999
 21
5.626999999999998
 31
0.0
  0
LINE
  5
EE
330
1E
100
AcDbEntity
  8
0
  6
CONTINUOUS
 62
     5
100
AcDbLine
 10
7.7
 20
5.660999999999998
 30
0.0
 11
7.684
 21
5.644999999999998
 31
0.0
  0
LINE
  5
EF
330
1E
100
AcDbEntity
  8
0
  6
CONTINUOUS
 62
     5
100
AcDbLine
 10
7.716999999999998
 20
5.673999999999999
 30
0.0
 11
7.7
 21
5.660999999999998
 31
0.0
  0
LINE
  5
F0
330
1E
100
AcDbEntity
  8
0
  6
CONTINUOUS
 62
     5
100
AcDbLine
 10
7.737
 20
5.684
 30
0.0
 11
7.716999999999998
 21
5.673999999999999
 31
0.0
  0
LINE
  5
F1
330
1E
100
AcDbEntity
  8
0
  6
CONTINUOUS
 62
     5
100
AcDbLine
 10
7.757999999999999
 20
5.689
 30
0.0
 11
7.737
 21
5.684
 31
0.0
  0
LINE
  5
F2
330
1E
100
AcDbEntity
  8
0
  6
CONTINUOUS
 62
     5
100
AcDbLine
 10
7.657
 20
5.583999999999998
 30
0.0
 11
7.655
 21
5.562
 31
0.0
  0
LINE
  5
F3
330
1E
100
AcDbEntity
  8
0
  6
CONTINUOUS
 62
     5
100
AcDbLine
 10
7.655
 20
5.562
 30
0.0
 11
7.657
 21
5.54
 31
0.0
  0
LINE
  5
F4
330
1E
100
AcDbEntity
  8
0
  6
CONTINUOUS
 62
     5
100
AcDbLine
 10
7.662999999999999
 20
5.605999999999998
 30
0.0
 11
7.657
 21
5.583999999999998
 31
0.0
  0
LINE
  5
F5
330
1E
100
AcDbEntity
  8
0
  6
CONTINUOUS
 62
     5
100
AcDbLine
 10
7.684
 20
5.644999999999998
 30
0.0
 11
7.671999999999998
 21
5.626999999999998
 31
0.0
  0
LINE
  5
F6
330
1E
100
AcDbEntity
  8
0
  6
CONTINUOUS
 62
     5
100
AcDbLine
 10
7.671999999999998
 20
5.626999999999998
 30
0.0
 11
7.662999999999999
 21
5.605999999999998
 31
0.0
  0
LINE
  5
F7
330
1E
100
AcDbEntity
  8
0
  6
CONTINUOUS
 62
     5
100
AcDbLine
 10
7.78
 20
5.690999999999998
 30
0.0
 11
7.757999999999999
 21
5.689
 31
0.0
  0
LINE
  5
F8
330
1E
100
AcDbEntity
  8
0
  6
CONTINUOUS
 62
     5
100
AcDbLine
 10
7.822999999999999
 20
5.684
 30
0.0
 11
7.801999999999998
 21
5.689
 31
0.0
  0
LINE
  5
F9
330
1E
100
AcDbEntity
  8
0
  6
CONTINUOUS
 62
     5
100
AcDbLine
 10
7.801999999999998
 20
5.689
 30
0.0
 11
7.78
 21
5.690999999999998
 31
0.0
  0
LINE
  5
FA
330
1E
100
AcDbEntity
  8
0
  6
CONTINUOUS
 62
     5
100
AcDbLine
 10
7.629999999999999
 20
5.562
 30
0.0
 11
7.929999999999998
 21
5.562
 31
0.0
  0
LINE
  5
FB
330
1E
100
AcDbEntity
  8
0
  6
CONTINUOUS
 62
     5
100
AcDbLine
 10
7.576999999999999
 20
6.291999999999998
 30
0.0
 11
7.576999999999999
 21
6.519999999999998
 31
0.0
  0
CIRCLE
  5
FC
330
1E
100
AcDbEntity
  8
0
  6
CONTINUOUS
 62
     5
100
AcDbCircle
 10
7.576999999999999
 20
6.405999999999998
 30
0.0
 40
0.075
  0
CIRCLE
  5
FD
330
1E
100
AcDbEntity
  8
0
  6
CONTINUOUS
 62
     5
100
AcDbCircle
 10
7.576999999999999
 20
6.405999999999998
 30
0.0
 40
0.095
  0
ARC
  5
FE
330
1E
100
AcDbEntity
  8
4
  6
CONTINUOUS
 62
     5
100
AcDbCircle
 10
7.576999999999999
 20
6.405999999999998
 30
0.0
 40
0.087
100
AcDbArc
 50
85.00000099999999
 51
5.0
  0
LINE
  5
FF
330
1E
100
AcDbEntity
  8
0
  6
CONTINUOUS
 62
     5
100
AcDbLine
 10
8.142999999999998
 20
6.027
 30
0.0
 11
8.124
 21
6.017999999999998
 31
0.0
  0
LINE
  5
100
330
1E
100
AcDbEntity
  8
0
  6
CONTINUOUS
 62
     5
100
AcDbLine
 10
8.164999999999999
 20
6.032999999999999
 30
0.0
 11
8.142999999999998
 21
6.027
 31
0.0
  0
LINE
  5
101
330
1E
100
AcDbEntity
  8
0
  6
CONTINUOUS
 62
     5
100
AcDbLine
 10
8.124
 20
5.793999999999998
 30
0.0
 11
8.142999999999998
 21
5.783999999999998
 31
0.0
  0
LINE
  5
102
330
1E
100
AcDbEntity
  8
0
  6
CONTINUOUS
 62
     5
100
AcDbLine
 10
8.142999999999998
 20
5.783999999999998
 30
0.0
 11
8.164999999999999
 21
5.777999999999998
 31
0.0
  0
LINE
  5
103
330
1E
100
AcDbEntity
  8
0
  6
CONTINUOUS
 62
     5
100
AcDbLine
 10
8.185999999999998
 20
5.049999999999998
 30
0.0
 11
8.185999999999998
 21
5.386999999999998
 31
0.0
  0
LINE
  5
104
330
1E
100
AcDbEntity
  8
0
  6
CONTINUOUS
 62
     5
100
AcDbLine
 10
7.86
 20
5.462999999999999
 30
0.0
 11
7.876
 21
5.479
 31
0.0
  0
LINE
  5
105
330
1E
100
AcDbEntity
  8
0
  6
CONTINUOUS
 62
     5
100
AcDbLine
 10
7.841999999999998
 20
5.45
 30
0.0
 11
7.86
 21
5.462999999999999
 31
0.0
  0
LINE
  5
106
330
1E
100
AcDbEntity
  8
0
  6
CONTINUOUS
 62
     5
100
AcDbLine
 10
7.822999999999999
 20
5.44
 30
0.0
 11
7.841999999999998
 21
5.45
 31
0.0
  0
LINE
  5
107
330
1E
100
AcDbEntity
  8
0
  6
CONTINUOUS
 62
     5
100
AcDbLine
 10
7.684
 20
5.479
 30
0.0
 11
7.7
 21
5.462999999999999
 31
0.0
  0
LINE
  5
108
330
1E
100
AcDbEntity
  8
0
  6
CONTINUOUS
 62
     5
100
AcDbLine
 10
7.7
 20
5.462999999999999
 30
0.0
 11
7.716999999999998
 21
5.45
 31
0.0
  0
LINE
  5
109
330
1E
100
AcDbEntity
  8
0
  6
CONTINUOUS
 62
     5
100
AcDbLine
 10
7.716999999999998
 20
5.45
 30
0.0
 11
7.737
 21
5.44
 31
0.0
  0
LINE
  5
10A
330
1E
100
AcDbEntity
  8
0
  6
CONTINUOUS
 62
     5
100
AcDbLine
 10
7.737
 20
5.44
 30
0.0
 11
7.757999999999999
 21
5.434999999999998
 31
0.0
  0
LINE
  5
10B
330
1E
100
AcDbEntity
  8
0
  6
CONTINUOUS
 62
     5
100
AcDbLine
 10
7.757999999999999
 20
5.434999999999998
 30
0.0
 11
7.78
 21
5.432999999999998
 31
0.0
  0
LINE
  5
10C
330
1E
100
AcDbEntity
  8
0
  6
CONTINUOUS
 62
     5
100
AcDbLine
 10
7.546
 20
5.106787
 30
0.0
 11
7.546
 21
5.192787
 31
0.0
  0
LINE
  5
10D
330
1E
100
AcDbEntity
  8
0
  6
CONTINUOUS
 62
     5
100
AcDbLine
 10
7.442
 20
5.106787
 30
0.0
 11
7.649
 21
5.106787
 31
0.0
  0
LINE
  5
10E
330
1E
100
AcDbEntity
  8
0
  6
CONTINUOUS
 62
     5
100
AcDbLine
 10
7.546
 20
5.003786999999999
 30
0.0
 11
7.546
 21
5.209787
 31
0.0
  0
CIRCLE
  5
10F
330
1E
100
AcDbEntity
  8
0
  6
CONTINUOUS
 62
     5
100
AcDbCircle
 10
7.546
 20
5.106787
 30
0.0
 40
0.078
  0
LINE
  5
110
330
1E
100
AcDbEntity
  8
0
  6
CONTINUOUS
 62
     5
100
AcDbLine
 10
7.801999999999998
 20
5.434999999999998
 30
0.0
 11
7.822999999999999
 21
5.44
 31
0.0
  0
LINE
  5
111
330
1E
100
AcDbEntity
  8
0
  6
CONTINUOUS
 62
     5
100
AcDbLine
 10
7.78
 20
5.432999999999998
 30
0.0
 11
7.801999999999998
 21
5.434999999999998
 31
0.0
  0
CIRCLE
  5
112
330
1E
100
AcDbEntity
  8
0
  6
CONTINUOUS
 62
     5
100
AcDbCircle
 10
8.185999999999998
 20
5.217999999999999
 30
0.0
 40
0.14
  0
LINE
  5
113
330
1E
100
AcDbEntity
  8
0
  6
CONTINUOUS
 62
     5
100
AcDbLine
 10
7.876
 20
5.479
 30
0.0
 11
7.887999999999999
 21
5.496999999999998
 31
0.0
  0
LINE
  5
114
330
1E
100
AcDbEntity
  8
0
  6
CONTINUOUS
 62
     5
100
AcDbLine
 10
7.897
 20
5.517999999999998
 30
0.0
 11
7.902999999999998
 21
5.54
 31
0.0
  0
LINE
  5
115
330
1E
100
AcDbEntity
  8
0
  6
CONTINUOUS
 62
     5
100
AcDbLine
 10
7.887999999999999
 20
5.496999999999998
 30
0.0
 11
7.897
 21
5.517999999999998
 31
0.0
  0
LINE
  5
116
330
1E
100
AcDbEntity
  8
0
  6
CONTINUOUS
 62
     5
100
AcDbLine
 10
7.671999999999998
 20
5.496999999999998
 30
0.0
 11
7.684
 21
5.479
 31
0.0
  0
LINE
  5
117
330
1E
100
AcDbEntity
  8
0
  6
CONTINUOUS
 62
     5
100
AcDbLine
 10
7.657
 20
5.54
 30
0.0
 11
7.662999999999999
 21
5.517999999999998
 31
0.0
  0
LINE
  5
118
330
1E
100
AcDbEntity
  8
0
  6
CONTINUOUS
 62
     5
100
AcDbLine
 10
7.662999999999999
 20
5.517999999999998
 30
0.0
 11
7.671999999999998
 21
5.496999999999998
 31
0.0
  0
LINE
  5
119
330
1E
100
AcDbEntity
  8
0
  6
CONTINUOUS
 62
     5
100
AcDbLine
 10
7.78
 20
5.411999999999999
 30
0.0
 11
7.78
 21
5.711999999999998
 31
0.0
  0
LINE
  5
11A
330
1E
100
AcDbEntity
  8
0
  6
CONTINUOUS
 62
     5
100
AcDbLine
 10
8.035999999999999
 20
5.905999999999998
 30
0.0
 11
8.336
 21
5.905999999999998
 31
0.0
  0
LINE
  5
11B
330
1E
100
AcDbEntity
  8
0
  6
CONTINUOUS
 62
     5
100
AcDbLine
 10
8.017999999999998
 20
5.217999999999999
 30
0.0
 11
8.355
 21
5.217999999999999
 31
0.0
  0
LINE
  5
11C
330
1E
100
AcDbEntity
  8
0
  6
CONTINUOUS
 62
     5
100
AcDbLine
 10
9.59425
 20
6.976174999999998
 30
0.0
 11
9.3755
 21
6.976174999999998
 31
0.0
  0
LINE
  5
11D
330
1E
100
AcDbEntity
  8
0
  6
CONTINUOUS
 62
     5
100
AcDbLine
 10
9.3755
 20
6.831838
 30
0.0
 11
9.59425
 21
6.831838
 31
0.0
  0
LINE
  5
11E
330
1E
100
AcDbEntity
  8
0
  6
CONTINUOUS
 62
     5
100
AcDbLine
 10
9.3755
 20
6.398825
 30
0.0
 11
9.59425
 21
6.398825
 31
0.0
  0
LINE
  5
11F
330
1E
100
AcDbEntity
  8
0
  6
CONTINUOUS
 62
     5
100
AcDbLine
 10
9.59425
 20
6.543162
 30
0.0
 11
9.3755
 21
6.543162
 31
0.0
  0
LINE
  5
120
330
1E
100
AcDbEntity
  8
0
  6
CONTINUOUS
 62
     5
100
AcDbLine
 10
9.7505
 20
6.6875
 30
0.0
 11
9.180419
 21
6.6875
 31
0.0
  0
LINE
  5
121
330
1E
100
AcDbEntity
  8
0
  6
CONTINUOUS
 62
     5
100
AcDbLine
 10
10.2495
 20
7.0
 30
0.0
 11
9.249499999999999
 21
7.0
 31
0.0
  0
LINE
  5
122
330
1E
100
AcDbEntity
  8
0
  6
CONTINUOUS
 62
     5
100
AcDbLine
 10
9.25
 20
7.9995
 30
0.0
 11
9.25
 21
10.99949999999999
 31
0.0
  0
LINE
  5
123
330
1E
100
AcDbEntity
  8
0
  6
CONTINUOUS
 62
     5
100
AcDbLine
 10
14.25
 20
7.0
 30
0.0
 11
11.25
 21
7.0
 31
0.0
  0
LINE
  5
124
330
1E
100
AcDbEntity
  8
0
  6
CONTINUOUS
 62
     5
100
AcDbLine
 10
15.09325
 20
4.46875
 30
0.0
 11
15.1245
 21
4.4375
 31
0.0
  0
LINE
  5
125
330
1E
100
AcDbEntity
  8
0
  6
CONTINUOUS
 62
     5
100
AcDbLine
 10
15.1245
 20
4.1875
 30
0.0
 11
15.09325
 21
4.15625
 31
0.0
  0
LINE
  5
126
330
1E
100
AcDbEntity
  8
0
  6
CONTINUOUS
 62
     5
100
AcDbLine
 10
15.1245
 20
4.4375
 30
0.0
 11
15.1245
 21
4.1875
 31
0.0
  0
LINE
  5
127
330
1E
100
AcDbEntity
  8
0
  6
CONTINUOUS
 62
     5
100
AcDbLine
 10
15.09325
 20
4.46875
 30
0.0
 11
15.09325
 21
4.15625
 31
0.0
  0
LINE
  5
128
330
1E
100
AcDbEntity
  8
0
  6
HIDDEN
 62
     5
100
AcDbLine
 10
14.6245
 20
4.1875
 30
0.0
 11
15.1245
 21
4.1875
 31
0.0
  0
LINE
  5
129
330
1E
100
AcDbEntity
  8
0
  6
CONTINUOUS
 62
     5
100
AcDbLine
 10
15.09325
 20
4.15625
 30
0.0
 11
14.6245
 21
4.15625
 31
0.0
  0
LINE
  5
12A
330
1E
100
AcDbEntity
  8
0
  6
HIDDEN
 62
     5
100
AcDbLine
 10
15.1245
 20
4.4375
 30
0.0
 11
14.6245
 21
4.4375
 31
0.0
  0
LINE
  5
12B
330
1E
100
AcDbEntity
  8
0
  6
CONTINUOUS
 62
     5
100
AcDbLine
 10
14.6245
 20
4.46875
 30
0.0
 11
15.09325
 21
4.46875
 31
0.0
  0
LINE
  5
12C
330
1E
100
AcDbEntity
  8
0
  6
CONTINUOUS
 62
     5
100
AcDbLine
 10
13.93799999999999
 20
4.397499999999999
 30
0.0
 11
13.93799999999999
 21
4.58875
 31
0.0
  0
LINE
  5
12D
330
1E
100
AcDbEntity
  8
0
  6
CONTINUOUS
 62
     5
100
AcDbLine
 10
13.9805
 20
4.3125
 30
0.0
 11
13.8955
 21
4.3125
 31
0.0
  0
LINE
  5
12E
330
1E
100
AcDbEntity
  8
0
  6
CONTINUOUS
 62
     5
100
AcDbLine
 10
14.224875
 20
4.3125
 30
0.0
 11
14.033625
 21
4.3125
 31
0.0
  0
LINE
  5
12F
330
1E
100
AcDbEntity
  8
0
  6
CONTINUOUS
 62
     5
100
AcDbLine
 10
14.1895
 20
4.456337999999998
 30
0.0
 11
13.9395
 21
4.600674999999998
 31
0.0
  0
LINE
  5
130
330
1E
100
AcDbEntity
  8
0
  6
CONTINUOUS
 62
     5
100
AcDbLine
 10
13.93799999999999
 20
4.280624999999998
 30
0.0
 11
13.93799999999999
 21
4.344375
 31
0.0
  0
LINE
  5
131
330
1E
100
AcDbEntity
  8
0
  6
CONTINUOUS
 62
     5
100
AcDbLine
 10
13.842375
 20
4.3125
 30
0.0
 11
13.672375
 21
4.3125
 31
0.0
  0
LINE
  5
132
330
1E
100
AcDbEntity
  8
0
  6
CONTINUOUS
 62
     5
100
AcDbLine
 10
13.93799999999999
 20
4.036249999999999
 30
0.0
 11
13.93799999999999
 21
4.2275
 31
0.0
  0
LINE
  5
133
330
1E
100
AcDbEntity
  8
0
  6
CONTINUOUS
 62
     5
100
AcDbLine
 10
14.24949999999999
 20
4.0625
 30
0.0
 11
14.24949999999999
 21
4.5625
 31
0.0
  0
CIRCLE
  5
134
330
1E
100
AcDbEntity
  8
0
  6
CONTINUOUS
 62
     5
100
AcDbCircle
 10
13.93699999999999
 20
4.3125
 30
0.0
 40
0.249501
  0
LWPOLYLINE
  5
135
330
1E
100
AcDbEntity
  8
0
  6
CONTINUOUS
 62
     5
100
AcDbPolyline
 90
        6
 70
     0
 43
0.0
 10
14.1875
 20
4.456337999999998
 10
14.1875
 20
4.167661999999999
 10
13.9375
 20
4.023324999999998
 10
13.6875
 20
4.167661999999999
 10
13.6875
 20
4.456337999999998
 10
13.9375
 20
4.600674999999998
  0
LINE
  5
13D
330
1E
100
AcDbEntity
  8
0
  6
CONTINUOUS
 62
     5
100
AcDbLine
 10
14.28074999999999
 20
4.601174999999998
 30
0.0
 11
14.24949999999999
 21
4.5625
 31
0.0
  0
ARC
  5
13E
330
1E
100
AcDbEntity
  8
0
  6
CONTINUOUS
 62
     5
100
AcDbCircle
 10
14.34845799999999
 20
4.529005999999998
 30
0.0
 40
0.098958
100
AcDbArc
 50
133.173551
 51
226.826446
  0
ARC
  5
13F
330
1E
100
AcDbEntity
  8
0
  6
CONTINUOUS
 62
     5
100
AcDbCircle
 10
14.598458
 20
4.3125
 30
0.0
 40
0.348958
100
AcDbArc
 50
155.567302
 51
204.4326949999999
  0
LINE
  5
140
330
1E
100
AcDbEntity
  8
0
  6
CONTINUOUS
 62
     5
100
AcDbLine
 10
14.4995
 20
4.456837999999998
 30
0.0
 11
14.28074999999999
 21
4.456837999999998
 31
0.0
  0
LINE
  5
141
330
1E
100
AcDbEntity
  8
0
  6
CONTINUOUS
 62
     5
100
AcDbLine
 10
14.28074999999999
 20
4.601174999999998
 30
0.0
 11
14.4995
 21
4.601174999999998
 31
0.0
  0
LINE
  5
142
330
1E
100
AcDbEntity
  8
0
  6
CONTINUOUS
 62
     5
100
AcDbLine
 10
14.28074999999999
 20
4.168162
 30
0.0
 11
14.4995
 21
4.168162
 31
0.0
  0
LINE
  5
143
330
1E
100
AcDbEntity
  8
0
  6
CONTINUOUS
 62
     5
100
AcDbLine
 10
14.4995
 20
4.023825
 30
0.0
 11
14.28074999999999
 21
4.023825
 31
0.0
  0
LINE
  5
144
330
1E
100
AcDbEntity
  8
0
  6
CONTINUOUS
 62
     5
100
AcDbLine
 10
14.28074999999999
 20
4.023825
 30
0.0
 11
14.24949999999999
 21
4.0625
 31
0.0
  0
ARC
  5
145
330
1E
100
AcDbEntity
  8
0
  6
CONTINUOUS
 62
     5
100
AcDbCircle
 10
14.34845799999999
 20
4.095994
 30
0.0
 40
0.098958
100
AcDbArc
 50
133.173551
 51
226.826446
  0
LINE
  5
146
330
1E
100
AcDbEntity
  8
0
  6
CONTINUOUS
 62
     5
100
AcDbLine
 10
14.12449999999999
 20
4.3125
 30
0.0
 11
15.28075
 21
4.3125
 31
0.0
  0
LINE
  5
147
330
1E
100
AcDbEntity
  8
0
  6
CONTINUOUS
 62
     5
100
AcDbLine
 10
14.6255
 20
4.0
 30
0.0
 11
13.6255
 21
4.0
 31
0.0
  0
TEXT
  5
148
330
1E
100
AcDbEntity
  8
0
 62
     5
100
AcDbText
 10
12.077566
 20
4.183146999999999
 30
0.0
 40
0.188
  1
P
 50
90.0
 41
0.9
 72
     5
 11
12.077566
 21
4.295946999999999
 31
0.0
100
AcDbText
  0
LINE
  5
149
330
1E
100
AcDbEntity
  8
0
  6
CONTINUOUS
 62
     5
100
AcDbLine
 10
11.925
 20
4.796999999999998
 30
0.0
 11
13.57499999999999
 21
4.796999999999998
 31
0.0
  0
LINE
  5
14A
330
1E
100
AcDbEntity
  8
0
  6
CONTINUOUS
 62
     5
100
AcDbLine
 10
9.936999999999999
 20
4.397499999999999
 30
0.0
 11
9.936999999999999
 21
4.58875
 31
0.0
  0
LINE
  5
14B
330
1E
100
AcDbEntity
  8
0
  6
CONTINUOUS
 62
     5
100
AcDbLine
 10
9.8945
 20
4.3125
 30
0.0
 11
9.979499999999999
 21
4.3125
 31
0.0
  0
LINE
  5
14C
330
1E
100
AcDbEntity
  8
0
  6
CONTINUOUS
 62
     5
100
AcDbLine
 10
9.936999999999999
 20
4.280624999999998
 30
0.0
 11
9.936999999999999
 21
4.344375
 31
0.0
  0
ARC
  5
14D
330
1E
100
AcDbEntity
  8
0
  6
CONTINUOUS
 62
     5
100
AcDbCircle
 10
9.526541999999999
 20
4.529005999999998
 30
0.0
 40
0.098958
100
AcDbArc
 50
313.173554
 51
46.82644899999999
  0
LINE
  5
14E
330
1E
100
AcDbEntity
  8
0
  6
CONTINUOUS
 62
     5
100
AcDbLine
 10
9.59425
 20
4.601174999999998
 30
0.0
 11
9.6255
 21
4.5625
 31
0.0
  0
ARC
  5
14F
330
1E
100
AcDbEntity
  8
0
  6
CONTINUOUS
 62
     5
100
AcDbCircle
 10
9.276541999999999
 20
4.3125
 30
0.0
 40
0.348958
100
AcDbArc
 50
335.567305
 51
24.432698
  0
LINE
  5
150
330
1E
100
AcDbEntity
  8
0
  6
CONTINUOUS
 62
     5
100
AcDbLine
 10
9.650124999999999
 20
4.3125
 30
0.0
 11
9.841374999999999
 21
4.3125
 31
0.0
  0
LINE
  5
151
330
1E
100
AcDbEntity
  8
0
  6
CONTINUOUS
 62
     5
100
AcDbLine
 10
9.6835
 20
4.456337999999998
 30
0.0
 11
9.9335
 21
4.600674999999998
 31
0.0
  0
LINE
  5
152
330
1E
100
AcDbEntity
  8
0
  6
CONTINUOUS
 62
     5
100
AcDbLine
 10
9.936999999999999
 20
4.036249999999999
 30
0.0
 11
9.936999999999999
 21
4.2275
 31
0.0
  0
LINE
  5
153
330
1E
100
AcDbEntity
  8
0
  6
CONTINUOUS
 62
     5
100
AcDbLine
 10
9.59425
 20
4.023825
 30
0.0
 11
9.6255
 21
4.0625
 31
0.0
  0
ARC
  5
154
330
1E
100
AcDbEntity
  8
0
  6
CONTINUOUS
 62
     5
100
AcDbCircle
 10
9.526541999999999
 20
4.095994
 30
0.0
 40
0.098958
100
AcDbArc
 50
313.173554
 51
46.82644899999999
  0
LINE
  5
155
330
1E
100
AcDbEntity
  8
0
  6
CONTINUOUS
 62
     5
100
AcDbLine
 10
9.6255
 20
4.0625
 30
0.0
 11
9.6255
 21
4.5625
 31
0.0
  0
LINE
  5
156
330
1E
100
AcDbEntity
  8
0
  6
CONTINUOUS
 62
     5
100
AcDbLine
 10
10.03262499999999
 20
4.3125
 30
0.0
 11
10.202625
 21
4.3125
 31
0.0
  0
CIRCLE
  5
157
330
1E
100
AcDbEntity
  8
0
  6
CONTINUOUS
 62
     5
100
AcDbCircle
 10
9.937999999999998
 20
4.3125
 30
0.0
 40
0.249501
  0
LWPOLYLINE
  5
158
330
1E
100
AcDbEntity
  8
0
  6
CONTINUOUS
 62
     5
100
AcDbPolyline
 90
        6
 70
     0
 43
0.0
 10
9.6875
 20
4.456337999999998
 10
9.6875
 20
4.167661999999999
 10
9.9375
 20
4.023324999999998
 10
10.1875
 20
4.167661999999999
 10
10.1875
 20
4.456337999999998
 10
9.9375
 20
4.600674999999998
  0
LINE
  5
160
330
1E
100
AcDbEntity
  8
0
  6
CONTINUOUS
 62
     5
100
AcDbLine
 10
8.712999999999999
 20
4.812
 30
0.0
 11
8.941
 21
4.812
 31
0.0
  0
LINE
  5
161
330
1E
100
AcDbEntity
  8
0
  6
CONTINUOUS
 62
     5
100
AcDbLine
 10
7.432
 20
4.812
 30
0.0
 11
7.66
 21
4.812
 31
0.0
  0
TEXT
  5
162
330
1E
100
AcDbEntity
  8
0
 62
     5
100
AcDbText
 10
8.889276999999998
 20
2.741878999999998
 30
0.0
 40
0.188
  1
B
 41
0.9
 72
     5
 11
9.002076999999998
 21
2.741878999999998
 31
0.0
100
AcDbText
  0
LINE
  5
163
330
1E
100
AcDbEntity
  8
0
  6
CONTINUOUS
 62
     5
100
AcDbLine
 10
7.536999999999999
 20
2.375
 30
0.0
 11
8.962999999999997
 21
2.375
 31
0.0
  0
TEXT
  5
164
330
1E
100
AcDbEntity
  8
0
 62
     5
100
AcDbText
 10
7.679883
 20
1.465720999999999
 30
0.0
 40
0.188
  1
DAMAN ****
 41
0.8534482758620693
 72
     5
 11
9.230883
 21
1.465720999999999
 31
0.0
100
AcDbText
  0
CIRCLE
  5
165
330
1E
100
AcDbEntity
  8
0
  6
CONTINUOUS
 62
     5
100
AcDbCircle
 10
8.25
 20
2.375
 30
0.0
 40
0.4050000000000001
  0
CIRCLE
  5
166
330
1E
100
AcDbEntity
  8
0
  6
CONTINUOUS
 62
     5
100
AcDbCircle
 10
8.25
 20
2.375
 30
0.0
 40
0.375
  0
CIRCLE
  5
167
330
1E
100
AcDbEntity
  8
0
  6
CONTINUOUS
 62
     5
100
AcDbCircle
 10
8.25
 20
2.375
 30
0.0
 40
0.3439999999999999
  0
ARC
  5
168
330
1E
100
AcDbEntity
  8
0
  6
CONTINUOUS
 62
     5
100
AcDbCircle
 10
8.25
 20
2.375
 30
0.0
 40
0.329
100
AcDbArc
 50
85.00000099999999
 51
5.0
  0
CIRCLE
  5
169
330
1E
100
AcDbEntity
  8
0
  6
CONTINUOUS
 62
     5
100
AcDbCircle
 10
8.25
 20
2.375
 30
0.0
 40
0.281
  0
CIRCLE
  5
16A
330
1E
100
AcDbEntity
  8
0
  6
CONTINUOUS
 62
     5
100
AcDbCircle
 10
8.25
 20
2.375
 30
0.0
 40
0.5905000000000002
  0
LINE
  5
16B
330
1E
100
AcDbEntity
  8
0
  6
CONTINUOUS
 62
     5
100
AcDbLine
 10
8.25
 20
1.661999999999999
 30
0.0
 11
8.25
 21
3.086999999999999
 31
0.0
  0
LINE
  5
16C
330
1E
100
AcDbEntity
  8
0
  6
CONTINUOUS
 62
     5
100
AcDbLine
 10
9.3755
 20
4.456837999999998
 30
0.0
 11
9.59425
 21
4.456837999999998
 31
0.0
  0
LINE
  5
16D
330
1E
100
AcDbEntity
  8
0
  6
CONTINUOUS
 62
     5
100
AcDbLine
 10
9.59425
 20
4.601174999999998
 30
0.0
 11
9.3755
 21
4.601174999999998
 31
0.0
  0
LINE
  5
16E
330
1E
100
AcDbEntity
  8
0
  6
CONTINUOUS
 62
     5
100
AcDbLine
 10
9.59425
 20
4.168162
 30
0.0
 11
9.3755
 21
4.168162
 31
0.0
  0
LINE
  5
16F
330
1E
100
AcDbEntity
  8
0
  6
CONTINUOUS
 62
     5
100
AcDbLine
 10
9.7505
 20
4.3125
 30
0.0
 11
9.180419
 21
4.3125
 31
0.0
  0
LINE
  5
170
330
1E
100
AcDbEntity
  8
0
  6
CONTINUOUS
 62
     5
100
AcDbLine
 10
9.3755
 20
4.023825
 30
0.0
 11
9.59425
 21
4.023825
 31
0.0
  0
LINE
  5
171
330
1E
100
AcDbEntity
  8
0
  6
CONTINUOUS
 62
     5
100
AcDbLine
 10
9.249499999999999
 20
4.0
 30
0.0
 11
10.2495
 21
4.0
 31
0.0
  0
TEXT
  5
172
330
1E
100
AcDbEntity
  8
0
 62
     5
100
AcDbText
 10
8.889276999999998
 20
0.9606899999999999
 30
0.0
 40
0.188
  1
A
 41
0.9
 72
     5
 11
9.002076999999998
 21
0.9606899999999999
 31
0.0
100
AcDbText
  0
LINE
  5
173
330
1E
100
AcDbEntity
  8
0
  6
CONTINUOUS
 62
     5
100
AcDbLine
 10
7.474
 20
0.625
 30
0.0
 11
8.9
 21
0.625
 31
0.0
  0
ARC
  5
174
330
1E
100
AcDbEntity
  8
0
  6
CONTINUOUS
 62
     5
100
AcDbCircle
 10
8.186999999999999
 20
0.625
 30
0.0
 40
0.329
100
AcDbArc
 50
85.00000099999999
 51
5.0
  0
CIRCLE
  5
175
330
1E
100
AcDbEntity
  8
0
  6
CONTINUOUS
 62
     5
100
AcDbCircle
 10
8.186999999999999
 20
0.625
 30
0.0
 40
0.281
  0
CIRCLE
  5
176
330
1E
100
AcDbEntity
  8
0
  6
CONTINUOUS
 62
     5
100
AcDbCircle
 10
8.186999999999999
 20
0.625
 30
0.0
 40
0.3439999999999999
  0
CIRCLE
  5
177
330
1E
100
AcDbEntity
  8
0
  6
CONTINUOUS
 62
     5
100
AcDbCircle
 10
8.186999999999999
 20
0.625
 30
0.0
 40
0.4050000000000001
  0
CIRCLE
  5
178
330
1E
100
AcDbEntity
  8
0
  6
CONTINUOUS
 62
     5
100
AcDbCircle
 10
8.186999999999999
 20
0.625
 30
0.0
 40
0.375
  0
CIRCLE
  5
179
330
1E
100
AcDbEntity
  8
0
  6
CONTINUOUS
 62
     5
100
AcDbCircle
 10
8.186999999999999
 20
0.625
 30
0.0
 40
0.5905000000000002
  0
LINE
  5
17A
330
1E
100
AcDbEntity
  8
0
  6
CONTINUOUS
 62
     5
100
AcDbLine
 10
10.25
 20
-0.375
 30
0.0
 11
9.5
 21
-0.375
 31
0.0
  0
LINE
  5
17B
330
1E
100
AcDbEntity
  8
0
  6
CONTINUOUS
 62
     5
100
AcDbLine
 10
9.5
 20
-0.25
 30
0.0
 11
10.25
 21
-0.25
 31
0.0
  0
LINE
  5
17C
330
1E
100
AcDbEntity
  8
0
  6
CONTINUOUS
 62
     5
100
AcDbLine
 10
10.09375
 20
-0.84375
 30
0.0
 11
9.78125
 21
-0.84375
 31
0.0
  0
LINE
  5
17D
330
1E
100
AcDbEntity
  8
0
  6
CONTINUOUS
 62
     5
100
AcDbLine
 10
10.0625
 20
-0.875
 30
0.0
 11
9.8125
 21
-0.875
 31
0.0
  0
LINE
  5
17E
330
1E
100
AcDbEntity
  8
0
  6
CONTINUOUS
 62
     5
100
AcDbLine
 10
9.6875
 20
0.0
 30
0.0
 11
10.1875
 21
0.0
 31
0.0
  0
ARC
  5
17F
330
1E
100
AcDbEntity
  8
0
  6
CONTINUOUS
 62
     5
100
AcDbCircle
 10
9.9375
 20
-0.348958
 30
0.0
 40
0.348958
100
AcDbArc
 50
65.567301
 51
114.4326969999999
  0
LINE
  5
180
330
1E
100
AcDbEntity
  8
0
  6
CONTINUOUS
 62
     5
100
AcDbLine
 10
9.9375
 20
0.125
 30
0.0
 11
9.9375
 21
-1.03125
 31
0.0
  0
LINE
  5
181
330
1E
100
AcDbEntity
  8
0
  6
HIDDEN
 62
     5
100
AcDbLine
 10
10.0625
 20
-0.875
 30
0.0
 11
10.0625
 21
-0.375
 31
0.0
  0
LINE
  5
182
330
1E
100
AcDbEntity
  8
0
  6
CONTINUOUS
 62
     5
100
AcDbLine
 10
10.09375
 20
-0.375
 30
0.0
 11
10.09375
 21
-0.84375
 31
0.0
  0
LINE
  5
183
330
1E
100
AcDbEntity
  8
0
  6
CONTINUOUS
 62
     5
100
AcDbLine
 10
10.09375
 20
-0.84375
 30
0.0
 11
10.0625
 21
-0.875
 31
0.0
  0
LINE
  5
184
330
1E
100
AcDbEntity
  8
0
  6
CONTINUOUS
 62
     5
100
AcDbLine
 10
10.25
 20
-0.25
 30
0.0
 11
10.25
 21
-0.375
 31
0.0
  0
ARC
  5
185
330
1E
100
AcDbEntity
  8
0
  6
CONTINUOUS
 62
     5
100
AcDbCircle
 10
10.15400599999999
 20
-0.098958
 30
0.0
 40
0.098958
100
AcDbArc
 50
43.17355
 51
136.826449
  0
LINE
  5
186
330
1E
100
AcDbEntity
  8
0
  6
CONTINUOUS
 62
     5
100
AcDbLine
 10
10.22617499999999
 20
-0.03125
 30
0.0
 11
10.22617499999999
 21
-0.25
 31
0.0
  0
LINE
  5
187
330
1E
100
AcDbEntity
  8
0
  6
CONTINUOUS
 62
     5
100
AcDbLine
 10
10.22617499999999
 20
-0.03125
 30
0.0
 11
10.1875
 21
0.0
 31
0.0
  0
LINE
  5
188
330
1E
100
AcDbEntity
  8
0
  6
CONTINUOUS
 62
     5
100
AcDbLine
 10
10.081838
 20
-0.25
 30
0.0
 11
10.081838
 21
-0.03125
 31
0.0
  0
LINE
  5
189
330
1E
100
AcDbEntity
  8
0
  6
CONTINUOUS
 62
     5
100
AcDbLine
 10
9.25
 20
-0.125
 30
0.0
 11
9.25
 21
0.625
 31
0.0
  0
LINE
  5
18A
330
1E
100
AcDbEntity
  8
0
  6
CONTINUOUS
 62
     5
100
AcDbLine
 10
9.375
 20
0.625
 30
0.0
 11
9.375
 21
-0.125
 31
0.0
  0
LINE
  5
18B
330
1E
100
AcDbEntity
  8
0
  6
HIDDEN
 62
     5
100
AcDbLine
 10
9.8125
 20
-0.375
 30
0.0
 11
9.8125
 21
-0.875
 31
0.0
  0
LINE
  5
18C
330
1E
100
AcDbEntity
  8
0
  6
CONTINUOUS
 62
     5
100
AcDbLine
 10
9.78125
 20
-0.84375
 30
0.0
 11
9.78125
 21
-0.375
 31
0.0
  0
LINE
  5
18D
330
1E
100
AcDbEntity
  8
0
  6
CONTINUOUS
 62
     5
100
AcDbLine
 10
9.8125
 20
-0.875
 30
0.0
 11
9.78125
 21
-0.84375
 31
0.0
  0
ARC
  5
18E
330
1E
100
AcDbEntity
  8
0
  6
CONTINUOUS
 62
     5
100
AcDbCircle
 10
9.5
 20
-0.125
 30
0.0
 40
0.25
100
AcDbArc
 50
180.0
 51
269.999998
  0
ARC
  5
18F
330
1E
100
AcDbEntity
  8
0
  6
CONTINUOUS
 62
     5
100
AcDbCircle
 10
9.5
 20
-0.125
 30
0.0
 40
0.125
100
AcDbArc
 50
180.0
 51
269.999998
  0
LINE
  5
190
330
1E
100
AcDbEntity
  8
0
  6
CONTINUOUS
 62
     5
100
AcDbLine
 10
9.793161999999997
 20
-0.03125
 30
0.0
 11
9.793161999999997
 21
-0.25
 31
0.0
  0
LINE
  5
191
330
1E
100
AcDbEntity
  8
0
  6
CONTINUOUS
 62
     5
100
AcDbLine
 10
9.648825
 20
-0.25
 30
0.0
 11
9.648825
 21
-0.03125
 31
0.0
  0
ARC
  5
192
330
1E
100
AcDbEntity
  8
0
  6
CONTINUOUS
 62
     5
100
AcDbCircle
 10
9.720993999999999
 20
-0.098958
 30
0.0
 40
0.098958
100
AcDbArc
 50
43.17355
 51
136.826449
  0
LINE
  5
193
330
1E
100
AcDbEntity
  8
0
  6
CONTINUOUS
 62
     5
100
AcDbLine
 10
9.648825
 20
-0.03125
 30
0.0
 11
9.6875
 21
0.0
 31
0.0
  0
LINE
  5
194
330
1E
100
AcDbEntity
  8
0
  6
CONTINUOUS
 62
     5
100
AcDbLine
 10
9.375
 20
0.168162
 30
0.0
 11
9.59375
 21
0.168162
 31
0.0
  0
LINE
  5
195
330
1E
100
AcDbEntity
  8
0
  6
CONTINUOUS
 62
     5
100
AcDbLine
 10
9.59375
 20
0.023825
 30
0.0
 11
9.375
 21
0.023825
 31
0.0
  0
LINE
  5
196
330
1E
100
AcDbEntity
  8
0
  6
CONTINUOUS
 62
     5
100
AcDbLine
 10
9.59375
 20
0.4568380000000002
 30
0.0
 11
9.375
 21
0.4568380000000002
 31
0.0
  0
LINE
  5
197
330
1E
100
AcDbEntity
  8
0
  6
CONTINUOUS
 62
     5
100
AcDbLine
 10
9.375
 20
0.6011750000000001
 30
0.0
 11
9.59375
 21
0.6011750000000001
 31
0.0
  0
ARC
  5
198
330
1E
100
AcDbEntity
  8
0
  6
CONTINUOUS
 62
     5
100
AcDbCircle
 10
9.276042
 20
0.3125
 30
0.0
 40
0.348958
100
AcDbArc
 50
335.5672999999999
 51
24.432697
  0
LINE
  5
199
330
1E
100
AcDbEntity
  8
0
  6
CONTINUOUS
 62
     5
100
AcDbLine
 10
9.625
 20
0.5625
 30
0.0
 11
9.625
 21
0.0625
 31
0.0
  0
LINE
  5
19A
330
1E
100
AcDbEntity
  8
0
  6
CONTINUOUS
 62
     5
100
AcDbLine
 10
9.59375
 20
0.023825
 30
0.0
 11
9.625
 21
0.0625
 31
0.0
  0
ARC
  5
19B
330
1E
100
AcDbEntity
  8
0
  6
CONTINUOUS
 62
     5
100
AcDbCircle
 10
9.526042
 20
0.095994
 30
0.0
 40
0.098958
100
AcDbArc
 50
313.173549
 51
46.826448
  0
LINE
  5
19C
330
1E
100
AcDbEntity
  8
0
  6
CONTINUOUS
 62
     5
100
AcDbLine
 10
9.59375
 20
0.6011750000000001
 30
0.0
 11
9.625
 21
0.5625
 31
0.0
  0
ARC
  5
19D
330
1E
100
AcDbEntity
  8
0
  6
CONTINUOUS
 62
     5
100
AcDbCircle
 10
9.526042
 20
0.5290060000000001
 30
0.0
 40
0.098958
100
AcDbArc
 50
313.173549
 51
46.826448
  0
LINE
  5
19E
330
1E
100
AcDbEntity
  8
0
  6
CONTINUOUS
 62
     5
100
AcDbLine
 10
9.25
 20
0.625
 30
0.0
 11
9.375
 21
0.625
 31
0.0
  0
LINE
  5
19F
330
1E
100
AcDbEntity
  8
0
  6
CONTINUOUS
 62
     5
100
AcDbLine
 10
9.75
 20
0.3125
 30
0.0
 11
8.875
 21
0.3125
 31
0.0
  0
LINE
  5
1A0
330
1E
100
AcDbEntity
  8
0
  6
CONTINUOUS
 62
     5
100
AcDbLine
 10
8.186999999999999
 20
-0.088
 30
0.0
 11
8.186999999999999
 21
1.336999999999998
 31
0.0
  0
LINE
  5
1A1
330
1E
100
AcDbEntity
  8
0
  6
CONTINUOUS
 62
     5
100
AcDbLine
 10
9.25
 20
3.0
 30
0.0
 11
9.25
 21
0.0
 31
0.0
  0
LINE
  5
1A2
330
1E
100
AcDbEntity
  8
0
  6
CONTINUOUS
 62
     5
100
AcDbLine
 10
11.25
 20
4.0
 30
0.0
 11
14.25
 21
4.0
 31
0.0
  0
CIRCLE
  5
1A3
330
1E
100
AcDbEntity
  8
0
  6
CONTINUOUS
 62
     5
100
AcDbCircle
 10
12.75
 20
4.796999999999998
 30
0.0
 40
0.471
  0
CIRCLE
  5
1A4
330
1E
100
AcDbEntity
  8
0
  6
CONTINUOUS
 62
     5
100
AcDbCircle
 10
12.75
 20
4.796999999999998
 30
0.0
 40
0.4379999999999999
  0
CIRCLE
  5
1A5
330
1E
100
AcDbEntity
  8
0
  6
CONTINUOUS
 62
     5
100
AcDbCircle
 10
12.75
 20
4.796999999999998
 30
0.0
 40
0.4060000000000001
  0
CIRCLE
  5
1A6
330
1E
100
AcDbEntity
  8
0
  6
CONTINUOUS
 62
     5
100
AcDbCircle
 10
12.75
 20
4.796999999999998
 30
0.0
 40
0.308
  0
ARC
  5
1A7
330
1E
100
AcDbEntity
  8
4
  6
CONTINUOUS
 62
     5
100
AcDbCircle
 10
12.75
 20
4.796999999999998
 30
0.0
 40
0.361
100
AcDbArc
 50
85.00000099999999
 51
5.0
  0
CIRCLE
  5
1A8
330
1E
100
AcDbEntity
  8
0
  6
CONTINUOUS
 62
     5
100
AcDbCircle
 10
12.75
 20
4.796999999999998
 30
0.0
 40
0.6690000000000002
  0
CIRCLE
  5
1A9
330
1E
100
AcDbEntity
  8
0
  6
CONTINUOUS
 62
     5
100
AcDbCircle
 10
8.826999999999998
 20
4.812
 30
0.0
 40
0.075
  0
ARC
  5
1AA
330
1E
100
AcDbEntity
  8
4
  6
CONTINUOUS
 62
     5
100
AcDbCircle
 10
8.826999999999998
 20
4.812
 30
0.0
 40
0.087
100
AcDbArc
 50
85.00000099999999
 51
5.0
  0
CIRCLE
  5
1AB
330
1E
100
AcDbEntity
  8
0
  6
CONTINUOUS
 62
     5
100
AcDbCircle
 10
8.826999999999998
 20
4.812
 30
0.0
 40
0.095
  0
LINE
  5
1AC
330
1E
100
AcDbEntity
  8
0
  6
CONTINUOUS
 62
     5
100
AcDbLine
 10
8.826999999999998
 20
4.698
 30
0.0
 11
8.826999999999998
 21
4.926
 31
0.0
  0
CIRCLE
  5
1AD
330
1E
100
AcDbEntity
  8
0
  6
CONTINUOUS
 62
     5
100
AcDbCircle
 10
7.546
 20
4.812
 30
0.0
 40
0.095
  0
CIRCLE
  5
1AE
330
1E
100
AcDbEntity
  8
0
  6
CONTINUOUS
 62
     5
100
AcDbCircle
 10
7.546
 20
4.812
 30
0.0
 40
0.075
  0
ARC
  5
1AF
330
1E
100
AcDbEntity
  8
4
  6
CONTINUOUS
 62
     5
100
AcDbCircle
 10
7.546
 20
4.812
 30
0.0
 40
0.087
100
AcDbArc
 50
85.00000099999999
 51
5.0
  0
LINE
  5
1B0
330
1E
100
AcDbEntity
  8
0
  6
CONTINUOUS
 62
     5
100
AcDbLine
 10
7.546
 20
4.698
 30
0.0
 11
7.546
 21
4.926
 31
0.0
  0
LINE
  5
1B1
330
1E
100
AcDbEntity
  8
0
  6
CONTINUOUS
 62
     5
100
AcDbLine
 10
14.50549999999999
 20
7.0
 30
0.0
 11
14.50549999999999
 21
4.0
 31
0.0
  0
LINE
  5
1B2
330
1E
100
AcDbEntity
  8
0
  6
CONTINUOUS
 62
     5
100
AcDbLine
 10
13.6255
 20
4.0
 30
0.0
 11
13.6255
 21
7.0
 31
0.0
  0
LINE
  5
1B3
330
1E
100
AcDbEntity
  8
0
  6
HIDDEN
 62
     5
100
AcDbLine
 10
14.25
 20
4.0
 30
0.0
 11
14.25
 21
7.0
 31
0.0
  0
LINE
  5
1B4
330
1E
100
AcDbEntity
  8
0
  6
CONTINUOUS
 62
     5
100
AcDbLine
 10
14.6255
 20
7.0
 30
0.0
 11
14.6255
 21
4.0
 31
0.0
  0
LINE
  5
1B5
330
1E
100
AcDbEntity
  8
0
  6
CONTINUOUS
 62
     5
100
AcDbLine
 10
12.75
 20
3.971999999999998
 30
0.0
 11
12.75
 21
5.621999999999998
 31
0.0
  0
LINE
  5
1B6
330
1E
100
AcDbEntity
  8
0
  6
CONTINUOUS
 62
     5
100
AcDbLine
 10
11.25
 20
7.0
 30
0.0
 11
11.25
 21
4.0
 31
0.0
  0
LINE
  5
1B7
330
1E
100
AcDbEntity
  8
0
  6
CONTINUOUS
 62
     5
100
AcDbLine
 10
10.2495
 20
4.0
 30
0.0
 11
10.2495
 21
7.0
 31
0.0
  0
LINE
  5
1B8
330
1E
100
AcDbEntity
  8
0
  6
CONTINUOUS
 62
     5
100
AcDbLine
 10
9.3695
 20
7.0
 30
0.0
 11
9.3695
 21
4.0
 31
0.0
  0
LINE
  5
1B9
330
1E
100
AcDbEntity
  8
0
  6
CONTINUOUS
 62
     5
100
AcDbLine
 10
9.25
 20
4.0
 30
0.0
 11
9.25
 21
7.0
 31
0.0
  0
LINE
  5
1BA
330
1E
100
AcDbEntity
  8
0
  6
CONTINUOUS
 62
     5
100
AcDbLine
 10
7.125
 20
9.4205
 30
0.0
 11
7.125
 21
10.45449999999999
 31
0.0
  0
LINE
  5
1BB
330
1E
100
AcDbEntity
  8
0
  6
CONTINUOUS
 62
     5
100
AcDbLine
 10
4.0
 20
11.3745
 30
0.0
 11
4.75
 21
11.3745
 31
0.0
  0
LINE
  5
1BC
330
1E
100
AcDbEntity
  8
0
  6
CONTINUOUS
 62
     5
100
AcDbLine
 10
4.75
 20
11.24949999999999
 30
0.0
 11
4.0
 21
11.24949999999999
 31
0.0
  0
LINE
  5
1BD
330
1E
100
AcDbEntity
  8
0
  6
CONTINUOUS
 62
     5
100
AcDbLine
 10
4.15625
 20
11.84325
 30
0.0
 11
4.46875
 21
11.84325
 31
0.0
  0
LINE
  5
1BE
330
1E
100
AcDbEntity
  8
0
  6
CONTINUOUS
 62
     5
100
AcDbLine
 10
4.1875
 20
11.87449999999999
 30
0.0
 11
4.4375
 21
11.87449999999999
 31
0.0
  0
LINE
  5
1BF
330
1E
100
AcDbEntity
  8
0
  6
CONTINUOUS
 62
     5
100
AcDbLine
 10
4.5625
 20
10.99949999999999
 30
0.0
 11
4.0625
 21
10.99949999999999
 31
0.0
  0
ARC
  5
1C0
330
1E
100
AcDbEntity
  8
0
  6
CONTINUOUS
 62
     5
100
AcDbCircle
 10
4.3125
 20
11.348458
 30
0.0
 40
0.348958
100
AcDbArc
 50
245.5673029999999
 51
294.432699
  0
LINE
  5
1C1
330
1E
100
AcDbEntity
  8
0
  6
CONTINUOUS
 62
     5
100
AcDbLine
 10
4.3125
 20
10.8745
 30
0.0
 11
4.3125
 21
12.03075
 31
0.0
  0
LINE
  5
1C2
330
1E
100
AcDbEntity
  8
0
  6
HIDDEN
 62
     5
100
AcDbLine
 10
4.1875
 20
11.87449999999999
 30
0.0
 11
4.1875
 21
11.3745
 31
0.0
  0
LINE
  5
1C3
330
1E
100
AcDbEntity
  8
0
  6
CONTINUOUS
 62
     5
100
AcDbLine
 10
4.15625
 20
11.3745
 30
0.0
 11
4.15625
 21
11.84325
 31
0.0
  0
LINE
  5
1C4
330
1E
100
AcDbEntity
  8
0
  6
CONTINUOUS
 62
     5
100
AcDbLine
 10
4.15625
 20
11.84325
 30
0.0
 11
4.1875
 21
11.87449999999999
 31
0.0
  0
LINE
  5
1C5
330
1E
100
AcDbEntity
  8
0
  6
CONTINUOUS
 62
     5
100
AcDbLine
 10
4.0
 20
11.24949999999999
 30
0.0
 11
4.0
 21
11.3745
 31
0.0
  0
ARC
  5
1C6
330
1E
100
AcDbEntity
  8
0
  6
CONTINUOUS
 62
     5
100
AcDbCircle
 10
4.095994
 20
11.098458
 30
0.0
 40
0.098958
100
AcDbArc
 50
223.1735509999999
 51
316.82645
  0
LINE
  5
1C7
330
1E
100
AcDbEntity
  8
0
  6
CONTINUOUS
 62
     5
100
AcDbLine
 10
4.023825
 20
11.03075
 30
0.0
 11
4.023825
 21
11.24949999999999
 31
0.0
  0
LINE
  5
1C8
330
1E
100
AcDbEntity
  8
0
  6
CONTINUOUS
 62
     5
100
AcDbLine
 10
4.023825
 20
11.03075
 30
0.0
 11
4.0625
 21
10.99949999999999
 31
0.0
  0
LINE
  5
1C9
330
1E
100
AcDbEntity
  8
0
  6
CONTINUOUS
 62
     5
100
AcDbLine
 10
4.168162
 20
11.24949999999999
 30
0.0
 11
4.168162
 21
11.03075
 31
0.0
  0
LINE
  5
1CA
330
1E
100
AcDbEntity
  8
0
  6
CONTINUOUS
 62
     5
100
AcDbLine
 10
5.0
 20
11.12449999999999
 30
0.0
 11
5.0
 21
10.37449999999999
 31
0.0
  0
LINE
  5
1CB
330
1E
100
AcDbEntity
  8
0
  6
CONTINUOUS
 62
     5
100
AcDbLine
 10
4.875
 20
10.37449999999999
 30
0.0
 11
4.875
 21
11.12449999999999
 31
0.0
  0
LINE
  5
1CC
330
1E
100
AcDbEntity
  8
0
  6
HIDDEN
 62
     5
100
AcDbLine
 10
4.4375
 20
11.3745
 30
0.0
 11
4.4375
 21
11.87449999999999
 31
0.0
  0
LINE
  5
1CD
330
1E
100
AcDbEntity
  8
0
  6
CONTINUOUS
 62
     5
100
AcDbLine
 10
4.46875
 20
11.84325
 30
0.0
 11
4.46875
 21
11.3745
 31
0.0
  0
LINE
  5
1CE
330
1E
100
AcDbEntity
  8
0
  6
CONTINUOUS
 62
     5
100
AcDbLine
 10
4.4375
 20
11.87449999999999
 30
0.0
 11
4.46875
 21
11.84325
 31
0.0
  0
ARC
  5
1CF
330
1E
100
AcDbEntity
  8
0
  6
CONTINUOUS
 62
     5
100
AcDbCircle
 10
4.75
 20
11.12449999999999
 30
0.0
 40
0.25
100
AcDbArc
 50
0.000002
 51
89.999999
  0
ARC
  5
1D0
330
1E
100
AcDbEntity
  8
0
  6
CONTINUOUS
 62
     5
100
AcDbCircle
 10
4.75
 20
11.12449999999999
 30
0.0
 40
0.125
100
AcDbArc
 50
0.000002
 51
89.999999
  0
LINE
  5
1D1
330
1E
100
AcDbEntity
  8
0
  6
CONTINUOUS
 62
     5
100
AcDbLine
 10
4.456837999999998
 20
11.03075
 30
0.0
 11
4.456837999999998
 21
11.24949999999999
 31
0.0
  0
LINE
  5
1D2
330
1E
100
AcDbEntity
  8
0
  6
CONTINUOUS
 62
     5
100
AcDbLine
 10
4.601174999999998
 20
11.24949999999999
 30
0.0
 11
4.601174999999998
 21
11.03075
 31
0.0
  0
ARC
  5
1D3
330
1E
100
AcDbEntity
  8
0
  6
CONTINUOUS
 62
     5
100
AcDbCircle
 10
4.529005999999998
 20
11.098458
 30
0.0
 40
0.098958
100
AcDbArc
 50
223.1735509999999
 51
316.82645
  0
LINE
  5
1D4
330
1E
100
AcDbEntity
  8
0
  6
CONTINUOUS
 62
     5
100
AcDbLine
 10
4.601174999999998
 20
11.03075
 30
0.0
 11
4.5625
 21
10.99949999999999
 31
0.0
  0
LINE
  5
1D5
330
1E
100
AcDbEntity
  8
0
  6
CONTINUOUS
 62
     5
100
AcDbLine
 10
4.875
 20
10.831338
 30
0.0
 11
4.65625
 21
10.831338
 31
0.0
  0
LINE
  5
1D6
330
1E
100
AcDbEntity
  8
0
  6
CONTINUOUS
 62
     5
100
AcDbLine
 10
4.65625
 20
10.975675
 30
0.0
 11
4.875
 21
10.975675
 31
0.0
  0
LINE
  5
1D7
330
1E
100
AcDbEntity
  8
0
  6
CONTINUOUS
 62
     5
100
AcDbLine
 10
4.65625
 20
10.542662
 30
0.0
 11
4.875
 21
10.542662
 31
0.0
  0
LINE
  5
1D8
330
1E
100
AcDbEntity
  8
0
  6
CONTINUOUS
 62
     5
100
AcDbLine
 10
4.875
 20
10.39832499999999
 30
0.0
 11
4.65625
 21
10.39832499999999
 31
0.0
  0
ARC
  5
1D9
330
1E
100
AcDbEntity
  8
0
  6
CONTINUOUS
 62
     5
100
AcDbCircle
 10
4.973958
 20
10.68699999999999
 30
0.0
 40
0.348958
100
AcDbArc
 50
155.567302
 51
204.432698
  0
LINE
  5
1DA
330
1E
100
AcDbEntity
  8
0
  6
CONTINUOUS
 62
     5
100
AcDbLine
 10
4.625
 20
10.437
 30
0.0
 11
4.625
 21
10.93699999999999
 31
0.0
  0
LINE
  5
1DB
330
1E
100
AcDbEntity
  8
0
  6
CONTINUOUS
 62
     5
100
AcDbLine
 10
4.65625
 20
10.975675
 30
0.0
 11
4.625
 21
10.93699999999999
 31
0.0
  0
ARC
  5
1DC
330
1E
100
AcDbEntity
  8
0
  6
CONTINUOUS
 62
     5
100
AcDbCircle
 10
4.723958
 20
10.903506
 30
0.0
 40
0.098958
100
AcDbArc
 50
133.173551
 51
226.826449
  0
LINE
  5
1DD
330
1E
100
AcDbEntity
  8
0
  6
CONTINUOUS
 62
     5
100
AcDbLine
 10
4.65625
 20
10.39832499999999
 30
0.0
 11
4.625
 21
10.437
 31
0.0
  0
ARC
  5
1DE
330
1E
100
AcDbEntity
  8
0
  6
CONTINUOUS
 62
     5
100
AcDbCircle
 10
4.723958
 20
10.470494
 30
0.0
 40
0.098958
100
AcDbArc
 50
133.173551
 51
226.826449
  0
LINE
  5
1DF
330
1E
100
AcDbEntity
  8
0
  6
CONTINUOUS
 62
     5
100
AcDbLine
 10
5.0
 20
10.37449999999999
 30
0.0
 11
4.875
 21
10.37449999999999
 31
0.0
  0
LINE
  5
1E0
330
1E
100
AcDbEntity
  8
0
  6
CONTINUOUS
 62
     5
100
AcDbLine
 10
4.5
 20
10.68699999999999
 30
0.0
 11
5.375
 21
10.68699999999999
 31
0.0
  0
LINE
  5
1E1
330
1E
100
AcDbEntity
  8
0
  6
CONTINUOUS
 62
     5
100
AcDbLine
 10
6.557
 20
6.405999999999998
 30
0.0
 11
6.785
 21
6.405999999999998
 31
0.0
  0
LINE
  5
1E2
330
1E
100
AcDbEntity
  8
0
  6
CONTINUOUS
 62
     5
100
AcDbLine
 10
6.572999999999999
 20
5.642
 30
0.0
 11
6.556
 21
5.657999999999999
 31
0.0
  0
LINE
  5
1E3
330
1E
100
AcDbEntity
  8
0
  6
CONTINUOUS
 62
     5
100
AcDbLine
 10
6.556
 20
5.657999999999999
 30
0.0
 11
6.535999999999998
 21
5.669999999999999
 31
0.0
  0
LINE
  5
1E4
330
1E
100
AcDbEntity
  8
0
  6
CONTINUOUS
 62
     5
100
AcDbLine
 10
6.535999999999998
 20
5.669999999999999
 30
0.0
 11
6.514999999999998
 21
5.678999999999999
 31
0.0
  0
LINE
  5
1E5
330
1E
100
AcDbEntity
  8
0
  6
CONTINUOUS
 62
     5
100
AcDbLine
 10
6.466999999999998
 20
5.687
 30
0.0
 11
6.443999999999999
 21
5.684999999999998
 31
0.0
  0
LINE
  5
1E6
330
1E
100
AcDbEntity
  8
0
  6
CONTINUOUS
 62
     5
100
AcDbLine
 10
6.399
 20
5.669999999999999
 30
0.0
 11
6.378999999999998
 21
5.657999999999999
 31
0.0
  0
LINE
  5
1E7
330
1E
100
AcDbEntity
  8
0
  6
CONTINUOUS
 62
     5
100
AcDbLine
 10
6.378999999999998
 20
5.657999999999999
 30
0.0
 11
6.362
 21
5.642
 31
0.0
  0
LINE
  5
1E8
330
1E
100
AcDbEntity
  8
0
  6
CONTINUOUS
 62
     5
100
AcDbLine
 10
6.443999999999999
 20
5.684999999999998
 30
0.0
 11
6.419999999999999
 21
5.678999999999999
 31
0.0
  0
LINE
  5
1E9
330
1E
100
AcDbEntity
  8
0
  6
CONTINUOUS
 62
     5
100
AcDbLine
 10
6.419999999999999
 20
5.678999999999999
 30
0.0
 11
6.399
 21
5.669999999999999
 31
0.0
  0
LINE
  5
1EA
330
1E
100
AcDbEntity
  8
0
  6
CONTINUOUS
 62
     5
100
AcDbLine
 10
6.514999999999998
 20
5.678999999999999
 30
0.0
 11
6.490999999999998
 21
5.684999999999998
 31
0.0
  0
LINE
  5
1EB
330
1E
100
AcDbEntity
  8
0
  6
CONTINUOUS
 62
     5
100
AcDbLine
 10
6.490999999999998
 20
5.684999999999998
 30
0.0
 11
6.466999999999998
 21
5.687
 31
0.0
  0
LINE
  5
1EC
330
1E
100
AcDbEntity
  8
0
  6
CONTINUOUS
 62
     5
100
AcDbLine
 10
6.331999999999998
 20
5.583999999999998
 30
0.0
 11
6.33
 21
5.562
 31
0.0
  0
LINE
  5
1ED
330
1E
100
AcDbEntity
  8
0
  6
CONTINUOUS
 62
     5
100
AcDbLine
 10
6.33
 20
5.562
 30
0.0
 11
6.331999999999998
 21
5.54
 31
0.0
  0
LINE
  5
1EE
330
1E
100
AcDbEntity
  8
0
  6
CONTINUOUS
 62
     5
100
AcDbLine
 10
6.337999999999999
 20
5.605
 30
0.0
 11
6.331999999999998
 21
5.583999999999998
 31
0.0
  0
LINE
  5
1EF
330
1E
100
AcDbEntity
  8
0
  6
CONTINUOUS
 62
     5
100
AcDbLine
 10
6.586999999999998
 20
5.625
 30
0.0
 11
6.572999999999999
 21
5.642
 31
0.0
  0
LINE
  5
1F0
330
1E
100
AcDbEntity
  8
0
  6
CONTINUOUS
 62
     5
100
AcDbLine
 10
6.362
 20
5.642
 30
0.0
 11
6.347999999999998
 21
5.625
 31
0.0
  0
LINE
  5
1F1
330
1E
100
AcDbEntity
  8
0
  6
CONTINUOUS
 62
     5
100
AcDbLine
 10
6.347999999999998
 20
5.625
 30
0.0
 11
6.337999999999999
 21
5.605
 31
0.0
  0
LINE
  5
1F2
330
1E
100
AcDbEntity
  8
0
  6
CONTINUOUS
 62
     5
100
AcDbLine
 10
6.602999999999998
 20
5.54
 30
0.0
 11
6.605
 21
5.562
 31
0.0
  0
LINE
  5
1F3
330
1E
100
AcDbEntity
  8
0
  6
CONTINUOUS
 62
     5
100
AcDbLine
 10
6.605
 20
5.562
 30
0.0
 11
6.602999999999998
 21
5.583999999999998
 31
0.0
  0
LINE
  5
1F4
330
1E
100
AcDbEntity
  8
0
  6
CONTINUOUS
 62
     5
100
AcDbLine
 10
6.602999999999998
 20
5.583999999999998
 30
0.0
 11
6.597
 21
5.605
 31
0.0
  0
LINE
  5
1F5
330
1E
100
AcDbEntity
  8
0
  6
CONTINUOUS
 62
     5
100
AcDbLine
 10
6.317999999999998
 20
5.562
 30
0.0
 11
6.616999999999999
 21
5.562
 31
0.0
  0
LINE
  5
1F6
330
1E
100
AcDbEntity
  8
0
  6
CONTINUOUS
 62
     5
100
AcDbLine
 10
6.597
 20
5.605
 30
0.0
 11
6.586999999999998
 21
5.625
 31
0.0
  0
LINE
  5
1F7
330
1E
100
AcDbEntity
  8
0
  6
CONTINUOUS
 62
     5
100
AcDbLine
 10
6.671
 20
6.291999999999998
 30
0.0
 11
6.671
 21
6.519999999999998
 31
0.0
  0
CIRCLE
  5
1F8
330
1E
100
AcDbEntity
  8
0
  6
CONTINUOUS
 62
     5
100
AcDbCircle
 10
6.671
 20
6.405999999999998
 30
0.0
 40
0.075
  0
ARC
  5
1F9
330
1E
100
AcDbEntity
  8
4
  6
CONTINUOUS
 62
     5
100
AcDbCircle
 10
6.671
 20
6.405999999999998
 30
0.0
 40
0.087
100
AcDbArc
 50
85.00000099999999
 51
5.0
  0
CIRCLE
  5
1FA
330
1E
100
AcDbEntity
  8
0
  6
CONTINUOUS
 62
     5
100
AcDbCircle
 10
6.671
 20
6.405999999999998
 30
0.0
 40
0.095
  0
LINE
  5
1FB
330
1E
100
AcDbEntity
  8
0
  6
CONTINUOUS
 62
     5
100
AcDbLine
 10
6.535999999999998
 20
5.453999999999998
 30
0.0
 11
6.556
 21
5.466
 31
0.0
  0
LINE
  5
1FC
330
1E
100
AcDbEntity
  8
0
  6
CONTINUOUS
 62
     5
100
AcDbLine
 10
6.556
 20
5.466
 30
0.0
 11
6.572999999999999
 21
5.482
 31
0.0
  0
LINE
  5
1FD
330
1E
100
AcDbEntity
  8
0
  6
CONTINUOUS
 62
     5
100
AcDbLine
 10
6.514999999999998
 20
5.445
 30
0.0
 11
6.535999999999998
 21
5.453999999999998
 31
0.0
  0
LINE
  5
1FE
330
1E
100
AcDbEntity
  8
0
  6
CONTINUOUS
 62
     5
100
AcDbLine
 10
6.443999999999999
 20
5.439
 30
0.0
 11
6.466999999999998
 21
5.437
 31
0.0
  0
LINE
  5
1FF
330
1E
100
AcDbEntity
  8
0
  6
CONTINUOUS
 62
     5
100
AcDbLine
 10
6.378999999999998
 20
5.466
 30
0.0
 11
6.399
 21
5.453999999999998
 31
0.0
  0
LINE
  5
200
330
1E
100
AcDbEntity
  8
0
  6
CONTINUOUS
 62
     5
100
AcDbLine
 10
6.362
 20
5.482
 30
0.0
 11
6.378999999999998
 21
5.466
 31
0.0
  0
LINE
  5
201
330
1E
100
AcDbEntity
  8
0
  6
CONTINUOUS
 62
     5
100
AcDbLine
 10
6.419999999999999
 20
5.445
 30
0.0
 11
6.443999999999999
 21
5.439
 31
0.0
  0
LINE
  5
202
330
1E
100
AcDbEntity
  8
0
  6
CONTINUOUS
 62
     5
100
AcDbLine
 10
6.399
 20
5.453999999999998
 30
0.0
 11
6.419999999999999
 21
5.445
 31
0.0
  0
LINE
  5
203
330
1E
100
AcDbEntity
  8
0
  6
CONTINUOUS
 62
     5
100
AcDbLine
 10
6.466999999999998
 20
5.437
 30
0.0
 11
6.490999999999998
 21
5.439
 31
0.0
  0
LINE
  5
204
330
1E
100
AcDbEntity
  8
0
  6
CONTINUOUS
 62
     5
100
AcDbLine
 10
6.490999999999998
 20
5.439
 30
0.0
 11
6.514999999999998
 21
5.445
 31
0.0
  0
LINE
  5
205
330
1E
100
AcDbEntity
  8
0
  6
CONTINUOUS
 62
     5
100
AcDbLine
 10
6.572999999999999
 20
5.482
 30
0.0
 11
6.586999999999998
 21
5.5
 31
0.0
  0
LINE
  5
206
330
1E
100
AcDbEntity
  8
0
  6
CONTINUOUS
 62
     5
100
AcDbLine
 10
6.337999999999999
 20
5.519
 30
0.0
 11
6.347999999999998
 21
5.5
 31
0.0
  0
LINE
  5
207
330
1E
100
AcDbEntity
  8
0
  6
CONTINUOUS
 62
     5
100
AcDbLine
 10
6.331999999999998
 20
5.54
 30
0.0
 11
6.337999999999999
 21
5.519
 31
0.0
  0
LINE
  5
208
330
1E
100
AcDbEntity
  8
0
  6
CONTINUOUS
 62
     5
100
AcDbLine
 10
6.347999999999998
 20
5.5
 30
0.0
 11
6.362
 21
5.482
 31
0.0
  0
LINE
  5
209
330
1E
100
AcDbEntity
  8
0
  6
CONTINUOUS
 62
     5
100
AcDbLine
 10
6.586999999999998
 20
5.5
 30
0.0
 11
6.597
 21
5.519
 31
0.0
  0
LINE
  5
20A
330
1E
100
AcDbEntity
  8
0
  6
CONTINUOUS
 62
     5
100
AcDbLine
 10
6.597
 20
5.519
 30
0.0
 11
6.602999999999998
 21
5.54
 31
0.0
  0
LINE
  5
20B
330
1E
100
AcDbEntity
  8
0
  6
CONTINUOUS
 62
     5
100
AcDbLine
 10
6.466999999999998
 20
5.411999999999999
 30
0.0
 11
6.466999999999998
 21
5.711999999999998
 31
0.0
  0
LINE
  5
20C
330
1E
100
AcDbEntity
  8
0
  6
CONTINUOUS
 62
     5
100
AcDbLine
 10
6.184
 20
5.882999999999999
 30
0.0
 11
6.185999999999999
 21
5.905999999999998
 31
0.0
  0
LINE
  5
20D
330
1E
100
AcDbEntity
  8
0
  6
CONTINUOUS
 62
     5
100
AcDbLine
 10
6.185999999999999
 20
5.905999999999998
 30
0.0
 11
6.184
 21
5.927999999999999
 31
0.0
  0
LINE
  5
20E
330
1E
100
AcDbEntity
  8
0
  6
CONTINUOUS
 62
     5
100
AcDbLine
 10
6.178999999999999
 20
5.860999999999998
 30
0.0
 11
6.184
 21
5.882999999999999
 31
0.0
  0
LINE
  5
20F
330
1E
100
AcDbEntity
  8
0
  6
CONTINUOUS
 62
     5
100
AcDbLine
 10
6.184
 20
5.927999999999999
 30
0.0
 11
6.178999999999999
 21
5.95
 31
0.0
  0
LINE
  5
210
330
1E
100
AcDbEntity
  8
0
  6
CONTINUOUS
 62
     5
100
AcDbLine
 10
6.157
 20
5.822999999999999
 30
0.0
 11
6.169999999999999
 21
5.841
 31
0.0
  0
LINE
  5
211
330
1E
100
AcDbEntity
  8
0
  6
CONTINUOUS
 62
     5
100
AcDbLine
 10
6.169999999999999
 20
5.841
 30
0.0
 11
6.178999999999999
 21
5.860999999999998
 31
0.0
  0
LINE
  5
212
330
1E
100
AcDbEntity
  8
0
  6
CONTINUOUS
 62
     5
100
AcDbLine
 10
6.178999999999999
 20
5.95
 30
0.0
 11
6.169999999999999
 21
5.969999999999998
 31
0.0
  0
LINE
  5
213
330
1E
100
AcDbEntity
  8
0
  6
CONTINUOUS
 62
     5
100
AcDbLine
 10
6.169999999999999
 20
5.969999999999998
 30
0.0
 11
6.157
 21
5.988999999999998
 31
0.0
  0
LINE
  5
214
330
1E
100
AcDbEntity
  8
0
  6
CONTINUOUS
 62
     5
100
AcDbLine
 10
6.142
 20
5.807
 30
0.0
 11
6.157
 21
5.822999999999999
 31
0.0
  0
LINE
  5
215
330
1E
100
AcDbEntity
  8
0
  6
CONTINUOUS
 62
     5
100
AcDbLine
 10
6.157
 20
5.988999999999998
 30
0.0
 11
6.142
 21
6.004999999999999
 31
0.0
  0
LINE
  5
216
330
1E
100
AcDbEntity
  8
0
  6
CONTINUOUS
 62
     5
100
AcDbLine
 10
6.123999999999998
 20
5.793999999999998
 30
0.0
 11
6.142
 21
5.807
 31
0.0
  0
LINE
  5
217
330
1E
100
AcDbEntity
  8
0
  6
CONTINUOUS
 62
     5
100
AcDbLine
 10
6.142
 20
6.004999999999999
 30
0.0
 11
6.123999999999998
 21
6.017999999999998
 31
0.0
  0
LINE
  5
218
330
1E
100
AcDbEntity
  8
0
  6
CONTINUOUS
 62
     5
100
AcDbLine
 10
5.337999999999999
 20
6.405999999999998
 30
0.0
 11
5.565999999999998
 21
6.405999999999998
 31
0.0
  0
LINE
  5
219
330
1E
100
AcDbEntity
  8
0
  6
CONTINUOUS
 62
     5
100
AcDbLine
 10
5.937999999999998
 20
5.927999999999999
 30
0.0
 11
5.935999999999999
 21
5.905999999999998
 31
0.0
  0
LINE
  5
21A
330
1E
100
AcDbEntity
  8
0
  6
CONTINUOUS
 62
     5
100
AcDbLine
 10
5.935999999999999
 20
5.905999999999998
 30
0.0
 11
5.937999999999998
 21
5.882999999999999
 31
0.0
  0
LINE
  5
21B
330
1E
100
AcDbEntity
  8
0
  6
CONTINUOUS
 62
     5
100
AcDbLine
 10
5.964999999999998
 20
5.988999999999998
 30
0.0
 11
5.952999999999999
 21
5.969999999999998
 31
0.0
  0
LINE
  5
21C
330
1E
100
AcDbEntity
  8
0
  6
CONTINUOUS
 62
     5
100
AcDbLine
 10
5.952999999999999
 20
5.969999999999998
 30
0.0
 11
5.943999999999999
 21
5.95
 31
0.0
  0
LINE
  5
21D
330
1E
100
AcDbEntity
  8
0
  6
CONTINUOUS
 62
     5
100
AcDbLine
 10
5.943999999999999
 20
5.95
 30
0.0
 11
5.937999999999998
 21
5.927999999999999
 31
0.0
  0
LINE
  5
21E
330
1E
100
AcDbEntity
  8
0
  6
CONTINUOUS
 62
     5
100
AcDbLine
 10
5.964999999999998
 20
5.822999999999999
 30
0.0
 11
5.980999999999998
 21
5.807
 31
0.0
  0
LINE
  5
21F
330
1E
100
AcDbEntity
  8
0
  6
CONTINUOUS
 62
     5
100
AcDbLine
 10
5.952999999999999
 20
5.841
 30
0.0
 11
5.964999999999998
 21
5.822999999999999
 31
0.0
  0
LINE
  5
220
330
1E
100
AcDbEntity
  8
0
  6
CONTINUOUS
 62
     5
100
AcDbLine
 10
5.943999999999999
 20
5.860999999999998
 30
0.0
 11
5.952999999999999
 21
5.841
 31
0.0
  0
LINE
  5
221
330
1E
100
AcDbEntity
  8
0
  6
CONTINUOUS
 62
     5
100
AcDbLine
 10
5.937999999999998
 20
5.882999999999999
 30
0.0
 11
5.943999999999999
 21
5.860999999999998
 31
0.0
  0
LINE
  5
222
330
1E
100
AcDbEntity
  8
0
  6
CONTINUOUS
 62
     5
100
AcDbLine
 10
5.980999999999998
 20
6.004999999999999
 30
0.0
 11
5.964999999999998
 21
5.988999999999998
 31
0.0
  0
LINE
  5
223
330
1E
100
AcDbEntity
  8
0
  6
CONTINUOUS
 62
     5
100
AcDbLine
 10
6.04
 20
5.777999999999998
 30
0.0
 11
6.060999999999999
 21
5.775999999999998
 31
0.0
  0
LINE
  5
224
330
1E
100
AcDbEntity
  8
0
  6
CONTINUOUS
 62
     5
100
AcDbLine
 10
6.017999999999998
 20
5.783999999999998
 30
0.0
 11
6.04
 21
5.777999999999998
 31
0.0
  0
LINE
  5
225
330
1E
100
AcDbEntity
  8
0
  6
CONTINUOUS
 62
     5
100
AcDbLine
 10
5.998999999999998
 20
5.793999999999998
 30
0.0
 11
6.017999999999998
 21
5.783999999999998
 31
0.0
  0
LINE
  5
226
330
1E
100
AcDbEntity
  8
0
  6
CONTINUOUS
 62
     5
100
AcDbLine
 10
5.980999999999998
 20
5.807
 30
0.0
 11
5.998999999999998
 21
5.793999999999998
 31
0.0
  0
LINE
  5
227
330
1E
100
AcDbEntity
  8
0
  6
CONTINUOUS
 62
     5
100
AcDbLine
 10
6.060999999999999
 20
6.035
 30
0.0
 11
6.04
 21
6.032999999999999
 31
0.0
  0
LINE
  5
228
330
1E
100
AcDbEntity
  8
0
  6
CONTINUOUS
 62
     5
100
AcDbLine
 10
6.04
 20
6.032999999999999
 30
0.0
 11
6.017999999999998
 21
6.027
 31
0.0
  0
LINE
  5
229
330
1E
100
AcDbEntity
  8
0
  6
CONTINUOUS
 62
     5
100
AcDbLine
 10
6.017999999999998
 20
6.027
 30
0.0
 11
5.998999999999998
 21
6.017999999999998
 31
0.0
  0
LINE
  5
22A
330
1E
100
AcDbEntity
  8
0
  6
CONTINUOUS
 62
     5
100
AcDbLine
 10
5.998999999999998
 20
6.017999999999998
 30
0.0
 11
5.980999999999998
 21
6.004999999999999
 31
0.0
  0
LINE
  5
22B
330
1E
100
AcDbEntity
  8
0
  6
CONTINUOUS
 62
     5
100
AcDbLine
 10
6.060999999999999
 20
5.756
 30
0.0
 11
6.060999999999999
 21
6.056
 31
0.0
  0
LINE
  5
22C
330
1E
100
AcDbEntity
  8
0
  6
CONTINUOUS
 62
     5
100
AcDbLine
 10
5.697999999999999
 20
5.684
 30
0.0
 11
5.676999999999998
 21
5.689
 31
0.0
  0
LINE
  5
22D
330
1E
100
AcDbEntity
  8
0
  6
CONTINUOUS
 62
     5
100
AcDbLine
 10
5.632999999999999
 20
5.689
 30
0.0
 11
5.612
 21
5.684
 31
0.0
  0
LINE
  5
22E
330
1E
100
AcDbEntity
  8
0
  6
CONTINUOUS
 62
     5
100
AcDbLine
 10
5.751
 20
5.644999999999998
 30
0.0
 11
5.735
 21
5.660999999999998
 31
0.0
  0
LINE
  5
22F
330
1E
100
AcDbEntity
  8
0
  6
CONTINUOUS
 62
     5
100
AcDbLine
 10
5.735
 20
5.660999999999998
 30
0.0
 11
5.716999999999998
 21
5.673999999999999
 31
0.0
  0
LINE
  5
230
330
1E
100
AcDbEntity
  8
0
  6
CONTINUOUS
 62
     5
100
AcDbLine
 10
5.716999999999998
 20
5.673999999999999
 30
0.0
 11
5.697999999999999
 21
5.684
 31
0.0
  0
LINE
  5
231
330
1E
100
AcDbEntity
  8
0
  6
CONTINUOUS
 62
     5
100
AcDbLine
 10
5.777999999999998
 20
5.54
 30
0.0
 11
5.78
 21
5.562
 31
0.0
  0
LINE
  5
232
330
1E
100
AcDbEntity
  8
0
  6
CONTINUOUS
 62
     5
100
AcDbLine
 10
5.78
 20
5.562
 30
0.0
 11
5.777999999999998
 21
5.583999999999998
 31
0.0
  0
LINE
  5
233
330
1E
100
AcDbEntity
  8
0
  6
CONTINUOUS
 62
     5
100
AcDbLine
 10
5.777999999999998
 20
5.583999999999998
 30
0.0
 11
5.772
 21
5.605999999999998
 31
0.0
  0
LINE
  5
234
330
1E
100
AcDbEntity
  8
0
  6
CONTINUOUS
 62
     5
100
AcDbLine
 10
5.762999999999999
 20
5.626999999999998
 30
0.0
 11
5.751
 21
5.644999999999998
 31
0.0
  0
LINE
  5
235
330
1E
100
AcDbEntity
  8
0
  6
CONTINUOUS
 62
     5
100
AcDbLine
 10
5.772
 20
5.605999999999998
 30
0.0
 11
5.762999999999999
 21
5.626999999999998
 31
0.0
  0
LINE
  5
236
330
1E
100
AcDbEntity
  8
0
  6
CONTINUOUS
 62
     5
100
AcDbLine
 10
5.676999999999998
 20
5.689
 30
0.0
 11
5.655
 21
5.690999999999998
 31
0.0
  0
LINE
  5
237
330
1E
100
AcDbEntity
  8
0
  6
CONTINUOUS
 62
     5
100
AcDbLine
 10
5.655
 20
5.690999999999998
 30
0.0
 11
5.632999999999999
 21
5.689
 31
0.0
  0
LINE
  5
238
330
1E
100
AcDbEntity
  8
0
  6
CONTINUOUS
 62
     5
100
AcDbLine
 10
5.53
 20
5.562
 30
0.0
 11
5.532
 21
5.54
 31
0.0
  0
LINE
  5
239
330
1E
100
AcDbEntity
  8
0
  6
CONTINUOUS
 62
     5
100
AcDbLine
 10
5.532
 20
5.583999999999998
 30
0.0
 11
5.53
 21
5.562
 31
0.0
  0
LINE
  5
23A
330
1E
100
AcDbEntity
  8
0
  6
CONTINUOUS
 62
     5
100
AcDbLine
 10
5.537999999999999
 20
5.605999999999998
 30
0.0
 11
5.532
 21
5.583999999999998
 31
0.0
  0
LINE
  5
23B
330
1E
100
AcDbEntity
  8
0
  6
CONTINUOUS
 62
     5
100
AcDbLine
 10
5.559
 20
5.644999999999998
 30
0.0
 11
5.546999999999998
 21
5.626999999999998
 31
0.0
  0
LINE
  5
23C
330
1E
100
AcDbEntity
  8
0
  6
CONTINUOUS
 62
     5
100
AcDbLine
 10
5.546999999999998
 20
5.626999999999998
 30
0.0
 11
5.537999999999999
 21
5.605999999999998
 31
0.0
  0
LINE
  5
23D
330
1E
100
AcDbEntity
  8
0
  6
CONTINUOUS
 62
     5
100
AcDbLine
 10
5.612
 20
5.684
 30
0.0
 11
5.591999999999998
 21
5.673999999999999
 31
0.0
  0
LINE
  5
23E
330
1E
100
AcDbEntity
  8
0
  6
CONTINUOUS
 62
     5
100
AcDbLine
 10
5.591999999999998
 20
5.673999999999999
 30
0.0
 11
5.575
 21
5.660999999999998
 31
0.0
  0
LINE
  5
23F
330
1E
100
AcDbEntity
  8
0
  6
CONTINUOUS
 62
     5
100
AcDbLine
 10
5.575
 20
5.660999999999998
 30
0.0
 11
5.559
 21
5.644999999999998
 31
0.0
  0
LINE
  5
240
330
1E
100
AcDbEntity
  8
0
  6
CONTINUOUS
 62
     5
100
AcDbLine
 10
5.504999999999999
 20
5.562
 30
0.0
 11
5.804999999999998
 21
5.562
 31
0.0
  0
CIRCLE
  5
241
330
1E
100
AcDbEntity
  8
0
  6
CONTINUOUS
 62
     5
100
AcDbCircle
 10
5.451999999999999
 20
6.405999999999998
 30
0.0
 40
0.075
  0
LINE
  5
242
330
1E
100
AcDbEntity
  8
0
  6
CONTINUOUS
 62
     5
100
AcDbLine
 10
5.451999999999999
 20
6.291999999999998
 30
0.0
 11
5.451999999999999
 21
6.519999999999998
 31
0.0
  0
ARC
  5
243
330
1E
100
AcDbEntity
  8
4
  6
CONTINUOUS
 62
     5
100
AcDbCircle
 10
5.451999999999999
 20
6.405999999999998
 30
0.0
 40
0.087
100
AcDbArc
 50
85.00000099999999
 51
5.0
  0
CIRCLE
  5
244
330
1E
100
AcDbEntity
  8
0
  6
CONTINUOUS
 62
     5
100
AcDbCircle
 10
5.451999999999999
 20
6.405999999999998
 30
0.0
 40
0.095
  0
LINE
  5
245
330
1E
100
AcDbEntity
  8
0
  6
CONTINUOUS
 62
     5
100
AcDbLine
 10
6.104
 20
6.027
 30
0.0
 11
6.082999999999999
 21
6.032999999999999
 31
0.0
  0
LINE
  5
246
330
1E
100
AcDbEntity
  8
0
  6
CONTINUOUS
 62
     5
100
AcDbLine
 10
6.082999999999999
 20
6.032999999999999
 30
0.0
 11
6.060999999999999
 21
6.035
 31
0.0
  0
LINE
  5
247
330
1E
100
AcDbEntity
  8
0
  6
CONTINUOUS
 62
     5
100
AcDbLine
 10
6.060999999999999
 20
5.775999999999998
 30
0.0
 11
6.082999999999999
 21
5.777999999999998
 31
0.0
  0
LINE
  5
248
330
1E
100
AcDbEntity
  8
0
  6
CONTINUOUS
 62
     5
100
AcDbLine
 10
6.082999999999999
 20
5.777999999999998
 30
0.0
 11
6.104
 21
5.783999999999998
 31
0.0
  0
LINE
  5
249
330
1E
100
AcDbEntity
  8
0
  6
CONTINUOUS
 62
     5
100
AcDbLine
 10
6.123999999999998
 20
6.017999999999998
 30
0.0
 11
6.104
 21
6.027
 31
0.0
  0
LINE
  5
24A
330
1E
100
AcDbEntity
  8
0
  6
CONTINUOUS
 62
     5
100
AcDbLine
 10
6.104
 20
5.783999999999998
 30
0.0
 11
6.123999999999998
 21
5.793999999999998
 31
0.0
  0
LINE
  5
24B
330
1E
100
AcDbEntity
  8
0
  6
CONTINUOUS
 62
     5
100
AcDbLine
 10
5.910999999999998
 20
5.905999999999998
 30
0.0
 11
6.211
 21
5.905999999999998
 31
0.0
  0
LINE
  5
24C
330
1E
100
AcDbEntity
  8
0
  6
CONTINUOUS
 62
     5
100
AcDbLine
 10
5.632999999999999
 20
5.434999999999998
 30
0.0
 11
5.655
 21
5.432999999999998
 31
0.0
  0
LINE
  5
24D
330
1E
100
AcDbEntity
  8
0
  6
CONTINUOUS
 62
     5
100
AcDbLine
 10
5.655
 20
5.432999999999998
 30
0.0
 11
5.676999999999998
 21
5.434999999999998
 31
0.0
  0
LINE
  5
24E
330
1E
100
AcDbEntity
  8
0
  6
CONTINUOUS
 62
     5
100
AcDbLine
 10
5.676999999999998
 20
5.434999999999998
 30
0.0
 11
5.697999999999999
 21
5.44
 31
0.0
  0
LINE
  5
24F
330
1E
100
AcDbEntity
  8
0
  6
CONTINUOUS
 62
     5
100
AcDbLine
 10
5.697999999999999
 20
5.44
 30
0.0
 11
5.716999999999998
 21
5.45
 31
0.0
  0
LINE
  5
250
330
1E
100
AcDbEntity
  8
0
  6
CONTINUOUS
 62
     5
100
AcDbLine
 10
5.716999999999998
 20
5.45
 30
0.0
 11
5.735
 21
5.462999999999999
 31
0.0
  0
LINE
  5
251
330
1E
100
AcDbEntity
  8
0
  6
CONTINUOUS
 62
     5
100
AcDbLine
 10
5.735
 20
5.462999999999999
 30
0.0
 11
5.751
 21
5.479
 31
0.0
  0
LINE
  5
252
330
1E
100
AcDbEntity
  8
0
  6
CONTINUOUS
 62
     5
100
AcDbLine
 10
5.612
 20
5.44
 30
0.0
 11
5.632999999999999
 21
5.434999999999998
 31
0.0
  0
LINE
  5
253
330
1E
100
AcDbEntity
  8
0
  6
CONTINUOUS
 62
     5
100
AcDbLine
 10
6.060999999999999
 20
5.049999999999998
 30
0.0
 11
6.060999999999999
 21
5.386999999999998
 31
0.0
  0
LINE
  5
254
330
1E
100
AcDbEntity
  8
0
  6
CONTINUOUS
 62
     5
100
AcDbLine
 10
5.421
 20
5.106787
 30
0.0
 11
5.421
 21
5.192787
 31
0.0
  0
LINE
  5
255
330
1E
100
AcDbEntity
  8
0
  6
CONTINUOUS
 62
     5
100
AcDbLine
 10
5.317
 20
5.106787
 30
0.0
 11
5.524
 21
5.106787
 31
0.0
  0
LINE
  5
256
330
1E
100
AcDbEntity
  8
0
  6
CONTINUOUS
 62
     5
100
AcDbLine
 10
5.421
 20
5.003786999999999
 30
0.0
 11
5.421
 21
5.209787
 31
0.0
  0
CIRCLE
  5
257
330
1E
100
AcDbEntity
  8
0
  6
CONTINUOUS
 62
     5
100
AcDbCircle
 10
5.421
 20
5.106787
 30
0.0
 40
0.078
  0
LINE
  5
258
330
1E
100
AcDbEntity
  8
0
  6
CONTINUOUS
 62
     5
100
AcDbLine
 10
5.591999999999998
 20
5.45
 30
0.0
 11
5.612
 21
5.44
 31
0.0
  0
LINE
  5
259
330
1E
100
AcDbEntity
  8
0
  6
CONTINUOUS
 62
     5
100
AcDbLine
 10
5.575
 20
5.462999999999999
 30
0.0
 11
5.591999999999998
 21
5.45
 31
0.0
  0
LINE
  5
25A
330
1E
100
AcDbEntity
  8
0
  6
CONTINUOUS
 62
     5
100
AcDbLine
 10
5.559
 20
5.479
 30
0.0
 11
5.575
 21
5.462999999999999
 31
0.0
  0
LINE
  5
25B
330
1E
100
AcDbEntity
  8
0
  6
CONTINUOUS
 62
     5
100
AcDbLine
 10
5.892999999999998
 20
5.217999999999999
 30
0.0
 11
6.23
 21
5.217999999999999
 31
0.0
  0
CIRCLE
  5
25C
330
1E
100
AcDbEntity
  8
0
  6
CONTINUOUS
 62
     5
100
AcDbCircle
 10
6.060999999999999
 20
5.217999999999999
 30
0.0
 40
0.14
  0
LINE
  5
25D
330
1E
100
AcDbEntity
  8
0
  6
CONTINUOUS
 62
     5
100
AcDbLine
 10
5.762999999999999
 20
5.496999999999998
 30
0.0
 11
5.772
 21
5.517999999999998
 31
0.0
  0
LINE
  5
25E
330
1E
100
AcDbEntity
  8
0
  6
CONTINUOUS
 62
     5
100
AcDbLine
 10
5.772
 20
5.517999999999998
 30
0.0
 11
5.777999999999998
 21
5.54
 31
0.0
  0
LINE
  5
25F
330
1E
100
AcDbEntity
  8
0
  6
CONTINUOUS
 62
     5
100
AcDbLine
 10
5.751
 20
5.479
 30
0.0
 11
5.762999999999999
 21
5.496999999999998
 31
0.0
  0
LINE
  5
260
330
1E
100
AcDbEntity
  8
0
  6
CONTINUOUS
 62
     5
100
AcDbLine
 10
5.655
 20
5.411999999999999
 30
0.0
 11
5.655
 21
5.711999999999998
 31
0.0
  0
LINE
  5
261
330
1E
100
AcDbEntity
  8
0
  6
CONTINUOUS
 62
     5
100
AcDbLine
 10
5.537999999999999
 20
5.517999999999998
 30
0.0
 11
5.546999999999998
 21
5.496999999999998
 31
0.0
  0
LINE
  5
262
330
1E
100
AcDbEntity
  8
0
  6
CONTINUOUS
 62
     5
100
AcDbLine
 10
5.532
 20
5.54
 30
0.0
 11
5.537999999999999
 21
5.517999999999998
 31
0.0
  0
LINE
  5
263
330
1E
100
AcDbEntity
  8
0
  6
CONTINUOUS
 62
     5
100
AcDbLine
 10
5.546999999999998
 20
5.496999999999998
 30
0.0
 11
5.559
 21
5.479
 31
0.0
  0
ARC
  5
264
330
1E
100
AcDbEntity
  8
0
  6
CONTINUOUS
 62
     5
100
AcDbCircle
 10
4.723958
 20
6.904005999999998
 30
0.0
 40
0.098958
100
AcDbArc
 50
133.173552
 51
226.8264509999999
  0
LINE
  5
265
330
1E
100
AcDbEntity
  8
0
  6
CONTINUOUS
 62
     5
100
AcDbLine
 10
4.65625
 20
6.976174999999998
 30
0.0
 11
4.625
 21
6.9375
 31
0.0
  0
LINE
  5
266
330
1E
100
AcDbEntity
  8
0
  6
CONTINUOUS
 62
     5
100
AcDbLine
 10
4.65625
 20
6.976174999999998
 30
0.0
 11
4.875
 21
6.976174999999998
 31
0.0
  0
LINE
  5
267
330
1E
100
AcDbEntity
  8
0
  6
CONTINUOUS
 62
     5
100
AcDbLine
 10
4.875
 20
6.831838
 30
0.0
 11
4.65625
 21
6.831838
 31
0.0
  0
LINE
  5
268
330
1E
100
AcDbEntity
  8
0
  6
CONTINUOUS
 62
     5
100
AcDbLine
 10
4.3125
 20
6.772499999999999
 30
0.0
 11
4.3125
 21
6.96375
 31
0.0
  0
LINE
  5
269
330
1E
100
AcDbEntity
  8
0
  6
CONTINUOUS
 62
     5
100
AcDbLine
 10
4.355
 20
6.6875
 30
0.0
 11
4.269999999999998
 21
6.6875
 31
0.0
  0
LINE
  5
26A
330
1E
100
AcDbEntity
  8
0
  6
CONTINUOUS
 62
     5
100
AcDbLine
 10
4.564
 20
6.831338
 30
0.0
 11
4.314
 21
6.975674999999998
 31
0.0
  0
LINE
  5
26B
330
1E
100
AcDbEntity
  8
0
  6
CONTINUOUS
 62
     5
100
AcDbLine
 10
4.599375
 20
6.6875
 30
0.0
 11
4.408125
 21
6.6875
 31
0.0
  0
LINE
  5
26C
330
1E
100
AcDbEntity
  8
0
  6
CONTINUOUS
 62
     5
100
AcDbLine
 10
4.498999999999998
 20
6.6875
 30
0.0
 11
5.069080999999998
 21
6.6875
 31
0.0
  0
LINE
  5
26D
330
1E
100
AcDbEntity
  8
0
  6
CONTINUOUS
 62
     5
100
AcDbLine
 10
4.216874999999999
 20
6.6875
 30
0.0
 11
4.046875
 21
6.6875
 31
0.0
  0
LINE
  5
26E
330
1E
100
AcDbEntity
  8
0
  6
CONTINUOUS
 62
     5
100
AcDbLine
 10
4.0
 20
7.0
 30
0.0
 11
5.0
 21
7.0
 31
0.0
  0
LINE
  5
26F
330
1E
100
AcDbEntity
  8
0
  6
CONTINUOUS
 62
     5
100
AcDbLine
 10
4.65625
 20
6.398825
 30
0.0
 11
4.625
 21
6.4375
 31
0.0
  0
ARC
  5
270
330
1E
100
AcDbEntity
  8
0
  6
CONTINUOUS
 62
     5
100
AcDbCircle
 10
4.723958
 20
6.470994
 30
0.0
 40
0.098958
100
AcDbArc
 50
133.173552
 51
226.8264509999999
  0
LINE
  5
271
330
1E
100
AcDbEntity
  8
0
  6
CONTINUOUS
 62
     5
100
AcDbLine
 10
4.65625
 20
6.543162
 30
0.0
 11
4.875
 21
6.543162
 31
0.0
  0
LINE
  5
272
330
1E
100
AcDbEntity
  8
0
  6
CONTINUOUS
 62
     5
100
AcDbLine
 10
4.875
 20
6.398825
 30
0.0
 11
4.65625
 21
6.398825
 31
0.0
  0
LINE
  5
273
330
1E
100
AcDbEntity
  8
0
  6
CONTINUOUS
 62
     5
100
AcDbLine
 10
4.3125
 20
6.411249999999999
 30
0.0
 11
4.3125
 21
6.6025
 31
0.0
  0
LINE
  5
274
330
1E
100
AcDbEntity
  8
0
  6
CONTINUOUS
 62
     5
100
AcDbLine
 10
4.625
 20
6.4375
 30
0.0
 11
4.625
 21
6.9375
 31
0.0
  0
ARC
  5
275
330
1E
100
AcDbEntity
  8
0
  6
CONTINUOUS
 62
     5
100
AcDbCircle
 10
4.973958
 20
6.6875
 30
0.0
 40
0.348958
100
AcDbArc
 50
155.567303
 51
204.4327
  0
LINE
  5
276
330
1E
100
AcDbEntity
  8
0
  6
CONTINUOUS
 62
     5
100
AcDbLine
 10
4.3125
 20
6.655624999999998
 30
0.0
 11
4.3125
 21
6.719375
 31
0.0
  0
CIRCLE
  5
277
330
1E
100
AcDbEntity
  8
0
  6
CONTINUOUS
 62
     5
100
AcDbCircle
 10
4.311499999999998
 20
6.6875
 30
0.0
 40
0.249501
  0
LWPOLYLINE
  5
278
330
1E
100
AcDbEntity
  8
0
  6
CONTINUOUS
 62
     5
100
AcDbPolyline
 90
        6
 70
     0
 43
0.0
 10
4.562
 20
6.831338
 10
4.562
 20
6.542661999999999
 10
4.312
 20
6.398324999999998
 10
4.062
 20
6.542661999999999
 10
4.062
 20
6.831338
 10
4.312
 20
6.975674999999998
  0
LINE
  5
280
330
1E
100
AcDbEntity
  8
0
  6
CONTINUOUS
 62
     5
100
AcDbLine
 10
5.0
 20
10.99949999999999
 30
0.0
 11
5.0
 21
7.9995
 31
0.0
  0
CIRCLE
  5
281
330
1E
100
AcDbEntity
  8
0
  6
CONTINUOUS
 62
     5
100
AcDbCircle
 10
1.5
 20
6.202999999999999
 30
0.0
 40
0.308
  0
ARC
  5
282
330
1E
100
AcDbEntity
  8
4
  6
CONTINUOUS
 62
     5
100
AcDbCircle
 10
1.5
 20
6.202999999999999
 30
0.0
 40
0.361
100
AcDbArc
 50
85.00000099999999
 51
5.0
  0
CIRCLE
  5
283
330
1E
100
AcDbEntity
  8
0
  6
CONTINUOUS
 62
     5
100
AcDbCircle
 10
1.5
 20
6.202999999999999
 30
0.0
 40
0.4060000000000001
  0
TEXT
  5
284
330
1E
100
AcDbEntity
  8
0
 62
     5
100
AcDbText
 10
2.256241
 20
6.707888
 30
0.0
 40
0.188
  1
T
 50
270.0
 41
0.9
 72
     5
 11
2.256241
 21
6.595088
 31
0.0
100
AcDbText
  0
CIRCLE
  5
285
330
1E
100
AcDbEntity
  8
0
  6
CONTINUOUS
 62
     5
100
AcDbCircle
 10
1.5
 20
6.202999999999999
 30
0.0
 40
0.4379999999999999
  0
LINE
  5
286
330
1E
100
AcDbEntity
  8
0
  6
CONTINUOUS
 62
     5
100
AcDbLine
 10
1.5
 20
5.377999999999999
 30
0.0
 11
1.5
 21
7.027999999999998
 31
0.0
  0
LINE
  5
287
330
1E
100
AcDbEntity
  8
0
  6
CONTINUOUS
 62
     5
100
AcDbLine
 10
0.312
 20
6.772499999999999
 30
0.0
 11
0.312
 21
6.96375
 31
0.0
  0
LINE
  5
288
330
1E
100
AcDbEntity
  8
0
  6
CONTINUOUS
 62
     5
100
AcDbLine
 10
0.2695
 20
6.6875
 30
0.0
 11
0.3545
 21
6.6875
 31
0.0
  0
LINE
  5
289
330
1E
100
AcDbEntity
  8
0
  6
CONTINUOUS
 62
     5
100
AcDbLine
 10
0.407625
 20
6.6875
 30
0.0
 11
0.5776250000000001
 21
6.6875
 31
0.0
  0
LINE
  5
28A
330
1E
100
AcDbEntity
  8
0
  6
CONTINUOUS
 62
     5
100
AcDbLine
 10
0.0625
 20
6.831338
 30
0.0
 11
0.3125
 21
6.975674999999998
 31
0.0
  0
LINE
  5
28B
330
1E
100
AcDbEntity
  8
0
  6
CONTINUOUS
 62
     5
100
AcDbLine
 10
0.025125
 20
6.6875
 30
0.0
 11
0.216375
 21
6.6875
 31
0.0
  0
LINE
  5
28C
330
1E
100
AcDbEntity
  8
0
  6
CONTINUOUS
 62
     5
100
AcDbLine
 10
-0.84325
 20
6.84375
 30
0.0
 11
-0.8745
 21
6.8125
 31
0.0
  0
LINE
  5
28D
330
1E
100
AcDbEntity
  8
0
  6
HIDDEN
 62
     5
100
AcDbLine
 10
-0.8745
 20
6.8125
 30
0.0
 11
-0.3745
 21
6.8125
 31
0.0
  0
LINE
  5
28E
330
1E
100
AcDbEntity
  8
0
  6
CONTINUOUS
 62
     5
100
AcDbLine
 10
-0.3745
 20
6.84375
 30
0.0
 11
-0.84325
 21
6.84375
 31
0.0
  0
LINE
  5
28F
330
1E
100
AcDbEntity
  8
0
  6
CONTINUOUS
 62
     5
100
AcDbLine
 10
-0.03075
 20
6.976174999999998
 30
0.0
 11
-0.2495
 21
6.976174999999998
 31
0.0
  0
LINE
  5
290
330
1E
100
AcDbEntity
  8
0
  6
CONTINUOUS
 62
     5
100
AcDbLine
 10
-0.2495
 20
6.831838
 30
0.0
 11
-0.03075
 21
6.831838
 31
0.0
  0
LINE
  5
291
330
1E
100
AcDbEntity
  8
0
  6
CONTINUOUS
 62
     5
100
AcDbLine
 10
-0.03075
 20
6.976174999999998
 30
0.0
 11
0.0005
 21
6.9375
 31
0.0
  0
ARC
  5
292
330
1E
100
AcDbEntity
  8
0
  6
CONTINUOUS
 62
     5
100
AcDbCircle
 10
-0.098458
 20
6.904005999999998
 30
0.0
 40
0.098958
100
AcDbArc
 50
313.173554
 51
46.82644899999999
  0
LINE
  5
293
330
1E
100
AcDbEntity
  8
0
  6
CONTINUOUS
 62
     5
100
AcDbLine
 10
0.6245000000000001
 20
7.0
 30
0.0
 11
-0.3755
 21
7.0
 31
0.0
  0
LINE
  5
294
330
1E
100
AcDbEntity
  8
0
  6
CONTINUOUS
 62
     5
100
AcDbLine
 10
0.1255
 20
6.6875
 30
0.0
 11
-1.03075
 21
6.6875
 31
0.0
  0
LINE
  5
295
330
1E
100
AcDbEntity
  8
0
  6
CONTINUOUS
 62
     5
100
AcDbLine
 10
0.312
 20
6.411249999999999
 30
0.0
 11
0.312
 21
6.6025
 31
0.0
  0
LINE
  5
296
330
1E
100
AcDbEntity
  8
0
  6
CONTINUOUS
 62
     5
100
AcDbLine
 10
-0.8745
 20
6.5625
 30
0.0
 11
-0.84325
 21
6.53125
 31
0.0
  0
LINE
  5
297
330
1E
100
AcDbEntity
  8
0
  6
CONTINUOUS
 62
     5
100
AcDbLine
 10
-0.84325
 20
6.53125
 30
0.0
 11
-0.3745
 21
6.53125
 31
0.0
  0
LINE
  5
298
330
1E
100
AcDbEntity
  8
0
  6
HIDDEN
 62
     5
100
AcDbLine
 10
-0.3745
 20
6.5625
 30
0.0
 11
-0.8745
 21
6.5625
 31
0.0
  0
LINE
  5
299
330
1E
100
AcDbEntity
  8
0
  6
CONTINUOUS
 62
     5
100
AcDbLine
 10
-0.03075
 20
6.543162
 30
0.0
 11
-0.2495
 21
6.543162
 31
0.0
  0
LINE
  5
29A
330
1E
100
AcDbEntity
  8
0
  6
CONTINUOUS
 62
     5
100
AcDbLine
 10
-0.2495
 20
6.398825
 30
0.0
 11
-0.03075
 21
6.398825
 31
0.0
  0
LINE
  5
29B
330
1E
100
AcDbEntity
  8
0
  6
CONTINUOUS
 62
     5
100
AcDbLine
 10
-0.03075
 20
6.398825
 30
0.0
 11
0.0005
 21
6.4375
 31
0.0
  0
ARC
  5
29C
330
1E
100
AcDbEntity
  8
0
  6
CONTINUOUS
 62
     5
100
AcDbCircle
 10
-0.098458
 20
6.470994
 30
0.0
 40
0.098958
100
AcDbArc
 50
313.173554
 51
46.82644899999999
  0
LINE
  5
29D
330
1E
100
AcDbEntity
  8
0
  6
CONTINUOUS
 62
     5
100
AcDbLine
 10
0.312
 20
6.655624999999998
 30
0.0
 11
0.312
 21
6.719375
 31
0.0
  0
LINE
  5
29E
330
1E
100
AcDbEntity
  8
0
  6
CONTINUOUS
 62
     5
100
AcDbLine
 10
0.0005
 20
6.4375
 30
0.0
 11
0.0005
 21
6.9375
 31
0.0
  0
CIRCLE
  5
29F
330
1E
100
AcDbEntity
  8
0
  6
CONTINUOUS
 62
     5
100
AcDbCircle
 10
0.313
 20
6.6875
 30
0.0
 40
0.249501
  0
LWPOLYLINE
  5
2A0
330
1E
100
AcDbEntity
  8
0
  6
CONTINUOUS
 62
     5
100
AcDbPolyline
 90
        6
 70
     0
 43
0.0
 10
0.0625
 20
6.831338
 10
0.0625
 20
6.542661999999999
 10
0.3125
 20
6.398324999999998
 10
0.5625
 20
6.542661999999999
 10
0.5625
 20
6.831338
 10
0.3125
 20
6.975674999999998
  0
LINE
  5
2A8
330
1E
100
AcDbEntity
  8
0
  6
CONTINUOUS
 62
     5
100
AcDbLine
 10
-0.8745
 20
6.8125
 30
0.0
 11
-0.8745
 21
6.5625
 31
0.0
  0
LINE
  5
2A9
330
1E
100
AcDbEntity
  8
0
  6
CONTINUOUS
 62
     5
100
AcDbLine
 10
-0.84325
 20
6.84375
 30
0.0
 11
-0.84325
 21
6.53125
 31
0.0
  0
ARC
  5
2AA
330
1E
100
AcDbEntity
  8
0
  6
CONTINUOUS
 62
     5
100
AcDbCircle
 10
-0.348458
 20
6.6875
 30
0.0
 40
0.348958
100
AcDbArc
 50
335.567305
 51
24.432698
  0
CIRCLE
  5
2AB
330
1E
100
AcDbEntity
  8
0
  6
CONTINUOUS
 62
     5
100
AcDbCircle
 10
1.5
 20
6.202999999999999
 30
0.0
 40
0.471
  0
LINE
  5
2AC
330
1E
100
AcDbEntity
  8
0
  6
CONTINUOUS
 62
     5
100
AcDbLine
 10
0.675
 20
6.202999999999999
 30
0.0
 11
2.325
 21
6.202999999999999
 31
0.0
  0
LINE
  5
2AD
330
1E
100
AcDbEntity
  8
0
  6
CONTINUOUS
 62
     5
100
AcDbLine
 10
0.0
 20
7.0
 30
0.0
 11
3.0
 21
7.0
 31
0.0
  0
CIRCLE
  5
2AE
330
1E
100
AcDbEntity
  8
0
  6
CONTINUOUS
 62
     5
100
AcDbCircle
 10
1.5
 20
6.202999999999999
 30
0.0
 40
0.6690000000000002
  0
LINE
  5
2AF
330
1E
100
AcDbEntity
  8
0
  6
CONTINUOUS
 62
     5
100
AcDbLine
 10
6.587999999999999
 20
4.812
 30
0.0
 11
6.815999999999998
 21
4.812
 31
0.0
  0
LINE
  5
2B0
330
1E
100
AcDbEntity
  8
0
  6
CONTINUOUS
 62
     5
100
AcDbLine
 10
5.307
 20
4.812
 30
0.0
 11
5.535
 21
4.812
 31
0.0
  0
TEXT
  5
2B1
330
1E
100
AcDbEntity
  8
0
 62
     5
100
AcDbText
 10
6.764277
 20
2.741878999999998
 30
0.0
 40
0.188
  1
B
 41
0.9
 72
     5
 11
6.877077
 21
2.741878999999998
 31
0.0
100
AcDbText
  0
LINE
  5
2B2
330
1E
100
AcDbEntity
  8
0
  6
CONTINUOUS
 62
     5
100
AcDbLine
 10
5.411999999999999
 20
2.375
 30
0.0
 11
6.837999999999999
 21
2.375
 31
0.0
  0
CIRCLE
  5
2B3
330
1E
100
AcDbEntity
  8
0
  6
CONTINUOUS
 62
     5
100
AcDbCircle
 10
6.125
 20
2.375
 30
0.0
 40
0.4050000000000001
  0
CIRCLE
  5
2B4
330
1E
100
AcDbEntity
  8
0
  6
CONTINUOUS
 62
     5
100
AcDbCircle
 10
6.125
 20
2.375
 30
0.0
 40
0.375
  0
CIRCLE
  5
2B5
330
1E
100
AcDbEntity
  8
0
  6
CONTINUOUS
 62
     5
100
AcDbCircle
 10
6.125
 20
2.375
 30
0.0
 40
0.3439999999999999
  0
ARC
  5
2B6
330
1E
100
AcDbEntity
  8
0
  6
CONTINUOUS
 62
     5
100
AcDbCircle
 10
6.125
 20
2.375
 30
0.0
 40
0.329
100
AcDbArc
 50
85.00000099999999
 51
5.0
  0
CIRCLE
  5
2B7
330
1E
100
AcDbEntity
  8
0
  6
CONTINUOUS
 62
     5
100
AcDbCircle
 10
6.125
 20
2.375
 30
0.0
 40
0.281
  0
CIRCLE
  5
2B8
330
1E
100
AcDbEntity
  8
0
  6
CONTINUOUS
 62
     5
100
AcDbCircle
 10
6.125
 20
2.375
 30
0.0
 40
0.5905000000000002
  0
LINE
  5
2B9
330
1E
100
AcDbEntity
  8
0
  6
CONTINUOUS
 62
     5
100
AcDbLine
 10
6.125
 20
1.661999999999999
 30
0.0
 11
6.125
 21
3.086999999999999
 31
0.0
  0
LINE
  5
2BA
330
1E
100
AcDbEntity
  8
0
  6
CONTINUOUS
 62
     5
100
AcDbLine
 10
4.65625
 20
4.601174999999998
 30
0.0
 11
4.625
 21
4.5625
 31
0.0
  0
ARC
  5
2BB
330
1E
100
AcDbEntity
  8
0
  6
CONTINUOUS
 62
     5
100
AcDbCircle
 10
4.723958
 20
4.529005999999998
 30
0.0
 40
0.098958
100
AcDbArc
 50
133.173552
 51
226.8264509999999
  0
LINE
  5
2BC
330
1E
100
AcDbEntity
  8
0
  6
CONTINUOUS
 62
     5
100
AcDbLine
 10
4.875
 20
4.456837999999998
 30
0.0
 11
4.65625
 21
4.456837999999998
 31
0.0
  0
LINE
  5
2BD
330
1E
100
AcDbEntity
  8
0
  6
CONTINUOUS
 62
     5
100
AcDbLine
 10
4.65625
 20
4.601174999999998
 30
0.0
 11
4.875
 21
4.601174999999998
 31
0.0
  0
LINE
  5
2BE
330
1E
100
AcDbEntity
  8
0
  6
CONTINUOUS
 62
     5
100
AcDbLine
 10
4.65625
 20
4.168162
 30
0.0
 11
4.875
 21
4.168162
 31
0.0
  0
ARC
  5
2BF
330
1E
100
AcDbEntity
  8
0
  6
CONTINUOUS
 62
     5
100
AcDbCircle
 10
4.973958
 20
4.3125
 30
0.0
 40
0.348958
100
AcDbArc
 50
155.567303
 51
204.4327
  0
LINE
  5
2C0
330
1E
100
AcDbEntity
  8
0
  6
CONTINUOUS
 62
     5
100
AcDbLine
 10
4.355
 20
4.3125
 30
0.0
 11
4.269999999999998
 21
4.3125
 31
0.0
  0
LINE
  5
2C1
330
1E
100
AcDbEntity
  8
0
  6
CONTINUOUS
 62
     5
100
AcDbLine
 10
4.3125
 20
4.397499999999999
 30
0.0
 11
4.3125
 21
4.58875
 31
0.0
  0
LINE
  5
2C2
330
1E
100
AcDbEntity
  8
0
  6
CONTINUOUS
 62
     5
100
AcDbLine
 10
4.3125
 20
4.280624999999998
 30
0.0
 11
4.3125
 21
4.344375
 31
0.0
  0
LINE
  5
2C3
330
1E
100
AcDbEntity
  8
0
  6
CONTINUOUS
 62
     5
100
AcDbLine
 10
4.599375
 20
4.3125
 30
0.0
 11
4.408125
 21
4.3125
 31
0.0
  0
LINE
  5
2C4
330
1E
100
AcDbEntity
  8
0
  6
CONTINUOUS
 62
     5
100
AcDbLine
 10
4.564
 20
4.456337999999998
 30
0.0
 11
4.314
 21
4.600674999999998
 31
0.0
  0
LINE
  5
2C5
330
1E
100
AcDbEntity
  8
0
  6
CONTINUOUS
 62
     5
100
AcDbLine
 10
4.875
 20
4.023825
 30
0.0
 11
4.65625
 21
4.023825
 31
0.0
  0
LINE
  5
2C6
330
1E
100
AcDbEntity
  8
0
  6
CONTINUOUS
 62
     5
100
AcDbLine
 10
4.65625
 20
4.023825
 30
0.0
 11
4.625
 21
4.0625
 31
0.0
  0
ARC
  5
2C7
330
1E
100
AcDbEntity
  8
0
  6
CONTINUOUS
 62
     5
100
AcDbCircle
 10
4.723958
 20
4.095994
 30
0.0
 40
0.098958
100
AcDbArc
 50
133.173552
 51
226.8264509999999
  0
LINE
  5
2C8
330
1E
100
AcDbEntity
  8
0
  6
CONTINUOUS
 62
     5
100
AcDbLine
 10
4.625
 20
4.0625
 30
0.0
 11
4.625
 21
4.5625
 31
0.0
  0
LINE
  5
2C9
330
1E
100
AcDbEntity
  8
0
  6
CONTINUOUS
 62
     5
100
AcDbLine
 10
4.3125
 20
4.036249999999999
 30
0.0
 11
4.3125
 21
4.2275
 31
0.0
  0
LINE
  5
2CA
330
1E
100
AcDbEntity
  8
0
  6
CONTINUOUS
 62
     5
100
AcDbLine
 10
4.498999999999998
 20
4.3125
 30
0.0
 11
5.069080999999998
 21
4.3125
 31
0.0
  0
LINE
  5
2CB
330
1E
100
AcDbEntity
  8
0
  6
CONTINUOUS
 62
     5
100
AcDbLine
 10
4.216874999999999
 20
4.3125
 30
0.0
 11
4.046875
 21
4.3125
 31
0.0
  0
LINE
  5
2CC
330
1E
100
AcDbEntity
  8
0
  6
CONTINUOUS
 62
     5
100
AcDbLine
 10
5.0
 20
4.0
 30
0.0
 11
4.0
 21
4.0
 31
0.0
  0
CIRCLE
  5
2CD
330
1E
100
AcDbEntity
  8
0
  6
CONTINUOUS
 62
     5
100
AcDbCircle
 10
4.311499999999998
 20
4.3125
 30
0.0
 40
0.249501
  0
LWPOLYLINE
  5
2CE
330
1E
100
AcDbEntity
  8
0
  6
CONTINUOUS
 62
     5
100
AcDbPolyline
 90
        6
 70
     0
 43
0.0
 10
4.562
 20
4.456337999999998
 10
4.562
 20
4.167661999999999
 10
4.312
 20
4.023324999999998
 10
4.062
 20
4.167661999999999
 10
4.062
 20
4.456337999999998
 10
4.312
 20
4.600674999999998
  0
TEXT
  5
2D6
330
1E
100
AcDbEntity
  8
0
 62
     5
100
AcDbText
 10
6.72261
 20
0.8218009999999999
 30
0.0
 40
0.188
  1
A
 41
0.9
 72
     5
 11
6.83541
 21
0.8218009999999999
 31
0.0
100
AcDbText
  0
LINE
  5
2D7
330
1E
100
AcDbEntity
  8
0
  6
CONTINUOUS
 62
     5
100
AcDbLine
 10
5.349
 20
0.625
 30
0.0
 11
6.775
 21
0.625
 31
0.0
  0
CIRCLE
  5
2D8
330
1E
100
AcDbEntity
  8
0
  6
CONTINUOUS
 62
     5
100
AcDbCircle
 10
6.062
 20
0.625
 30
0.0
 40
0.281
  0
ARC
  5
2D9
330
1E
100
AcDbEntity
  8
0
  6
CONTINUOUS
 62
     5
100
AcDbCircle
 10
6.062
 20
0.625
 30
0.0
 40
0.329
100
AcDbArc
 50
85.00000099999999
 51
5.0
  0
CIRCLE
  5
2DA
330
1E
100
AcDbEntity
  8
0
  6
CONTINUOUS
 62
     5
100
AcDbCircle
 10
6.062
 20
0.625
 30
0.0
 40
0.3439999999999999
  0
CIRCLE
  5
2DB
330
1E
100
AcDbEntity
  8
0
  6
CONTINUOUS
 62
     5
100
AcDbCircle
 10
6.062
 20
0.625
 30
0.0
 40
0.375
  0
CIRCLE
  5
2DC
330
1E
100
AcDbEntity
  8
0
  6
CONTINUOUS
 62
     5
100
AcDbCircle
 10
6.062
 20
0.625
 30
0.0
 40
0.4050000000000001
  0
CIRCLE
  5
2DD
330
1E
100
AcDbEntity
  8
0
  6
CONTINUOUS
 62
     5
100
AcDbCircle
 10
6.062
 20
0.625
 30
0.0
 40
0.5905000000000002
  0
LINE
  5
2DE
330
1E
100
AcDbEntity
  8
0
  6
CONTINUOUS
 62
     5
100
AcDbLine
 10
4.0
 20
-0.375
 30
0.0
 11
4.75
 21
-0.375
 31
0.0
  0
LINE
  5
2DF
330
1E
100
AcDbEntity
  8
0
  6
CONTINUOUS
 62
     5
100
AcDbLine
 10
4.75
 20
-0.25
 30
0.0
 11
4.0
 21
-0.25
 31
0.0
  0
LINE
  5
2E0
330
1E
100
AcDbEntity
  8
0
  6
CONTINUOUS
 62
     5
100
AcDbLine
 10
4.15625
 20
-0.84375
 30
0.0
 11
4.46875
 21
-0.84375
 31
0.0
  0
LINE
  5
2E1
330
1E
100
AcDbEntity
  8
0
  6
CONTINUOUS
 62
     5
100
AcDbLine
 10
4.1875
 20
-0.875
 30
0.0
 11
4.4375
 21
-0.875
 31
0.0
  0
LINE
  5
2E2
330
1E
100
AcDbEntity
  8
0
  6
CONTINUOUS
 62
     5
100
AcDbLine
 10
4.5625
 20
0.0
 30
0.0
 11
4.0625
 21
0.0
 31
0.0
  0
ARC
  5
2E3
330
1E
100
AcDbEntity
  8
0
  6
CONTINUOUS
 62
     5
100
AcDbCircle
 10
4.3125
 20
-0.348958
 30
0.0
 40
0.348958
100
AcDbArc
 50
65.56730300000001
 51
114.4326989999999
  0
LINE
  5
2E4
330
1E
100
AcDbEntity
  8
0
  6
CONTINUOUS
 62
     5
100
AcDbLine
 10
4.3125
 20
0.125
 30
0.0
 11
4.3125
 21
-1.03125
 31
0.0
  0
LINE
  5
2E5
330
1E
100
AcDbEntity
  8
0
  6
HIDDEN
 62
     5
100
AcDbLine
 10
4.1875
 20
-0.875
 30
0.0
 11
4.1875
 21
-0.375
 31
0.0
  0
LINE
  5
2E6
330
1E
100
AcDbEntity
  8
0
  6
CONTINUOUS
 62
     5
100
AcDbLine
 10
4.15625
 20
-0.375
 30
0.0
 11
4.15625
 21
-0.84375
 31
0.0
  0
LINE
  5
2E7
330
1E
100
AcDbEntity
  8
0
  6
CONTINUOUS
 62
     5
100
AcDbLine
 10
4.15625
 20
-0.84375
 30
0.0
 11
4.1875
 21
-0.875
 31
0.0
  0
LINE
  5
2E8
330
1E
100
AcDbEntity
  8
0
  6
CONTINUOUS
 62
     5
100
AcDbLine
 10
4.0
 20
-0.25
 30
0.0
 11
4.0
 21
-0.375
 31
0.0
  0
ARC
  5
2E9
330
1E
100
AcDbEntity
  8
0
  6
CONTINUOUS
 62
     5
100
AcDbCircle
 10
4.095994
 20
-0.098958
 30
0.0
 40
0.098958
100
AcDbArc
 50
43.17355100000001
 51
136.8264499999999
  0
LINE
  5
2EA
330
1E
100
AcDbEntity
  8
0
  6
CONTINUOUS
 62
     5
100
AcDbLine
 10
4.023825
 20
-0.03125
 30
0.0
 11
4.023825
 21
-0.25
 31
0.0
  0
LINE
  5
2EB
330
1E
100
AcDbEntity
  8
0
  6
CONTINUOUS
 62
     5
100
AcDbLine
 10
4.023825
 20
-0.03125
 30
0.0
 11
4.0625
 21
0.0
 31
0.0
  0
LINE
  5
2EC
330
1E
100
AcDbEntity
  8
0
  6
CONTINUOUS
 62
     5
100
AcDbLine
 10
4.168162
 20
-0.25
 30
0.0
 11
4.168162
 21
-0.03125
 31
0.0
  0
LINE
  5
2ED
330
1E
100
AcDbEntity
  8
0
  6
CONTINUOUS
 62
     5
100
AcDbLine
 10
5.0
 20
-0.125
 30
0.0
 11
5.0
 21
0.625
 31
0.0
  0
LINE
  5
2EE
330
1E
100
AcDbEntity
  8
0
  6
CONTINUOUS
 62
     5
100
AcDbLine
 10
4.875
 20
0.625
 30
0.0
 11
4.875
 21
-0.125
 31
0.0
  0
LINE
  5
2EF
330
1E
100
AcDbEntity
  8
0
  6
HIDDEN
 62
     5
100
AcDbLine
 10
4.4375
 20
-0.375
 30
0.0
 11
4.4375
 21
-0.875
 31
0.0
  0
LINE
  5
2F0
330
1E
100
AcDbEntity
  8
0
  6
CONTINUOUS
 62
     5
100
AcDbLine
 10
4.46875
 20
-0.84375
 30
0.0
 11
4.46875
 21
-0.375
 31
0.0
  0
LINE
  5
2F1
330
1E
100
AcDbEntity
  8
0
  6
CONTINUOUS
 62
     5
100
AcDbLine
 10
4.4375
 20
-0.875
 30
0.0
 11
4.46875
 21
-0.84375
 31
0.0
  0
ARC
  5
2F2
330
1E
100
AcDbEntity
  8
0
  6
CONTINUOUS
 62
     5
100
AcDbCircle
 10
4.75
 20
-0.125
 30
0.0
 40
0.25
100
AcDbArc
 50
270.000002
 51
0.0
  0
ARC
  5
2F3
330
1E
100
AcDbEntity
  8
0
  6
CONTINUOUS
 62
     5
100
AcDbCircle
 10
4.75
 20
-0.125
 30
0.0
 40
0.125
100
AcDbArc
 50
270.000002
 51
0.0
  0
LINE
  5
2F4
330
1E
100
AcDbEntity
  8
0
  6
CONTINUOUS
 62
     5
100
AcDbLine
 10
4.456837999999998
 20
-0.03125
 30
0.0
 11
4.456837999999998
 21
-0.25
 31
0.0
  0
LINE
  5
2F5
330
1E
100
AcDbEntity
  8
0
  6
CONTINUOUS
 62
     5
100
AcDbLine
 10
4.601174999999998
 20
-0.25
 30
0.0
 11
4.601174999999998
 21
-0.03125
 31
0.0
  0
ARC
  5
2F6
330
1E
100
AcDbEntity
  8
0
  6
CONTINUOUS
 62
     5
100
AcDbCircle
 10
4.529005999999998
 20
-0.098958
 30
0.0
 40
0.098958
100
AcDbArc
 50
43.17355100000001
 51
136.8264499999999
  0
LINE
  5
2F7
330
1E
100
AcDbEntity
  8
0
  6
CONTINUOUS
 62
     5
100
AcDbLine
 10
4.601174999999998
 20
-0.03125
 30
0.0
 11
4.5625
 21
0.0
 31
0.0
  0
LINE
  5
2F8
330
1E
100
AcDbEntity
  8
0
  6
CONTINUOUS
 62
     5
100
AcDbLine
 10
4.875
 20
0.168162
 30
0.0
 11
4.65625
 21
0.168162
 31
0.0
  0
LINE
  5
2F9
330
1E
100
AcDbEntity
  8
0
  6
CONTINUOUS
 62
     5
100
AcDbLine
 10
4.65625
 20
0.023825
 30
0.0
 11
4.875
 21
0.023825
 31
0.0
  0
LINE
  5
2FA
330
1E
100
AcDbEntity
  8
0
  6
CONTINUOUS
 62
     5
100
AcDbLine
 10
4.65625
 20
0.4568380000000002
 30
0.0
 11
4.875
 21
0.4568380000000002
 31
0.0
  0
LINE
  5
2FB
330
1E
100
AcDbEntity
  8
0
  6
CONTINUOUS
 62
     5
100
AcDbLine
 10
4.875
 20
0.6011750000000001
 30
0.0
 11
4.65625
 21
0.6011750000000001
 31
0.0
  0
ARC
  5
2FC
330
1E
100
AcDbEntity
  8
0
  6
CONTINUOUS
 62
     5
100
AcDbCircle
 10
4.973958
 20
0.3125
 30
0.0
 40
0.348958
100
AcDbArc
 50
155.567303
 51
204.4327
  0
LINE
  5
2FD
330
1E
100
AcDbEntity
  8
0
  6
CONTINUOUS
 62
     5
100
AcDbLine
 10
4.625
 20
0.5625
 30
0.0
 11
4.625
 21
0.0625
 31
0.0
  0
LINE
  5
2FE
330
1E
100
AcDbEntity
  8
0
  6
CONTINUOUS
 62
     5
100
AcDbLine
 10
4.65625
 20
0.023825
 30
0.0
 11
4.625
 21
0.0625
 31
0.0
  0
ARC
  5
2FF
330
1E
100
AcDbEntity
  8
0
  6
CONTINUOUS
 62
     5
100
AcDbCircle
 10
4.723958
 20
0.095994
 30
0.0
 40
0.098958
100
AcDbArc
 50
133.173552
 51
226.8264509999999
  0
LINE
  5
300
330
1E
100
AcDbEntity
  8
0
  6
CONTINUOUS
 62
     5
100
AcDbLine
 10
4.65625
 20
0.6011750000000001
 30
0.0
 11
4.625
 21
0.5625
 31
0.0
  0
ARC
  5
301
330
1E
100
AcDbEntity
  8
0
  6
CONTINUOUS
 62
     5
100
AcDbCircle
 10
4.723958
 20
0.5290060000000001
 30
0.0
 40
0.098958
100
AcDbArc
 50
133.173552
 51
226.8264509999999
  0
LINE
  5
302
330
1E
100
AcDbEntity
  8
0
  6
CONTINUOUS
 62
     5
100
AcDbLine
 10
5.0
 20
0.625
 30
0.0
 11
4.875
 21
0.625
 31
0.0
  0
LINE
  5
303
330
1E
100
AcDbEntity
  8
0
  6
CONTINUOUS
 62
     5
100
AcDbLine
 10
4.5
 20
0.3125
 30
0.0
 11
5.375
 21
0.3125
 31
0.0
  0
LINE
  5
304
330
1E
100
AcDbEntity
  8
0
  6
CONTINUOUS
 62
     5
100
AcDbLine
 10
6.062
 20
-0.088
 30
0.0
 11
6.062
 21
1.336999999999998
 31
0.0
  0
LINE
  5
305
330
1E
100
AcDbEntity
  8
0
  6
CONTINUOUS
 62
     5
100
AcDbLine
 10
5.0
 20
0.0
 30
0.0
 11
5.0
 21
3.0
 31
0.0
  0
LINE
  5
306
330
1E
100
AcDbEntity
  8
0
  6
CONTINUOUS
 62
     5
100
AcDbLine
 10
7.125
 20
0.9099999999999999
 30
0.0
 11
7.125
 21
2.089999999999998
 31
0.0
  0
TEXT
  5
307
330
1E
100
AcDbEntity
  8
0
 62
     5
100
AcDbText
 10
2.256241
 20
4.259942999999998
 30
0.0
 40
0.188
  1
P
 50
270.0
 41
0.9
 72
     5
 11
2.256241
 21
4.147142999999998
 31
0.0
100
AcDbText
  0
LINE
  5
308
330
1E
100
AcDbEntity
  8
0
  6
CONTINUOUS
 62
     5
100
AcDbLine
 10
0.2695
 20
4.3125
 30
0.0
 11
0.3545
 21
4.3125
 31
0.0
  0
LINE
  5
309
330
1E
100
AcDbEntity
  8
0
  6
CONTINUOUS
 62
     5
100
AcDbLine
 10
0.312
 20
4.397499999999999
 30
0.0
 11
0.312
 21
4.58875
 31
0.0
  0
LINE
  5
30A
330
1E
100
AcDbEntity
  8
0
  6
CONTINUOUS
 62
     5
100
AcDbLine
 10
0.312
 20
4.280624999999998
 30
0.0
 11
0.312
 21
4.344375
 31
0.0
  0
LINE
  5
30B
330
1E
100
AcDbEntity
  8
0
  6
CONTINUOUS
 62
     5
100
AcDbLine
 10
0.407625
 20
4.3125
 30
0.0
 11
0.5776250000000001
 21
4.3125
 31
0.0
  0
LINE
  5
30C
330
1E
100
AcDbEntity
  8
0
  6
CONTINUOUS
 62
     5
100
AcDbLine
 10
0.025125
 20
4.3125
 30
0.0
 11
0.216375
 21
4.3125
 31
0.0
  0
LINE
  5
30D
330
1E
100
AcDbEntity
  8
0
  6
CONTINUOUS
 62
     5
100
AcDbLine
 10
0.0625
 20
4.456337999999998
 30
0.0
 11
0.3125
 21
4.600674999999998
 31
0.0
  0
LINE
  5
30E
330
1E
100
AcDbEntity
  8
0
  6
CONTINUOUS
 62
     5
100
AcDbLine
 10
0.312
 20
4.036249999999999
 30
0.0
 11
0.312
 21
4.2275
 31
0.0
  0
LINE
  5
30F
330
1E
100
AcDbEntity
  8
0
  6
CONTINUOUS
 62
     5
100
AcDbLine
 10
0.0005
 20
4.0625
 30
0.0
 11
0.0005
 21
4.5625
 31
0.0
  0
CIRCLE
  5
310
330
1E
100
AcDbEntity
  8
0
  6
CONTINUOUS
 62
     5
100
AcDbCircle
 10
0.313
 20
4.3125
 30
0.0
 40
0.249501
  0
LWPOLYLINE
  5
311
330
1E
100
AcDbEntity
  8
0
  6
CONTINUOUS
 62
     5
100
AcDbPolyline
 90
        6
 70
     0
 43
0.0
 10
0.0625
 20
4.456337999999998
 10
0.0625
 20
4.167661999999999
 10
0.3125
 20
4.023324999999998
 10
0.5625
 20
4.167661999999999
 10
0.5625
 20
4.456337999999998
 10
0.3125
 20
4.600674999999998
  0
LINE
  5
319
330
1E
100
AcDbEntity
  8
0
  6
CONTINUOUS
 62
     5
100
AcDbLine
 10
-0.84325
 20
4.46875
 30
0.0
 11
-0.8745
 21
4.4375
 31
0.0
  0
LINE
  5
31A
330
1E
100
AcDbEntity
  8
0
  6
CONTINUOUS
 62
     5
100
AcDbLine
 10
-0.8745
 20
4.1875
 30
0.0
 11
-0.84325
 21
4.15625
 31
0.0
  0
LINE
  5
31B
330
1E
100
AcDbEntity
  8
0
  6
CONTINUOUS
 62
     5
100
AcDbLine
 10
-0.8745
 20
4.4375
 30
0.0
 11
-0.8745
 21
4.1875
 31
0.0
  0
LINE
  5
31C
330
1E
100
AcDbEntity
  8
0
  6
CONTINUOUS
 62
     5
100
AcDbLine
 10
-0.84325
 20
4.46875
 30
0.0
 11
-0.84325
 21
4.15625
 31
0.0
  0
LINE
  5
31D
330
1E
100
AcDbEntity
  8
0
  6
HIDDEN
 62
     5
100
AcDbLine
 10
-0.8745
 20
4.4375
 30
0.0
 11
-0.3745
 21
4.4375
 31
0.0
  0
LINE
  5
31E
330
1E
100
AcDbEntity
  8
0
  6
CONTINUOUS
 62
     5
100
AcDbLine
 10
-0.3745
 20
4.46875
 30
0.0
 11
-0.84325
 21
4.46875
 31
0.0
  0
LINE
  5
31F
330
1E
100
AcDbEntity
  8
0
  6
HIDDEN
 62
     5
100
AcDbLine
 10
-0.3745
 20
4.1875
 30
0.0
 11
-0.8745
 21
4.1875
 31
0.0
  0
LINE
  5
320
330
1E
100
AcDbEntity
  8
0
  6
CONTINUOUS
 62
     5
100
AcDbLine
 10
-0.84325
 20
4.15625
 30
0.0
 11
-0.3745
 21
4.15625
 31
0.0
  0
LINE
  5
321
330
1E
100
AcDbEntity
  8
0
  6
CONTINUOUS
 62
     5
100
AcDbLine
 10
-0.2495
 20
4.456837999999998
 30
0.0
 11
-0.03075
 21
4.456837999999998
 31
0.0
  0
LINE
  5
322
330
1E
100
AcDbEntity
  8
0
  6
CONTINUOUS
 62
     5
100
AcDbLine
 10
-0.03075
 20
4.601174999999998
 30
0.0
 11
-0.2495
 21
4.601174999999998
 31
0.0
  0
LINE
  5
323
330
1E
100
AcDbEntity
  8
0
  6
CONTINUOUS
 62
     5
100
AcDbLine
 10
-0.03075
 20
4.168162
 30
0.0
 11
-0.2495
 21
4.168162
 31
0.0
  0
LINE
  5
324
330
1E
100
AcDbEntity
  8
0
  6
CONTINUOUS
 62
     5
100
AcDbLine
 10
-0.2495
 20
4.023825
 30
0.0
 11
-0.03075
 21
4.023825
 31
0.0
  0
LINE
  5
325
330
1E
100
AcDbEntity
  8
0
  6
CONTINUOUS
 62
     5
100
AcDbLine
 10
-0.03075
 20
4.601174999999998
 30
0.0
 11
0.0005
 21
4.5625
 31
0.0
  0
ARC
  5
326
330
1E
100
AcDbEntity
  8
0
  6
CONTINUOUS
 62
     5
100
AcDbCircle
 10
-0.098458
 20
4.529005999999998
 30
0.0
 40
0.098958
100
AcDbArc
 50
313.173554
 51
46.82644899999999
  0
ARC
  5
327
330
1E
100
AcDbEntity
  8
0
  6
CONTINUOUS
 62
     5
100
AcDbCircle
 10
-0.348458
 20
4.3125
 30
0.0
 40
0.348958
100
AcDbArc
 50
335.567305
 51
24.432698
  0
LINE
  5
328
330
1E
100
AcDbEntity
  8
0
  6
CONTINUOUS
 62
     5
100
AcDbLine
 10
0.1255
 20
4.3125
 30
0.0
 11
-1.03075
 21
4.3125
 31
0.0
  0
LINE
  5
329
330
1E
100
AcDbEntity
  8
0
  6
CONTINUOUS
 62
     5
100
AcDbLine
 10
-0.3755
 20
4.0
 30
0.0
 11
0.6245000000000001
 21
4.0
 31
0.0
  0
LINE
  5
32A
330
1E
100
AcDbEntity
  8
0
  6
CONTINUOUS
 62
     5
100
AcDbLine
 10
-0.03075
 20
4.023825
 30
0.0
 11
0.0005
 21
4.0625
 31
0.0
  0
ARC
  5
32B
330
1E
100
AcDbEntity
  8
0
  6
CONTINUOUS
 62
     5
100
AcDbCircle
 10
-0.098458
 20
4.095994
 30
0.0
 40
0.098958
100
AcDbArc
 50
313.173554
 51
46.82644899999999
  0
LINE
  5
32C
330
1E
100
AcDbEntity
  8
0
  6
CONTINUOUS
 62
     5
100
AcDbLine
 10
0.675
 20
4.796999999999998
 30
0.0
 11
2.325
 21
4.796999999999998
 31
0.0
  0
LINE
  5
32D
330
1E
100
AcDbEntity
  8
0
  6
CONTINUOUS
 62
     5
100
AcDbLine
 10
3.0
 20
4.0
 30
0.0
 11
0.0
 21
4.0
 31
0.0
  0
CIRCLE
  5
32E
330
1E
100
AcDbEntity
  8
0
  6
CONTINUOUS
 62
     5
100
AcDbCircle
 10
6.701999999999999
 20
4.812
 30
0.0
 40
0.075
  0
ARC
  5
32F
330
1E
100
AcDbEntity
  8
4
  6
CONTINUOUS
 62
     5
100
AcDbCircle
 10
6.701999999999999
 20
4.812
 30
0.0
 40
0.087
100
AcDbArc
 50
85.00000099999999
 51
5.0
  0
CIRCLE
  5
330
330
1E
100
AcDbEntity
  8
0
  6
CONTINUOUS
 62
     5
100
AcDbCircle
 10
6.701999999999999
 20
4.812
 30
0.0
 40
0.095
  0
LINE
  5
331
330
1E
100
AcDbEntity
  8
0
  6
CONTINUOUS
 62
     5
100
AcDbLine
 10
6.701999999999999
 20
4.698
 30
0.0
 11
6.701999999999999
 21
4.926
 31
0.0
  0
ARC
  5
332
330
1E
100
AcDbEntity
  8
4
  6
CONTINUOUS
 62
     5
100
AcDbCircle
 10
5.421
 20
4.812
 30
0.0
 40
0.087
100
AcDbArc
 50
85.00000099999999
 51
5.0
  0
CIRCLE
  5
333
330
1E
100
AcDbEntity
  8
0
  6
CONTINUOUS
 62
     5
100
AcDbCircle
 10
5.421
 20
4.812
 30
0.0
 40
0.075
  0
CIRCLE
  5
334
330
1E
100
AcDbEntity
  8
0
  6
CONTINUOUS
 62
     5
100
AcDbCircle
 10
5.421
 20
4.812
 30
0.0
 40
0.095
  0
LINE
  5
335
330
1E
100
AcDbEntity
  8
0
  6
CONTINUOUS
 62
     5
100
AcDbLine
 10
5.421
 20
4.698
 30
0.0
 11
5.421
 21
4.926
 31
0.0
  0
CIRCLE
  5
336
330
1E
100
AcDbEntity
  8
0
  6
CONTINUOUS
 62
     5
100
AcDbCircle
 10
1.5
 20
4.796999999999998
 30
0.0
 40
0.308
  0
ARC
  5
337
330
1E
100
AcDbEntity
  8
4
  6
CONTINUOUS
 62
     5
100
AcDbCircle
 10
1.5
 20
4.796999999999998
 30
0.0
 40
0.361
100
AcDbArc
 50
85.00000099999999
 51
5.0
  0
CIRCLE
  5
338
330
1E
100
AcDbEntity
  8
0
  6
CONTINUOUS
 62
     5
100
AcDbCircle
 10
1.5
 20
4.796999999999998
 30
0.0
 40
0.4060000000000001
  0
CIRCLE
  5
339
330
1E
100
AcDbEntity
  8
0
  6
CONTINUOUS
 62
     5
100
AcDbCircle
 10
1.5
 20
4.796999999999998
 30
0.0
 40
0.4379999999999999
  0
CIRCLE
  5
33A
330
1E
100
AcDbEntity
  8
0
  6
CONTINUOUS
 62
     5
100
AcDbCircle
 10
1.5
 20
4.796999999999998
 30
0.0
 40
0.471
  0
CIRCLE
  5
33B
330
1E
100
AcDbEntity
  8
0
  6
CONTINUOUS
 62
     5
100
AcDbCircle
 10
1.5
 20
4.796999999999998
 30
0.0
 40
0.6690000000000002
  0
LINE
  5
33C
330
1E
100
AcDbEntity
  8
0
  6
CONTINUOUS
 62
     5
100
AcDbLine
 10
4.875
 20
7.0
 30
0.0
 11
4.875
 21
4.0
 31
0.0
  0
LINE
  5
33D
330
1E
100
AcDbEntity
  8
0
  6
CONTINUOUS
 62
     5
100
AcDbLine
 10
5.0
 20
7.0
 30
0.0
 11
5.0
 21
4.0
 31
0.0
  0
LINE
  5
33E
330
1E
100
AcDbEntity
  8
0
  6
CONTINUOUS
 62
     5
100
AcDbLine
 10
4.0
 20
4.0
 30
0.0
 11
4.0
 21
7.0
 31
0.0
  0
LINE
  5
33F
330
1E
100
AcDbEntity
  8
0
  6
CONTINUOUS
 62
     5
100
AcDbLine
 10
3.0
 20
7.0
 30
0.0
 11
3.0
 21
4.0
 31
0.0
  0
LINE
  5
340
330
1E
100
AcDbEntity
  8
0
  6
CONTINUOUS
 62
     5
100
AcDbLine
 10
1.5
 20
3.971999999999998
 30
0.0
 11
1.5
 21
5.621999999999998
 31
0.0
  0
LINE
  5
341
330
1E
100
AcDbEntity
  8
0
  6
CONTINUOUS
 62
     5
100
AcDbLine
 10
-0.3755
 20
7.0
 30
0.0
 11
-0.3755
 21
4.0
 31
0.0
  0
LINE
  5
342
330
1E
100
AcDbEntity
  8
0
  6
CONTINUOUS
 62
     5
100
AcDbLine
 10
-0.2555
 20
7.0
 30
0.0
 11
-0.2555
 21
4.0
 31
0.0
  0
LINE
  5
343
330
1E
100
AcDbEntity
  8
0
  6
CONTINUOUS
 62
     5
100
AcDbLine
 10
0.6245000000000001
 20
4.0
 30
0.0
 11
0.6245000000000001
 21
7.0
 31
0.0
  0
LINE
  5
344
330
1E
100
AcDbEntity
  8
0
  6
HIDDEN
 62
     5
100
AcDbLine
 10
0.0
 20
4.0
 30
0.0
 11
0.0
 21
7.0
 31
0.0
  0
CIRCLE
  5
345
330
1E
100
AcDbEntity
  8
0
  6
CONTINUOUS
 62
     5
100
AcDbCircle
 10
7.125
 20
9.9375
 30
0.0
 40
0.282
  0
ARC
  5
346
330
1E
100
AcDbEntity
  8
0
  6
CONTINUOUS
 62
     5
100
AcDbCircle
 10
7.125
 20
9.9375
 30
0.0
 40
0.329
100
AcDbArc
 50
85.00000099999999
 51
5.0
  0
CIRCLE
  5
347
330
1E
100
AcDbEntity
  8
0
  6
CONTINUOUS
 62
     5
100
AcDbCircle
 10
7.125
 20
9.9375
 30
0.0
 40
0.3439999999999999
  0
CIRCLE
  5
348
330
1E
100
AcDbEntity
  8
0
  6
CONTINUOUS
 62
     5
100
AcDbCircle
 10
7.125
 20
9.9375
 30
0.0
 40
0.367
  0
CIRCLE
  5
349
330
1E
100
AcDbEntity
  8
0
  6
CONTINUOUS
 62
     5
100
AcDbCircle
 10
7.125
 20
9.9375
 30
0.0
 40
0.3939999999999999
  0
CIRCLE
  5
34A
330
1E
100
AcDbEntity
  8
0
  6
CONTINUOUS
 62
     5
100
AcDbCircle
 10
7.125
 20
9.9375
 30
0.0
 40
0.4070000000000001
  0
LINE
  5
34B
330
1E
100
AcDbEntity
  8
0
  6
CONTINUOUS
 62
     5
100
AcDbLine
 10
6.607999999999998
 20
9.9375
 30
0.0
 11
7.642
 21
9.9375
 31
0.0
  0
CIRCLE
  5
34C
330
1E
100
AcDbEntity
  8
0
  6
CONTINUOUS
 62
     5
100
AcDbCircle
 10
7.125
 20
9.9375
 30
0.0
 40
0.431
  0
CIRCLE
  5
34D
330
1E
100
AcDbEntity
  8
0
  6
CONTINUOUS
 62
     5
100
AcDbCircle
 10
7.125
 20
1.5
 30
0.0
 40
0.242
  0
CIRCLE
  5
34E
330
1E
100
AcDbEntity
  8
0
  6
CONTINUOUS
 62
     5
100
AcDbCircle
 10
7.125
 20
1.5
 30
0.0
 40
0.254
  0
ARC
  5
34F
330
1E
100
AcDbEntity
  8
0
  6
CONTINUOUS
 62
     5
100
AcDbCircle
 10
7.125
 20
1.5
 30
0.0
 40
0.283
100
AcDbArc
 50
85.00000099999999
 51
5.0
  0
CIRCLE
  5
350
330
1E
100
AcDbEntity
  8
0
  6
CONTINUOUS
 62
     5
100
AcDbCircle
 10
7.125
 20
1.5
 30
0.0
 40
0.281
  0
CIRCLE
  5
351
330
1E
100
AcDbEntity
  8
0
  6
CONTINUOUS
 62
     5
100
AcDbCircle
 10
7.125
 20
1.5
 30
0.0
 40
0.307
  0
LINE
  5
352
330
1E
100
AcDbEntity
  8
0
  6
CONTINUOUS
 62
     5
100
AcDbLine
 10
6.535
 20
1.5
 30
0.0
 11
7.714999999999998
 21
1.5
 31
0.0
  0
CIRCLE
  5
353
330
1E
100
AcDbEntity
  8
0
  6
CONTINUOUS
 62
     5
100
AcDbCircle
 10
7.125
 20
1.5
 30
0.0
 40
0.4920000000000001
  0
LINE
  5
354
330
1E
100
AcDbEntity
  8
0
  6
CONTINUOUS
 62
     5
100
AcDbLine
 10
5.0
 20
7.9995
 30
0.0
 11
9.25
 21
7.9995
 31
0.0
  0
LINE
  5
355
330
1E
100
AcDbEntity
  8
0
  6
CONTINUOUS
 62
     5
100
AcDbLine
 10
9.25
 20
7.0
 30
0.0
 11
5.0
 21
7.0
 31
0.0
  0
LINE
  5
356
330
1E
100
AcDbEntity
  8
0
  6
CONTINUOUS
 62
     5
100
AcDbLine
 10
5.0
 20
3.0
 30
0.0
 11
9.25
 21
3.0
 31
0.0
  0
LINE
  5
357
330
1E
100
AcDbEntity
  8
0
  6
CONTINUOUS
 62
     5
100
AcDbLine
 10
9.25
 20
0.0
 30
0.0
 11
5.0
 21
0.0
 31
0.0
  0
LINE
  5
358
330
1E
100
AcDbEntity
  8
0
  6
CONTINUOUS
 62
     5
100
AcDbLine
 10
5.0
 20
4.0
 30
0.0
 11
9.25
 21
4.0
 31
0.0
  0
LINE
  5
359
330
1E
100
AcDbEntity
  8
0
  6
CONTINUOUS
 62
     5
100
AcDbLine
 10
9.25
 20
10.99949999999999
 30
0.0
 11
5.0
 21
10.99949999999999
 31
0.0
  0
MTEXT
  5
387
330
1E
100
AcDbEntity
  8
0
  6
CONTINUOUS
100
AcDbMText
 10
7.206923752495391
 20
2.212547373401342
 30
0.0
 40
0.2
 41
0.4184000000000001
 71
     1
 72
     5
  1
GA
1001
ACAD
1000
MTEXTBEGIN
1070
    73
1070
     1
1070
    44
1040
1.0
1070
    74
1070
     0
1000
MTEXTEND
  0
ENDSEC
  0
SECTION
  2
OBJECTS
  0
DICTIONARY
  5
C
330
0
100
AcDbDictionary
  3
ACAD_GROUP
350
D
  3
ACAD_LAYOUT
350
19
  3
ACAD_MLINESTYLE
350
16
  3
ACAD_PLOTSETTINGS
350
18
  3
ACAD_PLOTSTYLENAME
350
E
  3
ACDBHEADERROUNDTRIPXREC
350
389
  0
DICTIONARY
  5
37F
330
1E
100
AcDbDictionary
280
     1
  3
ACAD_LAYOUTSELFREF
360
3AA
  0
DICTIONARY
  5
37D
330
1A
100
AcDbDictionary
280
     1
  3
ACAD_LAYOUTSELFREF
360
3A9
  0
DICTIONARY
  5
D
102
{ACAD_REACTORS
330
C
102
}
330
C
100
AcDbDictionary
  0
DICTIONARY
  5
19
102
{ACAD_REACTORS
330
C
102
}
330
C
100
AcDbDictionary
  0
DICTIONARY
  5
16
102
{ACAD_REACTORS
330
C
102
}
330
C
100
AcDbDictionary
  3
STANDARD
350
17
  0
DICTIONARY
  5
18
102
{ACAD_REACTORS
330
C
102
}
330
C
100
AcDbDictionary
  0
ACDBDICTIONARYWDFLT
  5
E
102
{ACAD_REACTORS
330
C
102
}
330
C
100
AcDbDictionary
281
     1
  3
Normal
350
F
100
AcDbDictionaryWithDefault
340
F
  0
DICTIONARY
  5
389
102
{ACAD_REACTORS
330
C
102
}
330
C
100
AcDbDictionary
  3
CEPSNTYPE
350
393
  3
FINGERPRINTGUID
350
394
  3
HYPERLINKBASE
350
38C
  3
INSUNITS
350
392
  3
LAYOUTDICT
350
38E
  3
LWETCUNION
350
391
  3
PLOTSETDICT
350
38F
  3
PLOTSTYLNAMDICT
350
390
  3
PSVPSCALE
350
396
  3
PUCSBASE
350
399
  3
PUCSORGBACK
350
39F
  3
PUCSORGBOTTOM
350
39B
  3
PUCSORGFRONT
350
39E
  3
PUCSORGLEFT
350
39C
  3
PUCSORGRIGHT
350
39D
  3
PUCSORGTOP
350
39A
  3
PUCSORTHOREF
350
397
  3
PUCSORTHOVIEW
350
398
  3
STYLESHEET
350
38D
  3
TSTACKALIGN
350
38A
  3
TSTACKSIZE
350
38B
  3
UCSBASE
350
3A2
  3
UCSORGBACK
350
3A8
  3
UCSORGBOTTOM
350
3A4
  3
UCSORGFRONT
350
3A7
  3
UCSORGLEFT
350
3A5
  3
UCSORGRIGHT
350
3A6
  3
UCSORGTOP
350
3A3
  3
UCSORTHOREF
350
3A0
  3
UCSORTHOVIEW
350
3A1
  3
VERSIONGUID
350
395
  0
XRECORD
  5
3AA
102
{ACAD_REACTORS
330
37F
102
}
330
37F
100
AcDbXrecord
340
1E
  0
XRECORD
  5
3A9
102
{ACAD_REACTORS
330
37D
102
}
330
37D
100
AcDbXrecord
340
1A
  0
MLINESTYLE
  5
17
102
{ACAD_REACTORS
330
16
102
}
330
16
100
AcDbMlineStyle
  2
STANDARD
 70
     0
  3

 62
   256
 51
90.0
 52
90.0
 71
     2
 49
0.5
 62
   256
  6
BYLAYER
 49
-0.5
 62
   256
  6
BYLAYER
  0
ACDBPLACEHOLDER
  5
F
102
{ACAD_REACTORS
330
E
102
}
330
E
100
AcDbPlaceHolder
280
     0
  0
XRECORD
  5
393
102
{ACAD_REACTORS
330
389
102
}
330
389
100
AcDbXrecord
 90
        0
  0
XRECORD
  5
394
102
{ACAD_REACTORS
330
389
102
}
330
389
100
AcDbXrecord
  1
{E7DAC402-7067-48A1-AB07-79497DE10DAA}
  0
XRECORD
  5
38C
102
{ACAD_REACTORS
330
389
102
}
330
389
100
AcDbXrecord
  1

  0
XRECORD
  5
392
102
{ACAD_REACTORS
330
389
102
}
330
389
100
AcDbXrecord
 90
        0
  0
XRECORD
  5
38E
102
{ACAD_REACTORS
330
389
102
}
330
389
100
AcDbXrecord
340
19
  0
XRECORD
  5
391
102
{ACAD_REACTORS
330
389
102
}
330
389
100
AcDbXrecord
 90
    10781
  0
XRECORD
  5
38F
102
{ACAD_REACTORS
330
389
102
}
330
389
100
AcDbXrecord
340
18
  0
XRECORD
  5
390
102
{ACAD_REACTORS
330
389
102
}
330
389
100
AcDbXrecord
340
E
  0
XRECORD
  5
396
102
{ACAD_REACTORS
330
389
102
}
330
389
100
AcDbXrecord
 40
0.0
  0
XRECORD
  5
399
102
{ACAD_REACTORS
330
389
102
}
330
389
100
AcDbXrecord
340
0
  0
XRECORD
  5
39F
102
{ACAD_REACTORS
330
389
102
}
330
389
100
AcDbXrecord
 10
0.0
 20
0.0
 30
0.0
  0
XRECORD
  5
39B
102
{ACAD_REACTORS
330
389
102
}
330
389
100
AcDbXrecord
 10
0.0
 20
0.0
 30
0.0
  0
XRECORD
  5
39E
102
{ACAD_REACTORS
330
389
102
}
330
389
100
AcDbXrecord
 10
0.0
 20
0.0
 30
0.0
  0
XRECORD
  5
39C
102
{ACAD_REACTORS
330
389
102
}
330
389
100
AcDbXrecord
 10
0.0
 20
0.0
 30
0.0
  0
XRECORD
  5
39D
102
{ACAD_REACTORS
330
389
102
}
330
389
100
AcDbXrecord
 10
0.0
 20
0.0
 30
0.0
  0
XRECORD
  5
39A
102
{ACAD_REACTORS
330
389
102
}
330
389
100
AcDbXrecord
 10
0.0
 20
0.0
 30
0.0
  0
XRECORD
  5
397
102
{ACAD_REACTORS
330
389
102
}
330
389
100
AcDbXrecord
340
0
  0
XRECORD
  5
398
102
{ACAD_REACTORS
330
389
102
}
330
389
100
AcDbXrecord
 70
     0
  0
XRECORD
  5
38D
102
{ACAD_REACTORS
330
389
102
}
330
389
100
AcDbXrecord
  1

  0
XRECORD
  5
38A
102
{ACAD_REACTORS
330
389
102
}
330
389
100
AcDbXrecord
 90
        1
  0
XRECORD
  5
38B
102
{ACAD_REACTORS
330
389
102
}
330
389
100
AcDbXrecord
 90
       70
  0
XRECORD
  5
3A2
102
{ACAD_REACTORS
330
389
102
}
330
389
100
AcDbXrecord
340
0
  0
XRECORD
  5
3A8
102
{ACAD_REACTORS
330
389
102
}
330
389
100
AcDbXrecord
 10
0.0
 20
0.0
 30
0.0
  0
XRECORD
  5
3A4
102
{ACAD_REACTORS
330
389
102
}
330
389
100
AcDbXrecord
 10
0.0
 20
0.0
 30
0.0
  0
XRECORD
  5
3A7
102
{ACAD_REACTORS
330
389
102
}
330
389
100
AcDbXrecord
 10
0.0
 20
0.0
 30
0.0
  0
XRECORD
  5
3A5
102
{ACAD_REACTORS
330
389
102
}
330
389
100
AcDbXrecord
 10
0.0
 20
0.0
 30
0.0
  0
XRECORD
  5
3A6
102
{ACAD_REACTORS
330
389
102
}
330
389
100
AcDbXrecord
 10
0.0
 20
0.0
 30
0.0
  0
XRECORD
  5
3A3
102
{ACAD_REACTORS
330
389
102
}
330
389
100
AcDbXrecord
 10
0.0
 20
0.0
 30
0.0
  0
XRECORD
  5
3A0
102
{ACAD_REACTORS
330
389
102
}
330
389
100
AcDbXrecord
340
0
  0
XRECORD
  5
3A1
102
{ACAD_REACTORS
330
389
102
}
330
389
100
AcDbXrecord
 70
     0
  0
XRECORD
  5
395
102
{ACAD_REACTORS
330
389
102
}
330
389
100
AcDbXrecord
  1
{2AFFAC24-262D-4B60-9238-D564D62D717B}
  0
ENDSEC
  0
EOF
