  0
SECTION
  2
HEADER
  9
$ACADVER
  1
AC1014
  9
$ACADMAINTVER
 70
     9
  9
$DWGCODEPAGE
  3
ANSI_1252
  9
$INSBASE
 10
0.0
 20
0.0
 30
0.0
  9
$EXTMIN
 10
8.374167917931096
 20
2.123838454748977
 30
-0.0000000000112498
  9
$EXTMAX
 10
43.00072514526361
 20
20.62559313424497
 30
0.0000000000002956
  9
$LIMMIN
 10
0.0
 20
0.0
  9
$LIMMAX
 10
12.0
 20
9.0
  9
$ORTHOMODE
 70
     0
  9
$REGENMODE
 70
     1
  9
$FILLMODE
 70
     1
  9
$QTEXTMODE
 70
     0
  9
$MIRRTEXT
 70
     1
  9
$DRAGMODE
 70
     2
  9
$LTSCALE
 40
1.0
  9
$OSMODE
 70
    37
  9
$ATTMODE
 70
     1
  9
$TEXTSIZE
 40
0.2
  9
$TRACEWID
 40
0.05
  9
$TEXTSTYLE
  7
STANDARD
  9
$CLAYER
  8
0
  9
$CELTYPE
  6
CONTINUOUS
  9
$CECOLOR
 62
   256
  9
$CELTSCALE
 40
1.0
  9
$DELOBJ
 70
     1
  9
$DISPSILH
 70
     0
  9
$DIMSCALE
 40
1.0
  9
$DIMASZ
 40
0.18
  9
$DIMEXO
 40
0.0625
  9
$DIMDLI
 40
0.38
  9
$DIMRND
 40
0.0
  9
$DIMDLE
 40
0.0
  9
$DIMEXE
 40
0.18
  9
$DIMTP
 40
0.0
  9
$DIMTM
 40
0.0
  9
$DIMTXT
 40
0.18
  9
$DIMCEN
 40
0.09
  9
$DIMTSZ
 40
0.0
  9
$DIMTOL
 70
     0
  9
$DIMLIM
 70
     0
  9
$DIMTIH
 70
     1
  9
$DIMTOH
 70
     1
  9
$DIMSE1
 70
     0
  9
$DIMSE2
 70
     0
  9
$DIMTAD
 70
     0
  9
$DIMZIN
 70
     0
  9
$DIMBLK
  1

  9
$DIMASO
 70
     1
  9
$DIMSHO
 70
     1
  9
$DIMPOST
  1

  9
$DIMAPOST
  1

  9
$DIMALT
 70
     0
  9
$DIMALTD
 70
     2
  9
$DIMALTF
 40
25.4
  9
$DIMLFAC
 40
1.0
  9
$DIMTOFL
 70
     0
  9
$DIMTVP
 40
0.0
  9
$DIMTIX
 70
     0
  9
$DIMSOXD
 70
     0
  9
$DIMSAH
 70
     0
  9
$DIMBLK1
  1

  9
$DIMBLK2
  1

  9
$DIMSTYLE
  2
STANDARD
  9
$DIMCLRD
 70
     0
  9
$DIMCLRE
 70
     0
  9
$DIMCLRT
 70
     0
  9
$DIMTFAC
 40
1.0
  9
$DIMGAP
 40
0.09
  9
$DIMJUST
 70
     0
  9
$DIMSD1
 70
     0
  9
$DIMSD2
 70
     0
  9
$DIMTOLJ
 70
     1
  9
$DIMTZIN
 70
     0
  9
$DIMALTZ
 70
     0
  9
$DIMALTTZ
 70
     0
  9
$DIMFIT
 70
     3
  9
$DIMUPT
 70
     0
  9
$DIMUNIT
 70
     2
  9
$DIMDEC
 70
     4
  9
$DIMTDEC
 70
     4
  9
$DIMALTU
 70
     2
  9
$DIMALTTD
 70
     2
  9
$DIMTXSTY
  7
STANDARD
  9
$DIMAUNIT
 70
     0
  9
$LUNITS
 70
     2
  9
$LUPREC
 70
     4
  9
$SKETCHINC
 40
0.1
  9
$FILLETRAD
 40
0.0
  9
$AUNITS
 70
     0
  9
$AUPREC
 70
     0
  9
$MENU
  1
.
  9
$ELEVATION
 40
0.0
  9
$PELEVATION
 40
0.0
  9
$THICKNESS
 40
0.0
  9
$LIMCHECK
 70
     0
  9
$BLIPMODE
 70
     0
  9
$CHAMFERA
 40
0.0
  9
$CHAMFERB
 40
0.0
  9
$CHAMFERC
 40
0.0
  9
$CHAMFERD
 40
0.0
  9
$SKPOLY
 70
     0
  9
$TDCREATE
 40
2453523.476657951
  9
$TDUPDATE
 40
2453523.497462974
  9
$TDINDWG
 40
0.0117277546
  9
$TDUSRTIMER
 40
0.0117277546
  9
$USRTIMER
 70
     1
  9
$ANGBASE
 50
0.0
  9
$ANGDIR
 70
     0
  9
$PDMODE
 70
     0
  9
$PDSIZE
 40
0.0
  9
$PLINEWID
 40
0.0
  9
$COORDS
 70
     1
  9
$SPLFRAME
 70
     0
  9
$SPLINETYPE
 70
     6
  9
$SPLINESEGS
 70
     8
  9
$ATTDIA
 70
     0
  9
$ATTREQ
 70
     1
  9
$HANDLING
 70
-16383
  9
$HANDSEED
  5
E8B
  9
$SURFTAB1
 70
     6
  9
$SURFTAB2
 70
     6
  9
$SURFTYPE
 70
     6
  9
$SURFU
 70
     6
  9
$SURFV
 70
     6
  9
$UCSNAME
  2

  9
$UCSORG
 10
0.0
 20
0.0
 30
0.0
  9
$UCSXDIR
 10
1.0
 20
0.0
 30
0.0
  9
$UCSYDIR
 10
0.0
 20
1.0
 30
0.0
  9
$PUCSNAME
  2

  9
$PUCSORG
 10
0.0
 20
0.0
 30
0.0
  9
$PUCSXDIR
 10
1.0
 20
0.0
 30
0.0
  9
$PUCSYDIR
 10
0.0
 20
1.0
 30
0.0
  9
$USERI1
 70
     0
  9
$USERI2
 70
     0
  9
$USERI3
 70
     0
  9
$USERI4
 70
     0
  9
$USERI5
 70
     0
  9
$USERR1
 40
0.0
  9
$USERR2
 40
0.0
  9
$USERR3
 40
0.0
  9
$USERR4
 40
0.0
  9
$USERR5
 40
0.0
  9
$WORLDVIEW
 70
     1
  9
$SHADEDGE
 70
     3
  9
$SHADEDIF
 70
    70
  9
$TILEMODE
 70
     1
  9
$MAXACTVP
 70
    64
  9
$PINSBASE
 10
0.0
 20
0.0
 30
0.0
  9
$PLIMCHECK
 70
     0
  9
$PEXTMIN
 10
1.000000000000000E+20
 20
1.000000000000000E+20
 30
1.000000000000000E+20
  9
$PEXTMAX
 10
-1.000000000000000E+20
 20
-1.000000000000000E+20
 30
-1.000000000000000E+20
  9
$PLIMMIN
 10
0.0
 20
0.0
  9
$PLIMMAX
 10
12.0
 20
9.0
  9
$UNITMODE
 70
     0
  9
$VISRETAIN
 70
     1
  9
$PLINEGEN
 70
     0
  9
$PSLTSCALE
 70
     1
  9
$TREEDEPTH
 70
  3020
  9
$PICKSTYLE
 70
     1
  9
$CMLSTYLE
  2
STANDARD
  9
$CMLJUST
 70
     0
  9
$CMLSCALE
 40
1.0
  9
$PROXYGRAPHICS
 70
     1
  9
$MEASUREMENT
 70
     0
  0
ENDSEC
  0
SECTION
  2
CLASSES
  0
CLASS
  1
ACDBDICTIONARYWDFLT
  2
AcDbDictionaryWithDefault
  3
AutoCAD 2000
 90
        0
280
     0
281
     0
  0
CLASS
  1
ACDBPLACEHOLDER
  2
AcDbPlaceHolder
  3
AutoCAD 2000
 90
        0
280
     0
281
     0
  0
CLASS
  1
LAYOUT
  2
AcDbLayout
  3
AutoCAD 2000
 90
        0
280
     0
281
     0
  0
CLASS
  1
LONG_TRANSACTION
  2
AcDbLongTransaction
  3
AutoCAD 2000
 90
        0
280
     0
281
     0
  0
CLASS
  1
LWPOLYLINE
  2
AcDbPolyline
  3
AutoCAD 2000
 90
        0
280
     0
281
     1
  0
CLASS
  1
HATCH
  2
AcDbHatch
  3
AutoCAD 2000
 90
        0
280
     0
281
     1
  0
CLASS
  1
XRECORD
  2
AcDbXrecord
  3
AutoCAD 2000
 90
        0
280
     0
281
     0
  0
CLASS
  1
LONG_TRANSACTION
  2
AcDbLongTransaction
  3
AutoCAD 2000
 90
        0
280
     0
281
     0
  0
CLASS
  1
LWPOLYLINE
  2
AcDbPolyline
  3
AutoCAD 2000
 90
        0
280
     0
281
     1
  0
CLASS
  1
HATCH
  2
AcDbHatch
  3
AutoCAD 2000
 90
        0
280
     0
281
     1
  0
CLASS
  1
XRECORD
  2
AcDbXrecord
  3
AutoCAD 2000
 90
        0
280
     0
281
     0
  0
CLASS
  1
LONG_TRANSACTION
  2
AcDbLongTransaction
  3
AutoCAD 2000
 90
        0
280
     0
281
     0
  0
CLASS
  1
LWPOLYLINE
  2
AcDbPolyline
  3
AutoCAD 2000
 90
        0
280
     0
281
     1
  0
CLASS
  1
HATCH
  2
AcDbHatch
  3
AutoCAD 2000
 90
        0
280
     0
281
     1
  0
CLASS
  1
XRECORD
  2
AcDbXrecord
  3
AutoCAD 2000
 90
        0
280
     0
281
     0
  0
ENDSEC
  0
SECTION
  2
TABLES
  0
TABLE
  2
VPORT
  5
8
330
0
100
AcDbSymbolTable
 70
     9
  0
VPORT
  5
E68
330
8
100
AcDbSymbolTableRecord
100
AcDbViewportTableRecord
  2
*ACTIVE
 70
     0
 10
0.0
 20
0.0
 11
1.0
 21
1.0
 12
25.68744653159735
 22
11.37471579449697
 13
0.0
 23
0.0
 14
1.0
 24
1.0
 15
0.0
 25
0.0
 16
0.0
 26
0.0
 36
1.0
 17
0.0
 27
0.0
 37
0.0
 40
21.14939823555147
 41
1.647569444444444
 42
50.0
 43
0.0
 44
0.0
 50
0.0
 51
0.0
 71
     0
 72
   100
 73
     1
 74
     1
 75
     0
 76
     0
 77
     0
 78
     0
  0
ENDTAB
  0
TABLE
  2
LTYPE
  5
5
330
0
100
AcDbSymbolTable
 70
    12
  0
LTYPE
  5
13
330
5
100
AcDbSymbolTableRecord
100
AcDbLinetypeTableRecord
  2
BYBLOCK
 70
     0
  3

 72
    65
 73
     0
 40
0.0
  0
LTYPE
  5
14
330
5
100
AcDbSymbolTableRecord
100
AcDbLinetypeTableRecord
  2
BYLAYER
 70
     0
  3

 72
    65
 73
     0
 40
0.0
  0
LTYPE
  5
15
330
5
100
AcDbSymbolTableRecord
100
AcDbLinetypeTableRecord
  2
CONTINUOUS
 70
     0
  3
Solid line
 72
    65
 73
     0
 40
0.0
  0
LTYPE
  5
22
330
5
100
AcDbSymbolTableRecord
100
AcDbLinetypeTableRecord
  2
DASHED
 70
     0
  3
__ __ __ __ __ __ __ __ __ __ __ __ __ __ __
 72
    65
 73
     2
 40
0.5447410000000003
 49
0.204278
 74
     0
 49
-0.102139
 74
     0
  0
LTYPE
  5
23
330
5
100
AcDbSymbolTableRecord
100
AcDbLinetypeTableRecord
  2
DOT
 70
     0
  3
...............................................
 72
    65
 73
     2
 40
0.102139
 49
0.0
 74
     0
 49
-0.102139
 74
     0
  0
LTYPE
  5
24
330
5
100
AcDbSymbolTableRecord
100
AcDbLinetypeTableRecord
  2
DASHDOT
 70
     0
  3
__ . __ . __ . __ . __ . __ . __ . __ . __ . __
 72
    65
 73
     4
 40
0.408556
 49
0.204278
 74
     0
 49
-0.102139
 74
     0
 49
0.0
 74
     0
 49
-0.102139
 74
     0
  0
LTYPE
  5
25
330
5
100
AcDbSymbolTableRecord
100
AcDbLinetypeTableRecord
  2
CENTER
 70
     0
  3
____ _ ____ _ ____ _ ____ _ ____ _ ____ _ ____
 72
    65
 73
     4
 40
0.8171109999999998
 49
0.510694
 74
     0
 49
-0.102139
 74
     0
 49
0.102139
 74
     0
 49
-0.102139
 74
     0
  0
LTYPE
  5
26
330
5
100
AcDbSymbolTableRecord
100
AcDbLinetypeTableRecord
  2
PHANTOM
 70
     0
  3
_____ _ _ _____ _ _ _____ _ _ _____ _ _ ____
 72
    65
 73
     6
 40
1.021388999999997
 49
0.510694
 74
     0
 49
-0.102139
 74
     0
 49
0.102139
 74
     0
 49
-0.102139
 74
     0
 49
0.102139
 74
     0
 49
-0.102139
 74
     0
  0
LTYPE
  5
27
330
5
100
AcDbSymbolTableRecord
100
AcDbLinetypeTableRecord
  2
HIDDEN
 70
     0
  3
_ _ _ _ _ _ _ _ _ _ _ _ _ _ _ _ _ _ _ _ _ _ _
 72
    65
 73
     2
 40
0.408556
 49
0.27237
 74
     0
 49
-0.136185
 74
     0
  0
LTYPE
  5
28
330
5
100
AcDbSymbolTableRecord
100
AcDbLinetypeTableRecord
  2
BORDER
 70
     0
  3
__ __ . __ __ . __ __ . __ __ . __ __ . __ __
 72
    65
 73
     6
 40
0.7150910000000003
 49
0.102139
 74
     0
 49
-0.102139
 74
     0
 49
0.204278
 74
     0
 49
-0.102139
 74
     0
 49
0.0
 74
     0
 49
-0.102139
 74
     0
  0
LTYPE
  5
29
330
5
100
AcDbSymbolTableRecord
100
AcDbLinetypeTableRecord
  2
DIVIDE
 70
     0
  3
__ . . __ . . __ . . __ . . __ . . __ . . __
 72
    65
 73
     6
 40
-0.102139
 49
-0.102139
 74
     0
 49
-0.102139
 74
     0
 49
0.0
 74
     0
 49
-0.102139
 74
     0
 49
0.0
 74
     0
 49
-0.102139
 74
     0
  0
LTYPE
  5
2A
330
5
100
AcDbSymbolTableRecord
100
AcDbLinetypeTableRecord
  2
POINT31
 70
     0
  3
+                                          +
 72
    65
 73
     0
 40
0.0
  0
LTYPE
  5
2B
330
5
100
AcDbSymbolTableRecord
100
AcDbLinetypeTableRecord
  2
POINT63
 70
     0
  3
*                                          *
 72
    65
 73
     0
 40
0.0
  0
LTYPE
  5
2C
330
5
100
AcDbSymbolTableRecord
100
AcDbLinetypeTableRecord
  2
DBLDASH
 70
     0
  3
-- -- -- -- -- -- -- -- -- -- -- -- -- -- --
 72
    65
 73
     4
 40
0.357546
 49
0.102139
 74
     0
 49
-0.102139
 74
     0
 49
0.102139
 74
     0
 49
-0.102139
 74
     0
  0
ENDTAB
  0
TABLE
  2
LAYER
  5
2
330
0
100
AcDbSymbolTable
 70
     1
  0
LAYER
  5
10
330
2
100
AcDbSymbolTableRecord
100
AcDbLayerTableRecord
  2
0
 70
     0
 62
     5
  6
CONTINUOUS
  0
ENDTAB
  0
TABLE
  2
STYLE
  5
3
330
0
100
AcDbSymbolTable
 70
     1
  0
STYLE
  5
11
330
3
100
AcDbSymbolTableRecord
100
AcDbTextStyleTableRecord
  2
STANDARD
 70
     0
 40
0.0
 41
1.0
 50
0.0
 71
     0
 42
0.2
  3
txt
  4

  0
ENDTAB
  0
TABLE
  2
VIEW
  5
6
330
0
100
AcDbSymbolTable
 70
     0
  0
ENDTAB
  0
TABLE
  2
UCS
  5
7
330
0
100
AcDbSymbolTable
 70
     0
  0
ENDTAB
  0
TABLE
  2
APPID
  5
9
330
0
100
AcDbSymbolTable
 70
     1
  0
APPID
  5
12
330
9
100
AcDbSymbolTableRecord
100
AcDbRegAppTableRecord
  2
ACAD
 70
     0
  0
ENDTAB
  0
TABLE
  2
DIMSTYLE
  5
A
330
0
100
AcDbSymbolTable
 70
     1
  0
DIMSTYLE
105
716
330
A
100
AcDbSymbolTableRecord
100
AcDbDimStyleTableRecord
  2
STANDARD
 70
     0
  3

  4

  5

  6

  7

 40
1.0
 41
0.18
 42
0.0625
 43
0.38
 44
0.18
 45
0.0
 46
0.0
 47
0.0
 48
0.0
140
0.18
141
0.09
142
0.0
143
25.4
144
1.0
145
0.0
146
1.0
147
0.09
 71
     0
 72
     0
 73
     1
 74
     1
 75
     0
 76
     0
 77
     0
 78
     0
170
     0
171
     2
172
     0
173
     0
174
     0
175
     0
176
     0
177
     0
178
     0
270
     2
271
     4
272
     4
273
     2
274
     2
340
11
275
     0
280
     0
281
     0
282
     0
283
     1
284
     0
285
     0
286
     0
287
     3
288
     0
  0
ENDTAB
  0
TABLE
  2
BLOCK_RECORD
  5
1
330
0
100
AcDbSymbolTable
 70
     2
  0
BLOCK_RECORD
  5
1E
102
{ACAD_XDICTIONARY
360
888
102
}
330
1
100
AcDbSymbolTableRecord
100
AcDbBlockTableRecord
  2
*MODEL_SPACE
  0
BLOCK_RECORD
  5
1A
102
{ACAD_XDICTIONARY
360
886
102
}
330
1
100
AcDbSymbolTableRecord
100
AcDbBlockTableRecord
  2
*PAPER_SPACE
  0
BLOCK_RECORD
  5
890
330
1
100
AcDbSymbolTableRecord
100
AcDbBlockTableRecord
  2
A$C0FAB7B64
  0
BLOCK_RECORD
  5
8B0
330
1
100
AcDbSymbolTableRecord
100
AcDbBlockTableRecord
  2
A$C453C0C9C
  0
ENDTAB
  0
ENDSEC
  0
SECTION
  2
BLOCKS
  0
BLOCK
  5
1F
330
1E
100
AcDbEntity
  8
0
100
AcDbBlockBegin
  2
*MODEL_SPACE
 70
     0
 10
0.0
 20
0.0
 30
0.0
  3
*MODEL_SPACE
  1

  0
ENDBLK
  5
20
330
1E
100
AcDbEntity
  8
0
100
AcDbBlockEnd
  0
BLOCK
  5
1B
330
1A
100
AcDbEntity
 67
     1
  8
0
100
AcDbBlockBegin
  2
*PAPER_SPACE
 70
     0
 10
0.0
 20
0.0
 30
0.0
  3
*PAPER_SPACE
  1

  0
ENDBLK
  5
1C
330
1A
100
AcDbEntity
 67
     1
  8
0
100
AcDbBlockEnd
  0
BLOCK
  5
89F
330
890
100
AcDbEntity
  8
0
100
AcDbBlockBegin
  2
A$C0FAB7B64
 70
     0
 10
0.0
 20
0.0
 30
0.0
  3
A$C0FAB7B64
  1

  0
CIRCLE
  5
891
330
890
100
AcDbEntity
  8
0
  6
CONTINUOUS
 62
     5
100
AcDbCircle
 10
1.5
 20
-2.531
 30
0.0
 40
0.73
  0
LINE
  5
892
330
890
100
AcDbEntity
  8
0
  6
CONTINUOUS
 62
     5
100
AcDbLine
 10
1.5
 20
-3.407999999999998
 30
0.0
 11
1.5
 21
-1.653999999999999
 31
0.0
  0
CIRCLE
  5
893
330
890
100
AcDbEntity
  8
0
  6
CONTINUOUS
 62
     5
100
AcDbCircle
 10
1.5
 20
-2.531
 30
0.0
 40
0.521
  0
CIRCLE
  5
894
330
890
100
AcDbEntity
  8
0
  6
CONTINUOUS
 62
     5
100
AcDbCircle
 10
1.5
 20
-2.531
 30
0.0
 40
0.4810000000000001
  0
CIRCLE
  5
895
330
890
100
AcDbEntity
  8
0
  6
CONTINUOUS
 62
     5
100
AcDbCircle
 10
1.5
 20
-2.531
 30
0.0
 40
0.4060000000000001
  0
ARC
  5
896
330
890
100
AcDbEntity
  8
0
  6
CONTINUOUS
 62
     5
100
AcDbCircle
 10
1.5
 20
-2.531
 30
0.0
 40
0.475
100
AcDbArc
 50
85.00000100000002
 51
4.999999999999999
  0
CIRCLE
  5
897
330
890
100
AcDbEntity
  8
0
  6
CONTINUOUS
 62
     5
100
AcDbCircle
 10
1.5
 20
-0.875
 30
0.0
 40
0.73
  0
CIRCLE
  5
898
330
890
100
AcDbEntity
  8
0
  6
CONTINUOUS
 62
     5
100
AcDbCircle
 10
1.5
 20
-0.875
 30
0.0
 40
0.521
  0
CIRCLE
  5
899
330
890
100
AcDbEntity
  8
0
  6
CONTINUOUS
 62
     5
100
AcDbCircle
 10
1.5
 20
-0.875
 30
0.0
 40
0.4810000000000001
  0
ARC
  5
89A
330
890
100
AcDbEntity
  8
0
  6
CONTINUOUS
 62
     5
100
AcDbCircle
 10
1.5
 20
-0.875
 30
0.0
 40
0.475
100
AcDbArc
 50
85.00000100000002
 51
4.999999999999999
  0
CIRCLE
  5
89B
330
890
100
AcDbEntity
  8
0
  6
CONTINUOUS
 62
     5
100
AcDbCircle
 10
1.5
 20
-0.875
 30
0.0
 40
0.4060000000000001
  0
LINE
  5
89C
330
890
100
AcDbEntity
  8
0
  6
CONTINUOUS
 62
     5
100
AcDbLine
 10
1.5
 20
-1.751999999999999
 30
0.0
 11
1.5
 21
0.0019999999999989
 31
0.0
  0
LINE
  5
89D
330
890
100
AcDbEntity
  8
0
  6
CONTINUOUS
 62
     5
100
AcDbLine
 10
0.6229999999999995
 20
-2.531
 30
0.0
 11
2.375999999999999
 21
-2.531
 31
0.0
  0
LINE
  5
89E
330
890
100
AcDbEntity
  8
0
  6
CONTINUOUS
 62
     5
100
AcDbLine
 10
0.6229999999999995
 20
-0.875
 30
0.0
 11
2.375999999999999
 21
-0.875
 31
0.0
  0
ENDBLK
  5
8A0
330
890
100
AcDbEntity
  8
0
100
AcDbBlockEnd
  0
BLOCK
  5
8CF
330
8B0
100
AcDbEntity
  8
0
100
AcDbBlockBegin
  2
A$C453C0C9C
 70
     0
 10
0.0
 20
0.0
 30
0.0
  3
A$C453C0C9C
  1

  0
LWPOLYLINE
  5
8B1
330
8B0
100
AcDbEntity
  8
0
  6
CONTINUOUS
 62
     5
100
AcDbPolyline
 90
       20
 70
     0
 43
0.0
 10
4.114426999999999
 20
0.2875000000000014
 10
4.11974
 20
0.2768750000000004
 10
4.130365000000001
 20
0.2662499999999994
 10
4.151614999999998
 20
0.2609369999999984
 10
4.183489999999999
 20
0.2609369999999984
 10
4.204740000000001
 20
0.2715619999999994
 10
4.220676999999998
 20
0.2928119999999978
 10
4.231301999999998
 20
0.3193750000000008
 10
4.236615
 20
0.3512500000000003
 10
4.236615
 20
0.3884369999999997
 10
4.231301999999998
 20
0.4203119999999993
 10
4.220676999999998
 20
0.4415620000000012
 10
4.204740000000001
 20
0.4628119999999997
 10
4.183489999999999
 20
0.4734370000000007
 10
4.146301999999998
 20
0.4734370000000007
 10
4.130365000000001
 20
0.4681250000000007
 10
4.11974
 20
0.4574999999999996
 10
4.109114999999999
 20
0.4362500000000013
 10
4.109114999999999
 20
0.3778119999999987
 10
4.162239999999999
 20
0.3778119999999987
  0
CIRCLE
  5
8B2
330
8B0
100
AcDbEntity
  8
0
  6
CONTINUOUS
 62
     5
100
AcDbCircle
 10
1.280999999999999
 20
0.7029999999999994
 30
0.0
 40
0.435
  0
CIRCLE
  5
8B3
330
8B0
100
AcDbEntity
  8
0
  6
CONTINUOUS
 62
     5
100
AcDbCircle
 10
1.280999999999999
 20
0.7029999999999994
 30
0.0
 40
0.259
  0
CIRCLE
  5
8B4
330
8B0
100
AcDbEntity
  8
0
  6
CONTINUOUS
 62
     5
100
AcDbCircle
 10
1.280999999999999
 20
0.7029999999999994
 30
0.0
 40
0.23
  0
LINE
  5
8B5
330
8B0
100
AcDbEntity
  8
0
  6
CONTINUOUS
 62
     5
100
AcDbLine
 10
1.280999999999999
 20
0.1799999999999997
 30
0.0
 11
1.280999999999999
 21
1.225999999999998
 31
0.0
  0
ARC
  5
8B6
330
8B0
100
AcDbEntity
  8
0
  6
CONTINUOUS
 62
     5
100
AcDbCircle
 10
1.280999999999999
 20
0.7029999999999994
 30
0.0
 40
0.164
100
AcDbArc
 50
85.00000100000002
 51
4.999999999999999
  0
CIRCLE
  5
8B7
330
8B0
100
AcDbEntity
  8
0
  6
CONTINUOUS
 62
     5
100
AcDbCircle
 10
1.280999999999999
 20
0.7029999999999994
 30
0.0
 40
0.14
  0
LINE
  5
8B8
330
8B0
100
AcDbEntity
  8
0
  6
CONTINUOUS
 62
     5
100
AcDbLine
 10
0.7579999999999992
 20
0.7029999999999994
 30
0.0
 11
1.803
 21
0.7029999999999994
 31
0.0
  0
LWPOLYLINE
  5
8B9
330
8B0
100
AcDbEntity
  8
0
  6
CONTINUOUS
 62
     5
100
AcDbPolyline
 90
        4
 70
     0
 43
0.0
 10
1.930989999999999
 20
0.4734370000000007
 10
1.872551999999997
 20
0.2609369999999984
 10
1.861926999999998
 20
0.2609369999999984
 10
1.80349
 20
0.4734370000000007
  0
LWPOLYLINE
  5
8BA
330
8B0
100
AcDbEntity
  8
0
  6
CONTINUOUS
 62
     5
100
AcDbPolyline
 90
       20
 70
     0
 43
0.0
 10
1.989426999999999
 20
0.2875000000000014
 10
1.99474
 20
0.2768750000000004
 10
2.005364999999998
 20
0.2662499999999994
 10
2.026614999999999
 20
0.2609369999999984
 10
2.058489999999999
 20
0.2609369999999984
 10
2.079739999999999
 20
0.2715619999999994
 10
2.095676999999998
 20
0.2928119999999978
 10
2.106301999999999
 20
0.3193750000000008
 10
2.111614999999997
 20
0.3512500000000003
 10
2.111614999999997
 20
0.3884369999999997
 10
2.106301999999999
 20
0.4203119999999993
 10
2.095676999999998
 20
0.4415620000000012
 10
2.079739999999999
 20
0.4628119999999997
 10
2.058489999999999
 20
0.4734370000000007
 10
2.021301999999997
 20
0.4734370000000007
 10
2.005364999999998
 20
0.4681250000000007
 10
1.99474
 20
0.4574999999999996
 10
1.984114999999999
 20
0.4362500000000013
 10
1.984114999999999
 20
0.3778119999999987
 10
2.037239999999997
 20
0.3778119999999987
  0
LINE
  5
8BB
330
8B0
100
AcDbEntity
  8
0
  6
CONTINUOUS
 62
     5
100
AcDbLine
 10
1.909739999999999
 20
0.3990620000000007
 30
0.0
 11
1.82474
 21
0.3990620000000007
 31
0.0
  0
CIRCLE
  5
8BC
330
8B0
100
AcDbEntity
  8
0
  6
CONTINUOUS
 62
     5
100
AcDbCircle
 10
3.405999999999998
 20
0.7029999999999994
 30
0.0
 40
0.435
  0
CIRCLE
  5
8BD
330
8B0
100
AcDbEntity
  8
0
  6
CONTINUOUS
 62
     5
100
AcDbCircle
 10
3.405999999999998
 20
0.7029999999999994
 30
0.0
 40
0.259
  0
CIRCLE
  5
8BE
330
8B0
100
AcDbEntity
  8
0
  6
CONTINUOUS
 62
     5
100
AcDbCircle
 10
3.405999999999998
 20
0.7029999999999994
 30
0.0
 40
0.23
  0
LINE
  5
8BF
330
8B0
100
AcDbEntity
  8
0
  6
CONTINUOUS
 62
     5
100
AcDbLine
 10
3.405999999999998
 20
0.1799999999999997
 30
0.0
 11
3.405999999999998
 21
1.225999999999998
 31
0.0
  0
ARC
  5
8C0
330
8B0
100
AcDbEntity
  8
0
  6
CONTINUOUS
 62
     5
100
AcDbCircle
 10
3.405999999999998
 20
0.7029999999999994
 30
0.0
 40
0.164
100
AcDbArc
 50
85.00000100000002
 51
4.999999999999999
  0
CIRCLE
  5
8C1
330
8B0
100
AcDbEntity
  8
0
  6
CONTINUOUS
 62
     5
100
AcDbCircle
 10
3.405999999999998
 20
0.7029999999999994
 30
0.0
 40
0.14
  0
LINE
  5
8C2
330
8B0
100
AcDbEntity
  8
0
  6
CONTINUOUS
 62
     5
100
AcDbLine
 10
2.882999999999998
 20
0.7029999999999994
 30
0.0
 11
3.927999999999999
 21
0.7029999999999994
 31
0.0
  0
LWPOLYLINE
  5
8C3
330
8B0
100
AcDbEntity
  8
0
  6
CONTINUOUS
 62
     5
100
AcDbPolyline
 90
        4
 70
     0
 43
0.0
 10
4.055989999999996
 20
0.4734370000000007
 10
3.997551999999997
 20
0.2609369999999984
 10
3.986926999999997
 20
0.2609369999999984
 10
3.92849
 20
0.4734370000000007
  0
LINE
  5
8C4
330
8B0
100
AcDbEntity
  8
0
  6
CONTINUOUS
 62
     5
100
AcDbLine
 10
4.034739999999998
 20
0.3990620000000007
 30
0.0
 11
3.949739999999998
 21
0.3990620000000007
 31
0.0
  0
CIRCLE
  5
8C5
330
8B0
100
AcDbEntity
  8
0
  6
CONTINUOUS
 62
     5
100
AcDbCircle
 10
5.530999999999997
 20
0.7029999999999994
 30
0.0
 40
0.435
  0
CIRCLE
  5
8C6
330
8B0
100
AcDbEntity
  8
0
  6
CONTINUOUS
 62
     5
100
AcDbCircle
 10
5.530999999999997
 20
0.7029999999999994
 30
0.0
 40
0.259
  0
CIRCLE
  5
8C7
330
8B0
100
AcDbEntity
  8
0
  6
CONTINUOUS
 62
     5
100
AcDbCircle
 10
5.530999999999997
 20
0.7029999999999994
 30
0.0
 40
0.23
  0
LINE
  5
8C8
330
8B0
100
AcDbEntity
  8
0
  6
CONTINUOUS
 62
     5
100
AcDbLine
 10
5.530999999999997
 20
0.1799999999999997
 30
0.0
 11
5.530999999999997
 21
1.225999999999998
 31
0.0
  0
ARC
  5
8C9
330
8B0
100
AcDbEntity
  8
0
  6
CONTINUOUS
 62
     5
100
AcDbCircle
 10
5.530999999999997
 20
0.7029999999999994
 30
0.0
 40
0.164
100
AcDbArc
 50
85.00000100000002
 51
4.999999999999999
  0
CIRCLE
  5
8CA
330
8B0
100
AcDbEntity
  8
0
  6
CONTINUOUS
 62
     5
100
AcDbCircle
 10
5.530999999999997
 20
0.7029999999999994
 30
0.0
 40
0.14
  0
LINE
  5
8CB
330
8B0
100
AcDbEntity
  8
0
  6
CONTINUOUS
 62
     5
100
AcDbLine
 10
5.007999999999999
 20
0.7029999999999994
 30
0.0
 11
6.052999999999999
 21
0.7029999999999994
 31
0.0
  0
LWPOLYLINE
  5
8CC
330
8B0
100
AcDbEntity
  8
0
  6
CONTINUOUS
 62
     5
100
AcDbPolyline
 90
        4
 70
     0
 43
0.0
 10
6.180989999999997
 20
0.4734370000000007
 10
6.122551999999997
 20
0.2609369999999984
 10
6.111926999999997
 20
0.2609369999999984
 10
6.05349
 20
0.4734370000000007
  0
LINE
  5
8CD
330
8B0
100
AcDbEntity
  8
0
  6
CONTINUOUS
 62
     5
100
AcDbLine
 10
6.159739999999998
 20
0.3990620000000007
 30
0.0
 11
6.074739999999997
 21
0.3990620000000007
 31
0.0
  0
LWPOLYLINE
  5
8CE
330
8B0
100
AcDbEntity
  8
0
  6
CONTINUOUS
 62
     5
100
AcDbPolyline
 90
       20
 70
     0
 43
0.0
 10
6.239426999999999
 20
0.2875000000000014
 10
6.24474
 20
0.2768750000000004
 10
6.255365000000001
 20
0.2662499999999994
 10
6.276614999999998
 20
0.2609369999999984
 10
6.308489999999999
 20
0.2609369999999984
 10
6.329740000000001
 20
0.2715619999999994
 10
6.345676999999997
 20
0.2928119999999978
 10
6.356301999999998
 20
0.3193750000000008
 10
6.361615
 20
0.3512500000000003
 10
6.361615
 20
0.3884369999999997
 10
6.356301999999998
 20
0.4203119999999993
 10
6.345676999999997
 20
0.4415620000000012
 10
6.329740000000001
 20
0.4628119999999997
 10
6.308489999999999
 20
0.4734370000000007
 10
6.271301999999997
 20
0.4734370000000007
 10
6.255365000000001
 20
0.4681250000000007
 10
6.24474
 20
0.4574999999999996
 10
6.234114999999999
 20
0.4362500000000013
 10
6.234114999999999
 20
0.3778119999999987
 10
6.287239999999999
 20
0.3778119999999987
  0
ENDBLK
  5
8D0
330
8B0
100
AcDbEntity
  8
0
100
AcDbBlockEnd
  0
ENDSEC
  0
SECTION
  2
ENTITIES
  0
LINE
  5
4C
330
1E
100
AcDbEntity
  8
0
  6
CONTINUOUS
 62
     5
100
AcDbLine
 10
38.49999999999998
 20
17.625
 30
0.0
 11
38.49999999999998
 21
20.625
 31
0.0
  0
LINE
  5
4D
330
1E
100
AcDbEntity
  8
0
  6
CONTINUOUS
 62
     5
100
AcDbLine
 10
43.0
 20
16.125
 30
0.0
 11
40.0
 21
16.125
 31
0.0
  0
LINE
  5
5C
330
1E
100
AcDbEntity
  8
0
  6
CONTINUOUS
 62
     5
100
AcDbLine
 10
35.66299999999998
 20
14.016
 30
0.0
 11
35.962
 21
14.016
 31
0.0
  0
LINE
  5
5D
330
1E
100
AcDbEntity
  8
0
  6
CONTINUOUS
 62
     5
100
AcDbLine
 10
35.75
 20
13.89499999999999
 30
0.0
 11
35.76999999999999
 21
13.884
 31
0.0
  0
LINE
  5
5E
330
1E
100
AcDbEntity
  8
0
  6
CONTINUOUS
 62
     5
100
AcDbLine
 10
35.73199999999998
 20
14.123
 30
0.0
 11
35.71699999999998
 21
14.106
 31
0.0
  0
LINE
  5
5F
330
1E
100
AcDbEntity
  8
0
  6
CONTINUOUS
 62
     5
100
AcDbLine
 10
35.75
 20
14.137
 30
0.0
 11
35.73199999999998
 21
14.123
 31
0.0
  0
LINE
  5
60
330
1E
100
AcDbEntity
  8
0
  6
CONTINUOUS
 62
     5
100
AcDbLine
 10
35.76999999999999
 20
14.148
 30
0.0
 11
35.75
 21
14.137
 31
0.0
  0
LINE
  5
61
330
1E
100
AcDbEntity
  8
0
  6
CONTINUOUS
 62
     5
100
AcDbLine
 10
35.73199999999998
 20
13.909
 30
0.0
 11
35.75
 21
13.89499999999999
 31
0.0
  0
LINE
  5
62
330
1E
100
AcDbEntity
  8
0
  6
CONTINUOUS
 62
     5
100
AcDbLine
 10
35.71699999999998
 20
13.92599999999999
 30
0.0
 11
35.73199999999998
 21
13.909
 31
0.0
  0
LINE
  5
63
330
1E
100
AcDbEntity
  8
0
  6
CONTINUOUS
 62
     5
100
AcDbLine
 10
35.689
 20
14.03999999999999
 30
0.0
 11
35.68699999999998
 21
14.016
 31
0.0
  0
LINE
  5
64
330
1E
100
AcDbEntity
  8
0
  6
CONTINUOUS
 62
     5
100
AcDbLine
 10
35.695
 20
14.064
 30
0.0
 11
35.689
 21
14.03999999999999
 31
0.0
  0
LINE
  5
65
330
1E
100
AcDbEntity
  8
0
  6
CONTINUOUS
 62
     5
100
AcDbLine
 10
35.704
 20
14.08599999999998
 30
0.0
 11
35.695
 21
14.064
 31
0.0
  0
LINE
  5
66
330
1E
100
AcDbEntity
  8
0
  6
CONTINUOUS
 62
     5
100
AcDbLine
 10
35.71699999999998
 20
14.106
 30
0.0
 11
35.704
 21
14.08599999999998
 31
0.0
  0
LINE
  5
67
330
1E
100
AcDbEntity
  8
0
  6
CONTINUOUS
 62
     5
100
AcDbLine
 10
35.704
 20
13.946
 30
0.0
 11
35.71699999999998
 21
13.92599999999999
 31
0.0
  0
LINE
  5
68
330
1E
100
AcDbEntity
  8
0
  6
CONTINUOUS
 62
     5
100
AcDbLine
 10
35.695
 20
13.968
 30
0.0
 11
35.704
 21
13.946
 31
0.0
  0
LINE
  5
69
330
1E
100
AcDbEntity
  8
0
  6
CONTINUOUS
 62
     5
100
AcDbLine
 10
35.689
 20
13.992
 30
0.0
 11
35.695
 21
13.968
 31
0.0
  0
LINE
  5
6A
330
1E
100
AcDbEntity
  8
0
  6
CONTINUOUS
 62
     5
100
AcDbLine
 10
35.68699999999998
 20
14.016
 30
0.0
 11
35.689
 21
13.992
 31
0.0
  0
LINE
  5
6B
330
1E
100
AcDbEntity
  8
0
  6
CONTINUOUS
 62
     5
100
AcDbLine
 10
35.85499999999998
 20
13.884
 30
0.0
 11
35.875
 21
13.89499999999999
 31
0.0
  0
LINE
  5
6C
330
1E
100
AcDbEntity
  8
0
  6
CONTINUOUS
 62
     5
100
AcDbLine
 10
35.875
 20
14.137
 30
0.0
 11
35.85499999999998
 21
14.148
 31
0.0
  0
LINE
  5
6D
330
1E
100
AcDbEntity
  8
0
  6
CONTINUOUS
 62
     5
100
AcDbLine
 10
35.893
 20
14.123
 30
0.0
 11
35.875
 21
14.137
 31
0.0
  0
LINE
  5
6E
330
1E
100
AcDbEntity
  8
0
  6
CONTINUOUS
 62
     5
100
AcDbLine
 10
35.908
 20
14.106
 30
0.0
 11
35.893
 21
14.123
 31
0.0
  0
LINE
  5
6F
330
1E
100
AcDbEntity
  8
0
  6
CONTINUOUS
 62
     5
100
AcDbLine
 10
35.893
 20
13.909
 30
0.0
 11
35.908
 21
13.92599999999999
 31
0.0
  0
LINE
  5
70
330
1E
100
AcDbEntity
  8
0
  6
CONTINUOUS
 62
     5
100
AcDbLine
 10
35.875
 20
13.89499999999999
 30
0.0
 11
35.893
 21
13.909
 31
0.0
  0
LINE
  5
71
330
1E
100
AcDbEntity
  8
0
  6
CONTINUOUS
 62
     5
100
AcDbLine
 10
35.83399999999999
 20
13.878
 30
0.0
 11
35.85499999999998
 21
13.884
 31
0.0
  0
LINE
  5
72
330
1E
100
AcDbEntity
  8
0
  6
CONTINUOUS
 62
     5
100
AcDbLine
 10
35.81199999999998
 20
13.87599999999999
 30
0.0
 11
35.83399999999999
 21
13.878
 31
0.0
  0
LINE
  5
73
330
1E
100
AcDbEntity
  8
0
  6
CONTINUOUS
 62
     5
100
AcDbLine
 10
35.79099999999999
 20
13.878
 30
0.0
 11
35.81199999999998
 21
13.87599999999999
 31
0.0
  0
LINE
  5
74
330
1E
100
AcDbEntity
  8
0
  6
CONTINUOUS
 62
     5
100
AcDbLine
 10
35.76999999999999
 20
13.884
 30
0.0
 11
35.79099999999999
 21
13.878
 31
0.0
  0
LINE
  5
75
330
1E
100
AcDbEntity
  8
0
  6
CONTINUOUS
 62
     5
100
AcDbLine
 10
35.81199999999998
 20
13.866
 30
0.0
 11
35.81199999999998
 21
14.16599999999998
 31
0.0
  0
LINE
  5
76
330
1E
100
AcDbEntity
  8
0
  6
CONTINUOUS
 62
     5
100
AcDbLine
 10
35.79099999999999
 20
14.15399999999999
 30
0.0
 11
35.76999999999999
 21
14.148
 31
0.0
  0
LINE
  5
77
330
1E
100
AcDbEntity
  8
0
  6
CONTINUOUS
 62
     5
100
AcDbLine
 10
35.81199999999998
 20
14.15599999999999
 30
0.0
 11
35.79099999999999
 21
14.15399999999999
 31
0.0
  0
LINE
  5
78
330
1E
100
AcDbEntity
  8
0
  6
CONTINUOUS
 62
     5
100
AcDbLine
 10
35.83399999999999
 20
14.15399999999999
 30
0.0
 11
35.81199999999998
 21
14.15599999999999
 31
0.0
  0
LINE
  5
79
330
1E
100
AcDbEntity
  8
0
  6
CONTINUOUS
 62
     5
100
AcDbLine
 10
35.85499999999998
 20
14.148
 30
0.0
 11
35.83399999999999
 21
14.15399999999999
 31
0.0
  0
LINE
  5
7A
330
1E
100
AcDbEntity
  8
0
  6
CONTINUOUS
 62
     5
100
AcDbLine
 10
35.921
 20
14.08599999999998
 30
0.0
 11
35.908
 21
14.106
 31
0.0
  0
LINE
  5
7B
330
1E
100
AcDbEntity
  8
0
  6
CONTINUOUS
 62
     5
100
AcDbLine
 10
35.92999999999998
 20
14.064
 30
0.0
 11
35.921
 21
14.08599999999998
 31
0.0
  0
LINE
  5
7C
330
1E
100
AcDbEntity
  8
0
  6
CONTINUOUS
 62
     5
100
AcDbLine
 10
35.936
 20
14.03999999999999
 30
0.0
 11
35.92999999999998
 21
14.064
 31
0.0
  0
LINE
  5
7D
330
1E
100
AcDbEntity
  8
0
  6
CONTINUOUS
 62
     5
100
AcDbLine
 10
35.93699999999998
 20
14.016
 30
0.0
 11
35.936
 21
14.03999999999999
 31
0.0
  0
LINE
  5
7E
330
1E
100
AcDbEntity
  8
0
  6
CONTINUOUS
 62
     5
100
AcDbLine
 10
35.936
 20
13.992
 30
0.0
 11
35.93699999999998
 21
14.016
 31
0.0
  0
LINE
  5
7F
330
1E
100
AcDbEntity
  8
0
  6
CONTINUOUS
 62
     5
100
AcDbLine
 10
35.92999999999998
 20
13.968
 30
0.0
 11
35.936
 21
13.992
 31
0.0
  0
LINE
  5
80
330
1E
100
AcDbEntity
  8
0
  6
CONTINUOUS
 62
     5
100
AcDbLine
 10
35.921
 20
13.946
 30
0.0
 11
35.92999999999998
 21
13.968
 31
0.0
  0
LINE
  5
81
330
1E
100
AcDbEntity
  8
0
  6
CONTINUOUS
 62
     5
100
AcDbLine
 10
35.908
 20
13.92599999999999
 30
0.0
 11
35.921
 21
13.946
 31
0.0
  0
LINE
  5
82
330
1E
100
AcDbEntity
  8
0
  6
CONTINUOUS
 62
     5
100
AcDbLine
 10
36.01599999999999
 20
14.74599999999998
 30
0.0
 11
36.01599999999999
 21
14.974
 31
0.0
  0
CIRCLE
  5
83
330
1E
100
AcDbEntity
  8
0
  6
CONTINUOUS
 62
     5
100
AcDbCircle
 10
36.04699999999998
 20
13.266
 30
0.0
 40
0.095
  0
CIRCLE
  5
84
330
1E
100
AcDbEntity
  8
0
  6
CONTINUOUS
 62
     5
100
AcDbCircle
 10
36.04699999999998
 20
13.266
 30
0.0
 40
0.075
  0
ARC
  5
85
330
1E
100
AcDbEntity
  8
0
  6
CONTINUOUS
 62
     5
100
AcDbCircle
 10
36.04699999999998
 20
13.266
 30
0.0
 40
0.087
100
AcDbArc
 50
85.00000099999999
 51
5.0
  0
LINE
  5
86
330
1E
100
AcDbEntity
  8
0
  6
CONTINUOUS
 62
     5
100
AcDbLine
 10
36.04699999999998
 20
13.15199999999999
 30
0.0
 11
36.04699999999998
 21
13.38
 31
0.0
  0
LINE
  5
87
330
1E
100
AcDbEntity
  8
0
  6
CONTINUOUS
 62
     5
100
AcDbLine
 10
35.93299999999999
 20
13.266
 30
0.0
 11
36.15999999999998
 21
13.266
 31
0.0
  0
CIRCLE
  5
88
330
1E
100
AcDbEntity
  8
0
  6
CONTINUOUS
 62
     5
100
AcDbCircle
 10
36.01599999999999
 20
14.85999999999999
 30
0.0
 40
0.095
  0
CIRCLE
  5
89
330
1E
100
AcDbEntity
  8
0
  6
CONTINUOUS
 62
     5
100
AcDbCircle
 10
36.01599999999999
 20
14.85999999999999
 30
0.0
 40
0.075
  0
ARC
  5
8A
330
1E
100
AcDbEntity
  8
0
  6
CONTINUOUS
 62
     5
100
AcDbCircle
 10
36.01599999999999
 20
14.85999999999999
 30
0.0
 40
0.087
100
AcDbArc
 50
85.00000099999999
 51
5.0
  0
LINE
  5
8B
330
1E
100
AcDbEntity
  8
0
  6
CONTINUOUS
 62
     5
100
AcDbLine
 10
35.902
 20
14.85999999999999
 30
0.0
 11
36.12999999999999
 21
14.85999999999999
 31
0.0
  0
LINE
  5
8D
330
1E
100
AcDbEntity
  8
0
  6
CONTINUOUS
 62
     5
100
AcDbLine
 10
40.0
 20
12.125
 30
0.0
 11
43.0
 21
12.125
 31
0.0
  0
TEXT
  5
8E
330
1E
100
AcDbEntity
  8
0
 62
     5
100
AcDbText
 10
40.45524999999998
 20
12.7887845
 30
0.0
 40
0.2125
  1
P
 50
90.0
 41
0.825
 72
     4
 11
40.34899999999998
 21
12.847222
 31
0.0
100
AcDbText
  0
TEXT
  5
8F
330
1E
100
AcDbEntity
  8
0
 62
     5
100
AcDbText
 10
40.45524999999998
 20
15.62211849999999
 30
0.0
 40
0.2125
  1
T
 50
90.0
 41
0.825
 72
     4
 11
40.34899999999998
 21
15.680556
 31
0.0
100
AcDbText
  0
LINE
  5
90
330
1E
100
AcDbEntity
  8
0
  6
CONTINUOUS
 62
     5
100
AcDbLine
 10
40.0
 20
16.125
 30
0.0
 11
40.0
 21
12.125
 31
0.0
  0
LINE
  5
91
330
1E
100
AcDbEntity
  8
0
  6
CONTINUOUS
 62
     5
100
AcDbLine
 10
43.0
 20
12.125
 30
0.0
 11
43.0
 21
16.125
 31
0.0
  0
LINE
  5
95
330
1E
100
AcDbEntity
  8
0
  6
CONTINUOUS
 62
     5
100
AcDbLine
 10
38.49999999999998
 20
12.125
 30
0.0
 11
38.49999999999998
 21
16.125
 31
0.0
  0
CIRCLE
  5
12B
330
1E
100
AcDbEntity
  8
0
  6
CONTINUOUS
 62
     5
100
AcDbCircle
 10
34.76599999999999
 20
13.266
 30
0.0
 40
0.095
  0
CIRCLE
  5
12C
330
1E
100
AcDbEntity
  8
0
  6
CONTINUOUS
 62
     5
100
AcDbCircle
 10
34.76599999999999
 20
13.266
 30
0.0
 40
0.075
  0
ARC
  5
12D
330
1E
100
AcDbEntity
  8
0
  6
CONTINUOUS
 62
     5
100
AcDbCircle
 10
34.76599999999999
 20
13.266
 30
0.0
 40
0.087
100
AcDbArc
 50
85.00000099999999
 51
5.0
  0
LINE
  5
12E
330
1E
100
AcDbEntity
  8
0
  6
CONTINUOUS
 62
     5
100
AcDbLine
 10
34.76599999999999
 20
13.15199999999999
 30
0.0
 11
34.76599999999999
 21
13.38
 31
0.0
  0
LINE
  5
12F
330
1E
100
AcDbEntity
  8
0
  6
CONTINUOUS
 62
     5
100
AcDbLine
 10
34.652
 20
13.266
 30
0.0
 11
34.87999999999999
 21
13.266
 31
0.0
  0
CIRCLE
  5
130
330
1E
100
AcDbEntity
  8
0
  6
CONTINUOUS
 62
     5
100
AcDbCircle
 10
34.765
 20
13.561
 30
0.0
 40
0.078
  0
LINE
  5
131
330
1E
100
AcDbEntity
  8
0
  6
CONTINUOUS
 62
     5
100
AcDbLine
 10
34.765
 20
13.467
 30
0.0
 11
34.765
 21
13.65499999999999
 31
0.0
  0
LINE
  5
132
330
1E
100
AcDbEntity
  8
0
  6
CONTINUOUS
 62
     5
100
AcDbLine
 10
34.67199999999998
 20
13.561
 30
0.0
 11
34.859
 21
13.561
 31
0.0
  0
CIRCLE
  5
133
330
1E
100
AcDbEntity
  8
0
  6
CONTINUOUS
 62
     5
100
AcDbCircle
 10
34.796
 20
14.85999999999999
 30
0.0
 40
0.095
  0
CIRCLE
  5
134
330
1E
100
AcDbEntity
  8
0
  6
CONTINUOUS
 62
     5
100
AcDbCircle
 10
34.796
 20
14.85999999999999
 30
0.0
 40
0.075
  0
ARC
  5
135
330
1E
100
AcDbEntity
  8
0
  6
CONTINUOUS
 62
     5
100
AcDbCircle
 10
34.796
 20
14.85999999999999
 30
0.0
 40
0.087
100
AcDbArc
 50
85.00000099999999
 51
5.0
  0
LINE
  5
136
330
1E
100
AcDbEntity
  8
0
  6
CONTINUOUS
 62
     5
100
AcDbLine
 10
34.682
 20
14.85999999999999
 30
0.0
 11
34.90999999999999
 21
14.85999999999999
 31
0.0
  0
CIRCLE
  5
137
330
1E
100
AcDbEntity
  8
0
  6
CONTINUOUS
 62
     5
100
AcDbCircle
 10
35.0
 20
14.016
 30
0.0
 40
0.14
  0
LINE
  5
138
330
1E
100
AcDbEntity
  8
0
  6
CONTINUOUS
 62
     5
100
AcDbLine
 10
34.831
 20
14.016
 30
0.0
 11
35.16799999999998
 21
14.016
 31
0.0
  0
LINE
  5
139
330
1E
100
AcDbEntity
  8
0
  6
CONTINUOUS
 62
     5
100
AcDbLine
 10
35.0
 20
13.847
 30
0.0
 11
35.0
 21
14.185
 31
0.0
  0
LINE
  5
13A
330
1E
100
AcDbEntity
  8
0
  6
CONTINUOUS
 62
     5
100
AcDbLine
 10
34.796
 20
14.74599999999998
 30
0.0
 11
34.796
 21
14.974
 31
0.0
  0
LINE
  5
13B
330
1E
100
AcDbEntity
  8
0
  6
CONTINUOUS
 62
     5
100
AcDbLine
 10
35.40599999999999
 20
14.191
 30
0.0
 11
35.40599999999999
 21
14.529
 31
0.0
  0
LINE
  5
13C
330
1E
100
AcDbEntity
  8
0
  6
CONTINUOUS
 62
     5
100
AcDbLine
 10
35.40599999999999
 20
13.503
 30
0.0
 11
35.40599999999999
 21
13.841
 31
0.0
  0
CIRCLE
  5
259
330
1E
100
AcDbEntity
  8
0
  6
CONTINUOUS
 62
     5
100
AcDbCircle
 10
35.40599999999999
 20
14.35999999999999
 30
0.0
 40
0.14
  0
CIRCLE
  5
25A
330
1E
100
AcDbEntity
  8
0
  6
CONTINUOUS
 62
     5
100
AcDbCircle
 10
35.40599999999999
 20
13.672
 30
0.0
 40
0.14
  0
LINE
  5
25B
330
1E
100
AcDbEntity
  8
0
  6
CONTINUOUS
 62
     5
100
AcDbLine
 10
35.237
 20
13.672
 30
0.0
 11
35.57399999999998
 21
13.672
 31
0.0
  0
LINE
  5
25C
330
1E
100
AcDbEntity
  8
0
  6
CONTINUOUS
 62
     5
100
AcDbLine
 10
35.237
 20
14.35999999999999
 30
0.0
 11
35.57399999999998
 21
14.35999999999999
 31
0.0
  0
LINE
  5
26E
330
1E
100
AcDbEntity
  8
0
  6
CONTINUOUS
 62
     5
100
AcDbLine
 10
38.125
 20
5.525
 30
0.0
 11
38.125
 21
5.974999999999997
 31
0.0
  0
CIRCLE
  5
276
330
1E
100
AcDbEntity
  8
0
  6
CONTINUOUS
 62
     5
100
AcDbCircle
 10
38.125
 20
5.75
 30
0.0
 40
0.188
  0
CIRCLE
  5
277
330
1E
100
AcDbEntity
  8
0
  6
CONTINUOUS
 62
     5
100
AcDbCircle
 10
38.125
 20
5.75
 30
0.0
 40
0.156
  0
ARC
  5
278
330
1E
100
AcDbEntity
  8
0
  6
CONTINUOUS
 62
     5
100
AcDbCircle
 10
38.125
 20
5.75
 30
0.0
 40
0.183
100
AcDbArc
 50
85.00000099999999
 51
5.0
  0
LINE
  5
279
330
1E
100
AcDbEntity
  8
0
  6
CONTINUOUS
 62
     5
100
AcDbLine
 10
37.899
 20
5.75
 30
0.0
 11
38.35
 21
5.75
 31
0.0
  0
LINE
  5
27A
330
1E
100
AcDbEntity
  8
0
  6
CONTINUOUS
 62
     5
100
AcDbLine
 10
38.125
 20
2.274999999999999
 30
0.0
 11
38.125
 21
2.725
 31
0.0
  0
CIRCLE
  5
285
330
1E
100
AcDbEntity
  8
0
  6
CONTINUOUS
 62
     5
100
AcDbCircle
 10
38.125
 20
2.5
 30
0.0
 40
0.188
  0
CIRCLE
  5
286
330
1E
100
AcDbEntity
  8
0
  6
CONTINUOUS
 62
     5
100
AcDbCircle
 10
38.125
 20
2.5
 30
0.0
 40
0.156
  0
ARC
  5
287
330
1E
100
AcDbEntity
  8
0
  6
CONTINUOUS
 62
     5
100
AcDbCircle
 10
38.125
 20
2.5
 30
0.0
 40
0.183
100
AcDbArc
 50
85.00000099999999
 51
5.0
  0
LINE
  5
288
330
1E
100
AcDbEntity
  8
0
  6
CONTINUOUS
 62
     5
100
AcDbLine
 10
37.899
 20
2.5
 30
0.0
 11
38.35
 21
2.5
 31
0.0
  0
LINE
  5
28B
330
1E
100
AcDbEntity
  8
0
  6
CONTINUOUS
 62
     5
100
AcDbLine
 10
38.49999999999998
 20
6.125
 30
0.0
 11
38.49999999999998
 21
2.125
 31
0.0
  0
LINE
  5
2F8
330
1E
100
AcDbEntity
  8
0
  6
CONTINUOUS
 62
     5
100
AcDbLine
 10
38.49999999999998
 20
10.625
 30
0.0
 11
38.49999999999998
 21
7.625
 31
0.0
  0
LINE
  5
561
330
1E
100
AcDbEntity
  8
0
  6
CONTINUOUS
 62
     5
100
AcDbLine
 10
8.375
 20
16.125
 30
0.0
 11
11.37499999999999
 21
16.125
 31
0.0
  0
LINE
  5
562
330
1E
100
AcDbEntity
  8
0
  6
CONTINUOUS
 62
     5
100
AcDbLine
 10
12.875
 20
20.625
 30
0.0
 11
12.875
 21
17.625
 31
0.0
  0
CIRCLE
  5
571
330
1E
100
AcDbEntity
  8
0
  6
CONTINUOUS
 62
     5
100
AcDbCircle
 10
16.92099999999999
 20
13.266
 30
0.0
 40
0.095
  0
CIRCLE
  5
572
330
1E
100
AcDbEntity
  8
0
  6
CONTINUOUS
 62
     5
100
AcDbCircle
 10
16.92099999999999
 20
13.266
 30
0.0
 40
0.075
  0
ARC
  5
573
330
1E
100
AcDbEntity
  8
0
  6
CONTINUOUS
 62
     5
100
AcDbCircle
 10
16.92099999999999
 20
13.266
 30
0.0
 40
0.087
100
AcDbArc
 50
85.00000099999999
 51
5.0
  0
LINE
  5
574
330
1E
100
AcDbEntity
  8
0
  6
CONTINUOUS
 62
     5
100
AcDbLine
 10
16.92099999999999
 20
13.15199999999999
 30
0.0
 11
16.92099999999999
 21
13.38
 31
0.0
  0
LINE
  5
575
330
1E
100
AcDbEntity
  8
0
  6
CONTINUOUS
 62
     5
100
AcDbLine
 10
16.80699999999999
 20
13.266
 30
0.0
 11
17.035
 21
13.266
 31
0.0
  0
CIRCLE
  5
576
330
1E
100
AcDbEntity
  8
0
  6
CONTINUOUS
 62
     5
100
AcDbCircle
 10
16.28099999999999
 20
14.35999999999999
 30
0.0
 40
0.14
  0
LINE
  5
577
330
1E
100
AcDbEntity
  8
0
  6
CONTINUOUS
 62
     5
100
AcDbLine
 10
16.28099999999999
 20
14.191
 30
0.0
 11
16.28099999999999
 21
14.529
 31
0.0
  0
LINE
  5
578
330
1E
100
AcDbEntity
  8
0
  6
CONTINUOUS
 62
     5
100
AcDbLine
 10
16.28099999999999
 20
13.503
 30
0.0
 11
16.28099999999999
 21
13.841
 31
0.0
  0
CIRCLE
  5
579
330
1E
100
AcDbEntity
  8
0
  6
CONTINUOUS
 62
     5
100
AcDbCircle
 10
15.875
 20
14.016
 30
0.0
 40
0.14
  0
LINE
  5
57A
330
1E
100
AcDbEntity
  8
0
  6
CONTINUOUS
 62
     5
100
AcDbLine
 10
15.70599999999999
 20
14.016
 30
0.0
 11
16.043
 21
14.016
 31
0.0
  0
LINE
  5
57B
330
1E
100
AcDbEntity
  8
0
  6
CONTINUOUS
 62
     5
100
AcDbLine
 10
15.875
 20
13.847
 30
0.0
 11
15.875
 21
14.185
 31
0.0
  0
CIRCLE
  5
57C
330
1E
100
AcDbEntity
  8
0
  6
CONTINUOUS
 62
     5
100
AcDbCircle
 10
16.28099999999999
 20
13.672
 30
0.0
 40
0.14
  0
LINE
  5
57D
330
1E
100
AcDbEntity
  8
0
  6
CONTINUOUS
 62
     5
100
AcDbLine
 10
16.112
 20
13.672
 30
0.0
 11
16.449
 21
13.672
 31
0.0
  0
LINE
  5
57E
330
1E
100
AcDbEntity
  8
0
  6
CONTINUOUS
 62
     5
100
AcDbLine
 10
16.73
 20
13.884
 30
0.0
 11
16.75
 21
13.89499999999999
 31
0.0
  0
LINE
  5
57F
330
1E
100
AcDbEntity
  8
0
  6
CONTINUOUS
 62
     5
100
AcDbLine
 10
16.709
 20
13.878
 30
0.0
 11
16.73
 21
13.884
 31
0.0
  0
LINE
  5
580
330
1E
100
AcDbEntity
  8
0
  6
CONTINUOUS
 62
     5
100
AcDbLine
 10
16.687
 20
13.87599999999999
 30
0.0
 11
16.709
 21
13.878
 31
0.0
  0
LINE
  5
581
330
1E
100
AcDbEntity
  8
0
  6
CONTINUOUS
 62
     5
100
AcDbLine
 10
16.666
 20
13.878
 30
0.0
 11
16.687
 21
13.87599999999999
 31
0.0
  0
LINE
  5
582
330
1E
100
AcDbEntity
  8
0
  6
CONTINUOUS
 62
     5
100
AcDbLine
 10
16.645
 20
13.884
 30
0.0
 11
16.666
 21
13.878
 31
0.0
  0
LINE
  5
583
330
1E
100
AcDbEntity
  8
0
  6
CONTINUOUS
 62
     5
100
AcDbLine
 10
16.625
 20
13.89499999999999
 30
0.0
 11
16.645
 21
13.884
 31
0.0
  0
LINE
  5
584
330
1E
100
AcDbEntity
  8
0
  6
CONTINUOUS
 62
     5
100
AcDbLine
 10
16.687
 20
13.866
 30
0.0
 11
16.687
 21
14.16599999999998
 31
0.0
  0
LINE
  5
585
330
1E
100
AcDbEntity
  8
0
  6
CONTINUOUS
 62
     5
100
AcDbLine
 10
16.564
 20
14.03999999999999
 30
0.0
 11
16.562
 21
14.016
 31
0.0
  0
LINE
  5
586
330
1E
100
AcDbEntity
  8
0
  6
CONTINUOUS
 62
     5
100
AcDbLine
 10
16.57
 20
14.064
 30
0.0
 11
16.564
 21
14.03999999999999
 31
0.0
  0
LINE
  5
587
330
1E
100
AcDbEntity
  8
0
  6
CONTINUOUS
 62
     5
100
AcDbLine
 10
16.579
 20
14.08599999999998
 30
0.0
 11
16.57
 21
14.064
 31
0.0
  0
LINE
  5
588
330
1E
100
AcDbEntity
  8
0
  6
CONTINUOUS
 62
     5
100
AcDbLine
 10
16.592
 20
14.106
 30
0.0
 11
16.579
 21
14.08599999999998
 31
0.0
  0
LINE
  5
589
330
1E
100
AcDbEntity
  8
0
  6
CONTINUOUS
 62
     5
100
AcDbLine
 10
16.607
 20
14.123
 30
0.0
 11
16.592
 21
14.106
 31
0.0
  0
LINE
  5
58A
330
1E
100
AcDbEntity
  8
0
  6
CONTINUOUS
 62
     5
100
AcDbLine
 10
16.625
 20
14.137
 30
0.0
 11
16.607
 21
14.123
 31
0.0
  0
LINE
  5
58B
330
1E
100
AcDbEntity
  8
0
  6
CONTINUOUS
 62
     5
100
AcDbLine
 10
16.645
 20
14.148
 30
0.0
 11
16.625
 21
14.137
 31
0.0
  0
LINE
  5
58C
330
1E
100
AcDbEntity
  8
0
  6
CONTINUOUS
 62
     5
100
AcDbLine
 10
16.666
 20
14.15399999999999
 30
0.0
 11
16.645
 21
14.148
 31
0.0
  0
LINE
  5
58D
330
1E
100
AcDbEntity
  8
0
  6
CONTINUOUS
 62
     5
100
AcDbLine
 10
16.687
 20
14.15599999999999
 30
0.0
 11
16.666
 21
14.15399999999999
 31
0.0
  0
LINE
  5
58E
330
1E
100
AcDbEntity
  8
0
  6
CONTINUOUS
 62
     5
100
AcDbLine
 10
16.709
 20
14.15399999999999
 30
0.0
 11
16.687
 21
14.15599999999999
 31
0.0
  0
LINE
  5
58F
330
1E
100
AcDbEntity
  8
0
  6
CONTINUOUS
 62
     5
100
AcDbLine
 10
16.73
 20
14.148
 30
0.0
 11
16.709
 21
14.15399999999999
 31
0.0
  0
LINE
  5
590
330
1E
100
AcDbEntity
  8
0
  6
CONTINUOUS
 62
     5
100
AcDbLine
 10
16.75
 20
14.137
 30
0.0
 11
16.73
 21
14.148
 31
0.0
  0
LINE
  5
591
330
1E
100
AcDbEntity
  8
0
  6
CONTINUOUS
 62
     5
100
AcDbLine
 10
16.768
 20
14.123
 30
0.0
 11
16.75
 21
14.137
 31
0.0
  0
LINE
  5
592
330
1E
100
AcDbEntity
  8
0
  6
CONTINUOUS
 62
     5
100
AcDbLine
 10
16.783
 20
14.106
 30
0.0
 11
16.768
 21
14.123
 31
0.0
  0
LINE
  5
593
330
1E
100
AcDbEntity
  8
0
  6
CONTINUOUS
 62
     5
100
AcDbLine
 10
16.79599999999998
 20
14.08599999999998
 30
0.0
 11
16.783
 21
14.106
 31
0.0
  0
LINE
  5
594
330
1E
100
AcDbEntity
  8
0
  6
CONTINUOUS
 62
     5
100
AcDbLine
 10
16.805
 20
14.064
 30
0.0
 11
16.79599999999998
 21
14.08599999999998
 31
0.0
  0
LINE
  5
595
330
1E
100
AcDbEntity
  8
0
  6
CONTINUOUS
 62
     5
100
AcDbLine
 10
16.81099999999998
 20
14.03999999999999
 30
0.0
 11
16.805
 21
14.064
 31
0.0
  0
LINE
  5
596
330
1E
100
AcDbEntity
  8
0
  6
CONTINUOUS
 62
     5
100
AcDbLine
 10
16.812
 20
14.016
 30
0.0
 11
16.81099999999998
 21
14.03999999999999
 31
0.0
  0
LINE
  5
597
330
1E
100
AcDbEntity
  8
0
  6
CONTINUOUS
 62
     5
100
AcDbLine
 10
16.81099999999998
 20
13.992
 30
0.0
 11
16.812
 21
14.016
 31
0.0
  0
LINE
  5
598
330
1E
100
AcDbEntity
  8
0
  6
CONTINUOUS
 62
     5
100
AcDbLine
 10
16.805
 20
13.968
 30
0.0
 11
16.81099999999998
 21
13.992
 31
0.0
  0
LINE
  5
599
330
1E
100
AcDbEntity
  8
0
  6
CONTINUOUS
 62
     5
100
AcDbLine
 10
16.79599999999998
 20
13.946
 30
0.0
 11
16.805
 21
13.968
 31
0.0
  0
LINE
  5
59A
330
1E
100
AcDbEntity
  8
0
  6
CONTINUOUS
 62
     5
100
AcDbLine
 10
16.783
 20
13.92599999999999
 30
0.0
 11
16.79599999999998
 21
13.946
 31
0.0
  0
LINE
  5
59B
330
1E
100
AcDbEntity
  8
0
  6
CONTINUOUS
 62
     5
100
AcDbLine
 10
16.768
 20
13.909
 30
0.0
 11
16.783
 21
13.92599999999999
 31
0.0
  0
LINE
  5
59C
330
1E
100
AcDbEntity
  8
0
  6
CONTINUOUS
 62
     5
100
AcDbLine
 10
16.75
 20
13.89499999999999
 30
0.0
 11
16.768
 21
13.909
 31
0.0
  0
LINE
  5
59D
330
1E
100
AcDbEntity
  8
0
  6
CONTINUOUS
 62
     5
100
AcDbLine
 10
16.607
 20
13.909
 30
0.0
 11
16.625
 21
13.89499999999999
 31
0.0
  0
LINE
  5
59E
330
1E
100
AcDbEntity
  8
0
  6
CONTINUOUS
 62
     5
100
AcDbLine
 10
16.592
 20
13.92599999999999
 30
0.0
 11
16.607
 21
13.909
 31
0.0
  0
LINE
  5
59F
330
1E
100
AcDbEntity
  8
0
  6
CONTINUOUS
 62
     5
100
AcDbLine
 10
16.579
 20
13.946
 30
0.0
 11
16.592
 21
13.92599999999999
 31
0.0
  0
LINE
  5
5A0
330
1E
100
AcDbEntity
  8
0
  6
CONTINUOUS
 62
     5
100
AcDbLine
 10
16.57
 20
13.968
 30
0.0
 11
16.579
 21
13.946
 31
0.0
  0
LINE
  5
5A1
330
1E
100
AcDbEntity
  8
0
  6
CONTINUOUS
 62
     5
100
AcDbLine
 10
16.564
 20
13.992
 30
0.0
 11
16.57
 21
13.968
 31
0.0
  0
LINE
  5
5A2
330
1E
100
AcDbEntity
  8
0
  6
CONTINUOUS
 62
     5
100
AcDbLine
 10
16.562
 20
14.016
 30
0.0
 11
16.564
 21
13.992
 31
0.0
  0
LINE
  5
5A3
330
1E
100
AcDbEntity
  8
0
  6
CONTINUOUS
 62
     5
100
AcDbLine
 10
16.538
 20
14.016
 30
0.0
 11
16.838
 21
14.016
 31
0.0
  0
LINE
  5
5A4
330
1E
100
AcDbEntity
  8
0
  6
CONTINUOUS
 62
     5
100
AcDbLine
 10
16.112
 20
14.35999999999999
 30
0.0
 11
16.449
 21
14.35999999999999
 31
0.0
  0
CIRCLE
  5
5A5
330
1E
100
AcDbEntity
  8
0
  6
CONTINUOUS
 62
     5
100
AcDbCircle
 10
16.89099999999999
 20
14.85999999999999
 30
0.0
 40
0.095
  0
CIRCLE
  5
5A6
330
1E
100
AcDbEntity
  8
0
  6
CONTINUOUS
 62
     5
100
AcDbCircle
 10
16.89099999999999
 20
14.85999999999999
 30
0.0
 40
0.075
  0
ARC
  5
5A7
330
1E
100
AcDbEntity
  8
0
  6
CONTINUOUS
 62
     5
100
AcDbCircle
 10
16.89099999999999
 20
14.85999999999999
 30
0.0
 40
0.087
100
AcDbArc
 50
85.00000099999999
 51
5.0
  0
LINE
  5
5A8
330
1E
100
AcDbEntity
  8
0
  6
CONTINUOUS
 62
     5
100
AcDbLine
 10
16.89099999999999
 20
14.74599999999998
 30
0.0
 11
16.89099999999999
 21
14.974
 31
0.0
  0
LINE
  5
5A9
330
1E
100
AcDbEntity
  8
0
  6
CONTINUOUS
 62
     5
100
AcDbLine
 10
16.777
 20
14.85999999999999
 30
0.0
 11
17.00499999999999
 21
14.85999999999999
 31
0.0
  0
LINE
  5
5AA
330
1E
100
AcDbEntity
  8
0
  6
CONTINUOUS
 62
     5
100
AcDbLine
 10
15.64099999999999
 20
13.15199999999999
 30
0.0
 11
15.64099999999999
 21
13.38
 31
0.0
  0
LINE
  5
5AB
330
1E
100
AcDbEntity
  8
0
  6
CONTINUOUS
 62
     5
100
AcDbLine
 10
15.64
 20
13.467
 30
0.0
 11
15.64
 21
13.65499999999999
 31
0.0
  0
LINE
  5
5AC
330
1E
100
AcDbEntity
  8
0
  6
CONTINUOUS
 62
     5
100
AcDbLine
 10
14.76599999999999
 20
14.74599999999998
 30
0.0
 11
14.76599999999999
 21
14.974
 31
0.0
  0
ARC
  5
5AD
330
1E
100
AcDbEntity
  8
0
  6
CONTINUOUS
 62
     5
100
AcDbCircle
 10
14.76599999999999
 20
14.85999999999999
 30
0.0
 40
0.087
100
AcDbArc
 50
85.00000099999999
 51
5.0
  0
CIRCLE
  5
5AE
330
1E
100
AcDbEntity
  8
0
  6
CONTINUOUS
 62
     5
100
AcDbCircle
 10
14.76599999999999
 20
14.85999999999999
 30
0.0
 40
0.075
  0
CIRCLE
  5
5AF
330
1E
100
AcDbEntity
  8
0
  6
CONTINUOUS
 62
     5
100
AcDbCircle
 10
14.76599999999999
 20
14.85999999999999
 30
0.0
 40
0.095
  0
LINE
  5
5B0
330
1E
100
AcDbEntity
  8
0
  6
CONTINUOUS
 62
     5
100
AcDbLine
 10
14.652
 20
14.85999999999999
 30
0.0
 11
14.88
 21
14.85999999999999
 31
0.0
  0
LINE
  5
5B1
330
1E
100
AcDbEntity
  8
0
  6
CONTINUOUS
 62
     5
100
AcDbLine
 10
13.987
 20
14.35999999999999
 30
0.0
 11
14.324
 21
14.35999999999999
 31
0.0
  0
LINE
  5
5B2
330
1E
100
AcDbEntity
  8
0
  6
CONTINUOUS
 62
     5
100
AcDbLine
 10
14.413
 20
14.016
 30
0.0
 11
14.713
 21
14.016
 31
0.0
  0
LINE
  5
5B3
330
1E
100
AcDbEntity
  8
0
  6
CONTINUOUS
 62
     5
100
AcDbLine
 10
14.43699999999999
 20
14.016
 30
0.0
 11
14.439
 21
13.992
 31
0.0
  0
LINE
  5
5B4
330
1E
100
AcDbEntity
  8
0
  6
CONTINUOUS
 62
     5
100
AcDbLine
 10
14.439
 20
13.992
 30
0.0
 11
14.445
 21
13.968
 31
0.0
  0
LINE
  5
5B5
330
1E
100
AcDbEntity
  8
0
  6
CONTINUOUS
 62
     5
100
AcDbLine
 10
14.445
 20
13.968
 30
0.0
 11
14.454
 21
13.946
 31
0.0
  0
LINE
  5
5B6
330
1E
100
AcDbEntity
  8
0
  6
CONTINUOUS
 62
     5
100
AcDbLine
 10
14.454
 20
13.946
 30
0.0
 11
14.467
 21
13.92599999999999
 31
0.0
  0
LINE
  5
5B7
330
1E
100
AcDbEntity
  8
0
  6
CONTINUOUS
 62
     5
100
AcDbLine
 10
14.467
 20
13.92599999999999
 30
0.0
 11
14.48199999999999
 21
13.909
 31
0.0
  0
LINE
  5
5B8
330
1E
100
AcDbEntity
  8
0
  6
CONTINUOUS
 62
     5
100
AcDbLine
 10
14.48199999999999
 20
13.909
 30
0.0
 11
14.5
 21
13.89499999999999
 31
0.0
  0
LINE
  5
5B9
330
1E
100
AcDbEntity
  8
0
  6
CONTINUOUS
 62
     5
100
AcDbLine
 10
14.625
 20
13.89499999999999
 30
0.0
 11
14.64299999999999
 21
13.909
 31
0.0
  0
LINE
  5
5BA
330
1E
100
AcDbEntity
  8
0
  6
CONTINUOUS
 62
     5
100
AcDbLine
 10
14.64299999999999
 20
13.909
 30
0.0
 11
14.65799999999999
 21
13.92599999999999
 31
0.0
  0
LINE
  5
5BB
330
1E
100
AcDbEntity
  8
0
  6
CONTINUOUS
 62
     5
100
AcDbLine
 10
14.65799999999999
 20
13.92599999999999
 30
0.0
 11
14.671
 21
13.946
 31
0.0
  0
LINE
  5
5BC
330
1E
100
AcDbEntity
  8
0
  6
CONTINUOUS
 62
     5
100
AcDbLine
 10
14.671
 20
13.946
 30
0.0
 11
14.67999999999999
 21
13.968
 31
0.0
  0
LINE
  5
5BD
330
1E
100
AcDbEntity
  8
0
  6
CONTINUOUS
 62
     5
100
AcDbLine
 10
14.67999999999999
 20
13.968
 30
0.0
 11
14.686
 21
13.992
 31
0.0
  0
LINE
  5
5BE
330
1E
100
AcDbEntity
  8
0
  6
CONTINUOUS
 62
     5
100
AcDbLine
 10
14.686
 20
13.992
 30
0.0
 11
14.687
 21
14.016
 31
0.0
  0
LINE
  5
5BF
330
1E
100
AcDbEntity
  8
0
  6
CONTINUOUS
 62
     5
100
AcDbLine
 10
14.687
 20
14.016
 30
0.0
 11
14.686
 21
14.03999999999999
 31
0.0
  0
LINE
  5
5C0
330
1E
100
AcDbEntity
  8
0
  6
CONTINUOUS
 62
     5
100
AcDbLine
 10
14.686
 20
14.03999999999999
 30
0.0
 11
14.67999999999999
 21
14.064
 31
0.0
  0
LINE
  5
5C1
330
1E
100
AcDbEntity
  8
0
  6
CONTINUOUS
 62
     5
100
AcDbLine
 10
14.67999999999999
 20
14.064
 30
0.0
 11
14.671
 21
14.08599999999998
 31
0.0
  0
LINE
  5
5C2
330
1E
100
AcDbEntity
  8
0
  6
CONTINUOUS
 62
     5
100
AcDbLine
 10
14.671
 20
14.08599999999998
 30
0.0
 11
14.65799999999999
 21
14.106
 31
0.0
  0
LINE
  5
5C3
330
1E
100
AcDbEntity
  8
0
  6
CONTINUOUS
 62
     5
100
AcDbLine
 10
14.65799999999999
 20
14.106
 30
0.0
 11
14.64299999999999
 21
14.123
 31
0.0
  0
LINE
  5
5C4
330
1E
100
AcDbEntity
  8
0
  6
CONTINUOUS
 62
     5
100
AcDbLine
 10
14.64299999999999
 20
14.123
 30
0.0
 11
14.625
 21
14.137
 31
0.0
  0
LINE
  5
5C5
330
1E
100
AcDbEntity
  8
0
  6
CONTINUOUS
 62
     5
100
AcDbLine
 10
14.625
 20
14.137
 30
0.0
 11
14.605
 21
14.148
 31
0.0
  0
LINE
  5
5C6
330
1E
100
AcDbEntity
  8
0
  6
CONTINUOUS
 62
     5
100
AcDbLine
 10
14.605
 20
14.148
 30
0.0
 11
14.584
 21
14.15399999999999
 31
0.0
  0
LINE
  5
5C7
330
1E
100
AcDbEntity
  8
0
  6
CONTINUOUS
 62
     5
100
AcDbLine
 10
14.584
 20
14.15399999999999
 30
0.0
 11
14.56199999999999
 21
14.15599999999999
 31
0.0
  0
LINE
  5
5C8
330
1E
100
AcDbEntity
  8
0
  6
CONTINUOUS
 62
     5
100
AcDbLine
 10
14.56199999999999
 20
14.15599999999999
 30
0.0
 11
14.54099999999999
 21
14.15399999999999
 31
0.0
  0
LINE
  5
5C9
330
1E
100
AcDbEntity
  8
0
  6
CONTINUOUS
 62
     5
100
AcDbLine
 10
14.54099999999999
 20
14.15399999999999
 30
0.0
 11
14.51999999999999
 21
14.148
 31
0.0
  0
LINE
  5
5CA
330
1E
100
AcDbEntity
  8
0
  6
CONTINUOUS
 62
     5
100
AcDbLine
 10
14.51999999999999
 20
14.148
 30
0.0
 11
14.5
 21
14.137
 31
0.0
  0
LINE
  5
5CB
330
1E
100
AcDbEntity
  8
0
  6
CONTINUOUS
 62
     5
100
AcDbLine
 10
14.5
 20
14.137
 30
0.0
 11
14.48199999999999
 21
14.123
 31
0.0
  0
LINE
  5
5CC
330
1E
100
AcDbEntity
  8
0
  6
CONTINUOUS
 62
     5
100
AcDbLine
 10
14.48199999999999
 20
14.123
 30
0.0
 11
14.467
 21
14.106
 31
0.0
  0
LINE
  5
5CD
330
1E
100
AcDbEntity
  8
0
  6
CONTINUOUS
 62
     5
100
AcDbLine
 10
14.467
 20
14.106
 30
0.0
 11
14.454
 21
14.08599999999998
 31
0.0
  0
LINE
  5
5CE
330
1E
100
AcDbEntity
  8
0
  6
CONTINUOUS
 62
     5
100
AcDbLine
 10
14.454
 20
14.08599999999998
 30
0.0
 11
14.445
 21
14.064
 31
0.0
  0
LINE
  5
5CF
330
1E
100
AcDbEntity
  8
0
  6
CONTINUOUS
 62
     5
100
AcDbLine
 10
14.445
 20
14.064
 30
0.0
 11
14.439
 21
14.03999999999999
 31
0.0
  0
LINE
  5
5D0
330
1E
100
AcDbEntity
  8
0
  6
CONTINUOUS
 62
     5
100
AcDbLine
 10
14.439
 20
14.03999999999999
 30
0.0
 11
14.43699999999999
 21
14.016
 31
0.0
  0
LINE
  5
5D1
330
1E
100
AcDbEntity
  8
0
  6
CONTINUOUS
 62
     5
100
AcDbLine
 10
14.56199999999999
 20
13.866
 30
0.0
 11
14.56199999999999
 21
14.16599999999998
 31
0.0
  0
LINE
  5
5D2
330
1E
100
AcDbEntity
  8
0
  6
CONTINUOUS
 62
     5
100
AcDbLine
 10
14.5
 20
13.89499999999999
 30
0.0
 11
14.51999999999999
 21
13.884
 31
0.0
  0
LINE
  5
5D3
330
1E
100
AcDbEntity
  8
0
  6
CONTINUOUS
 62
     5
100
AcDbLine
 10
14.51999999999999
 20
13.884
 30
0.0
 11
14.54099999999999
 21
13.878
 31
0.0
  0
LINE
  5
5D4
330
1E
100
AcDbEntity
  8
0
  6
CONTINUOUS
 62
     5
100
AcDbLine
 10
14.54099999999999
 20
13.878
 30
0.0
 11
14.56199999999999
 21
13.87599999999999
 31
0.0
  0
LINE
  5
5D5
330
1E
100
AcDbEntity
  8
0
  6
CONTINUOUS
 62
     5
100
AcDbLine
 10
14.56199999999999
 20
13.87599999999999
 30
0.0
 11
14.584
 21
13.878
 31
0.0
  0
LINE
  5
5D6
330
1E
100
AcDbEntity
  8
0
  6
CONTINUOUS
 62
     5
100
AcDbLine
 10
14.584
 20
13.878
 30
0.0
 11
14.605
 21
13.884
 31
0.0
  0
LINE
  5
5D7
330
1E
100
AcDbEntity
  8
0
  6
CONTINUOUS
 62
     5
100
AcDbLine
 10
14.605
 20
13.884
 30
0.0
 11
14.625
 21
13.89499999999999
 31
0.0
  0
LINE
  5
5D8
330
1E
100
AcDbEntity
  8
0
  6
CONTINUOUS
 62
     5
100
AcDbLine
 10
13.987
 20
13.672
 30
0.0
 11
14.324
 21
13.672
 31
0.0
  0
CIRCLE
  5
5D9
330
1E
100
AcDbEntity
  8
0
  6
CONTINUOUS
 62
     5
100
AcDbCircle
 10
14.15599999999999
 20
13.672
 30
0.0
 40
0.14
  0
LINE
  5
5DA
330
1E
100
AcDbEntity
  8
0
  6
CONTINUOUS
 62
     5
100
AcDbLine
 10
13.75
 20
13.847
 30
0.0
 11
13.75
 21
14.185
 31
0.0
  0
LINE
  5
5DB
330
1E
100
AcDbEntity
  8
0
  6
CONTINUOUS
 62
     5
100
AcDbLine
 10
14.15599999999999
 20
13.503
 30
0.0
 11
14.15599999999999
 21
13.841
 31
0.0
  0
LINE
  5
5DC
330
1E
100
AcDbEntity
  8
0
  6
CONTINUOUS
 62
     5
100
AcDbLine
 10
14.15599999999999
 20
14.191
 30
0.0
 11
14.15599999999999
 21
14.529
 31
0.0
  0
CIRCLE
  5
5DD
330
1E
100
AcDbEntity
  8
0
  6
CONTINUOUS
 62
     5
100
AcDbCircle
 10
14.15599999999999
 20
14.35999999999999
 30
0.0
 40
0.14
  0
LINE
  5
5DE
330
1E
100
AcDbEntity
  8
0
  6
CONTINUOUS
 62
     5
100
AcDbLine
 10
13.546
 20
14.74599999999998
 30
0.0
 11
13.546
 21
14.974
 31
0.0
  0
LINE
  5
5DF
330
1E
100
AcDbEntity
  8
0
  6
CONTINUOUS
 62
     5
100
AcDbLine
 10
13.515
 20
13.467
 30
0.0
 11
13.515
 21
13.65499999999999
 31
0.0
  0
CIRCLE
  5
5E0
330
1E
100
AcDbEntity
  8
0
  6
CONTINUOUS
 62
     5
100
AcDbCircle
 10
13.515
 20
13.561
 30
0.0
 40
0.078
  0
LINE
  5
5E1
330
1E
100
AcDbEntity
  8
0
  6
CONTINUOUS
 62
     5
100
AcDbLine
 10
13.432
 20
14.85999999999999
 30
0.0
 11
13.661
 21
14.85999999999999
 31
0.0
  0
ARC
  5
5E2
330
1E
100
AcDbEntity
  8
0
  6
CONTINUOUS
 62
     5
100
AcDbCircle
 10
13.546
 20
14.85999999999999
 30
0.0
 40
0.087
100
AcDbArc
 50
85.00000099999999
 51
5.0
  0
CIRCLE
  5
5E3
330
1E
100
AcDbEntity
  8
0
  6
CONTINUOUS
 62
     5
100
AcDbCircle
 10
13.546
 20
14.85999999999999
 30
0.0
 40
0.075
  0
CIRCLE
  5
5E4
330
1E
100
AcDbEntity
  8
0
  6
CONTINUOUS
 62
     5
100
AcDbCircle
 10
13.546
 20
14.85999999999999
 30
0.0
 40
0.095
  0
LINE
  5
5E5
330
1E
100
AcDbEntity
  8
0
  6
CONTINUOUS
 62
     5
100
AcDbLine
 10
13.422
 20
13.561
 30
0.0
 11
13.60899999999999
 21
13.561
 31
0.0
  0
LINE
  5
5E6
330
1E
100
AcDbEntity
  8
0
  6
CONTINUOUS
 62
     5
100
AcDbLine
 10
13.581
 20
14.016
 30
0.0
 11
13.91799999999999
 21
14.016
 31
0.0
  0
CIRCLE
  5
5E7
330
1E
100
AcDbEntity
  8
0
  6
CONTINUOUS
 62
     5
100
AcDbCircle
 10
13.75
 20
14.016
 30
0.0
 40
0.14
  0
LINE
  5
5E8
330
1E
100
AcDbEntity
  8
0
  6
CONTINUOUS
 62
     5
100
AcDbLine
 10
14.796
 20
13.15199999999999
 30
0.0
 11
14.796
 21
13.38
 31
0.0
  0
LINE
  5
5E9
330
1E
100
AcDbEntity
  8
0
  6
CONTINUOUS
 62
     5
100
AcDbLine
 10
14.682
 20
13.266
 30
0.0
 11
14.911
 21
13.266
 31
0.0
  0
ARC
  5
5EA
330
1E
100
AcDbEntity
  8
0
  6
CONTINUOUS
 62
     5
100
AcDbCircle
 10
14.796
 20
13.266
 30
0.0
 40
0.087
100
AcDbArc
 50
85.00000099999999
 51
5.0
  0
CIRCLE
  5
5EB
330
1E
100
AcDbEntity
  8
0
  6
CONTINUOUS
 62
     5
100
AcDbCircle
 10
14.796
 20
13.266
 30
0.0
 40
0.075
  0
CIRCLE
  5
5EC
330
1E
100
AcDbEntity
  8
0
  6
CONTINUOUS
 62
     5
100
AcDbCircle
 10
14.796
 20
13.266
 30
0.0
 40
0.095
  0
LINE
  5
5ED
330
1E
100
AcDbEntity
  8
0
  6
CONTINUOUS
 62
     5
100
AcDbLine
 10
13.515
 20
13.15199999999999
 30
0.0
 11
13.515
 21
13.38
 31
0.0
  0
CIRCLE
  5
5EE
330
1E
100
AcDbEntity
  8
0
  6
CONTINUOUS
 62
     5
100
AcDbCircle
 10
13.515
 20
13.266
 30
0.0
 40
0.075
  0
LINE
  5
5EF
330
1E
100
AcDbEntity
  8
0
  6
CONTINUOUS
 62
     5
100
AcDbLine
 10
13.402
 20
13.266
 30
0.0
 11
13.63
 21
13.266
 31
0.0
  0
ARC
  5
5F0
330
1E
100
AcDbEntity
  8
0
  6
CONTINUOUS
 62
     5
100
AcDbCircle
 10
13.515
 20
13.266
 30
0.0
 40
0.087
100
AcDbArc
 50
85.00000099999999
 51
5.0
  0
CIRCLE
  5
5F1
330
1E
100
AcDbEntity
  8
0
  6
CONTINUOUS
 62
     5
100
AcDbCircle
 10
13.515
 20
13.266
 30
0.0
 40
0.095
  0
CIRCLE
  5
5F2
330
1E
100
AcDbEntity
  8
0
  6
CONTINUOUS
 62
     5
100
AcDbCircle
 10
15.64099999999999
 20
13.266
 30
0.0
 40
0.095
  0
CIRCLE
  5
5F3
330
1E
100
AcDbEntity
  8
0
  6
CONTINUOUS
 62
     5
100
AcDbCircle
 10
15.64099999999999
 20
13.266
 30
0.0
 40
0.075
  0
ARC
  5
5F4
330
1E
100
AcDbEntity
  8
0
  6
CONTINUOUS
 62
     5
100
AcDbCircle
 10
15.64099999999999
 20
13.266
 30
0.0
 40
0.087
100
AcDbArc
 50
85.00000099999999
 51
5.0
  0
LINE
  5
5F5
330
1E
100
AcDbEntity
  8
0
  6
CONTINUOUS
 62
     5
100
AcDbLine
 10
15.52699999999999
 20
13.266
 30
0.0
 11
15.755
 21
13.266
 31
0.0
  0
CIRCLE
  5
5F6
330
1E
100
AcDbEntity
  8
0
  6
CONTINUOUS
 62
     5
100
AcDbCircle
 10
15.64
 20
13.561
 30
0.0
 40
0.078
  0
LINE
  5
5F7
330
1E
100
AcDbEntity
  8
0
  6
CONTINUOUS
 62
     5
100
AcDbLine
 10
15.547
 20
13.561
 30
0.0
 11
15.734
 21
13.561
 31
0.0
  0
CIRCLE
  5
5F8
330
1E
100
AcDbEntity
  8
0
  6
CONTINUOUS
 62
     5
100
AcDbCircle
 10
15.67099999999999
 20
14.85999999999999
 30
0.0
 40
0.095
  0
CIRCLE
  5
5F9
330
1E
100
AcDbEntity
  8
0
  6
CONTINUOUS
 62
     5
100
AcDbCircle
 10
15.67099999999999
 20
14.85999999999999
 30
0.0
 40
0.075
  0
ARC
  5
5FA
330
1E
100
AcDbEntity
  8
0
  6
CONTINUOUS
 62
     5
100
AcDbCircle
 10
15.67099999999999
 20
14.85999999999999
 30
0.0
 40
0.087
100
AcDbArc
 50
85.00000099999999
 51
5.0
  0
LINE
  5
5FB
330
1E
100
AcDbEntity
  8
0
  6
CONTINUOUS
 62
     5
100
AcDbLine
 10
15.67099999999999
 20
14.74599999999998
 30
0.0
 11
15.67099999999999
 21
14.974
 31
0.0
  0
LINE
  5
5FC
330
1E
100
AcDbEntity
  8
0
  6
CONTINUOUS
 62
     5
100
AcDbLine
 10
15.557
 20
14.85999999999999
 30
0.0
 11
15.785
 21
14.85999999999999
 31
0.0
  0
TEXT
  5
5FF
330
1E
100
AcDbEntity
  8
0
 62
     5
100
AcDbText
 10
10.919028
 20
15.7389935
 30
0.0
 40
0.2125
  1
T
 50
270.0
 41
0.825
 72
     4
 11
11.025278
 21
15.680556
 31
0.0
100
AcDbText
  0
TEXT
  5
60B
330
1E
100
AcDbEntity
  8
0
 62
     5
100
AcDbText
 10
10.919028
 20
12.9056595
 30
0.0
 40
0.2125
  1
P
 50
270.0
 41
0.825
 72
     4
 11
11.025278
 21
12.847222
 31
0.0
100
AcDbText
  0
LINE
  5
60C
330
1E
100
AcDbEntity
  8
0
  6
CONTINUOUS
 62
     5
100
AcDbLine
 10
11.37499999999999
 20
12.125
 30
0.0
 11
8.375
 21
12.125
 31
0.0
  0
LINE
  5
612
330
1E
100
AcDbEntity
  8
0
  6
CONTINUOUS
 62
     5
100
AcDbLine
 10
11.37499999999999
 20
16.125
 30
0.0
 11
11.37499999999999
 21
12.125
 31
0.0
  0
LINE
  5
613
330
1E
100
AcDbEntity
  8
0
  6
CONTINUOUS
 62
     5
100
AcDbLine
 10
12.875
 20
16.125
 30
0.0
 11
12.875
 21
12.125
 31
0.0
  0
LINE
  5
614
330
1E
100
AcDbEntity
  8
0
  6
CONTINUOUS
 62
     5
100
AcDbLine
 10
8.375
 20
12.125
 30
0.0
 11
8.375
 21
16.125
 31
0.0
  0
LINE
  5
68E
330
1E
100
AcDbEntity
  8
0
  6
CONTINUOUS
 62
     5
100
AcDbLine
 10
13.25
 20
5.525
 30
0.0
 11
13.25
 21
5.974999999999997
 31
0.0
  0
LINE
  5
697
330
1E
100
AcDbEntity
  8
0
  6
CONTINUOUS
 62
     5
100
AcDbLine
 10
13.024
 20
5.75
 30
0.0
 11
13.475
 21
5.75
 31
0.0
  0
ARC
  5
698
330
1E
100
AcDbEntity
  8
0
  6
CONTINUOUS
 62
     5
100
AcDbCircle
 10
13.25
 20
5.75
 30
0.0
 40
0.183
100
AcDbArc
 50
85.00000099999999
 51
5.0
  0
CIRCLE
  5
699
330
1E
100
AcDbEntity
  8
0
  6
CONTINUOUS
 62
     5
100
AcDbCircle
 10
13.25
 20
5.75
 30
0.0
 40
0.156
  0
CIRCLE
  5
69A
330
1E
100
AcDbEntity
  8
0
  6
CONTINUOUS
 62
     5
100
AcDbCircle
 10
13.25
 20
5.75
 30
0.0
 40
0.188
  0
LINE
  5
6A7
330
1E
100
AcDbEntity
  8
0
  6
CONTINUOUS
 62
     5
100
AcDbLine
 10
13.25
 20
2.274999999999999
 30
0.0
 11
13.25
 21
2.725
 31
0.0
  0
LINE
  5
6AC
330
1E
100
AcDbEntity
  8
0
  6
CONTINUOUS
 62
     5
100
AcDbLine
 10
13.024
 20
2.5
 30
0.0
 11
13.475
 21
2.5
 31
0.0
  0
ARC
  5
6AD
330
1E
100
AcDbEntity
  8
0
  6
CONTINUOUS
 62
     5
100
AcDbCircle
 10
13.25
 20
2.5
 30
0.0
 40
0.183
100
AcDbArc
 50
85.00000099999999
 51
5.0
  0
CIRCLE
  5
6AE
330
1E
100
AcDbEntity
  8
0
  6
CONTINUOUS
 62
     5
100
AcDbCircle
 10
13.25
 20
2.5
 30
0.0
 40
0.156
  0
CIRCLE
  5
6AF
330
1E
100
AcDbEntity
  8
0
  6
CONTINUOUS
 62
     5
100
AcDbCircle
 10
13.25
 20
2.5
 30
0.0
 40
0.188
  0
LINE
  5
6B2
330
1E
100
AcDbEntity
  8
0
  6
CONTINUOUS
 62
     5
100
AcDbLine
 10
12.875
 20
2.125
 30
0.0
 11
12.875
 21
6.125
 31
0.0
  0
LINE
  5
6E5
330
1E
100
AcDbEntity
  8
0
  6
CONTINUOUS
 62
     5
100
AcDbLine
 10
12.875
 20
7.625
 30
0.0
 11
12.875
 21
10.625
 31
0.0
  0
LWPOLYLINE
  5
6E6
330
1E
100
AcDbEntity
  8
0
  6
CONTINUOUS
 62
     5
100
AcDbPolyline
 90
        3
 70
     0
 43
0.0
 10
12.875
 20
6.125
 10
34.55691099999998
 20
6.125
 10
34.68299999999999
 20
6.125
  0
LINE
  5
6EB
330
1E
100
AcDbEntity
  8
0
  6
CONTINUOUS
 62
     5
100
AcDbLine
 10
34.68299999999999
 20
6.125
 30
0.0
 11
38.49999999999998
 21
6.125
 31
0.0
  0
LINE
  5
6EC
330
1E
100
AcDbEntity
  8
0
  6
CONTINUOUS
 62
     5
100
AcDbLine
 10
38.49999999999998
 20
2.125
 30
0.0
 11
34.77223999999999
 21
2.125
 31
0.0
  0
LWPOLYLINE
  5
6ED
330
1E
100
AcDbEntity
  8
0
  6
CONTINUOUS
 62
     5
100
AcDbPolyline
 90
        3
 70
     0
 43
0.0
 10
34.64723999999999
 20
2.125
 10
34.77223999999999
 20
2.125
 10
12.875
 20
2.125
  0
LINE
  5
6F2
330
1E
100
AcDbEntity
  8
0
  6
CONTINUOUS
 62
     5
100
AcDbLine
 10
38.49999999999998
 20
7.625
 30
0.0
 11
34.68299999999999
 21
7.625
 31
0.0
  0
LWPOLYLINE
  5
6F3
330
1E
100
AcDbEntity
  8
0
  6
CONTINUOUS
 62
     5
100
AcDbPolyline
 90
        3
 70
     0
 43
0.0
 10
34.55799999999998
 20
7.625
 10
34.68299999999999
 20
7.625
 10
12.875
 20
7.625
  0
LWPOLYLINE
  5
6F8
330
1E
100
AcDbEntity
  8
0
  6
CONTINUOUS
 62
     5
100
AcDbPolyline
 90
        3
 70
     0
 43
0.0
 10
12.875
 20
10.625
 10
34.64723999999999
 20
10.625
 10
34.77223999999999
 20
10.625
  0
LINE
  5
6FD
330
1E
100
AcDbEntity
  8
0
  6
CONTINUOUS
 62
     5
100
AcDbLine
 10
34.77223999999999
 20
10.625
 30
0.0
 11
38.49999999999998
 21
10.625
 31
0.0
  0
LWPOLYLINE
  5
6FE
330
1E
100
AcDbEntity
  8
0
  6
CONTINUOUS
 62
     5
100
AcDbPolyline
 90
        3
 70
     0
 43
0.0
 10
12.875
 20
12.125
 10
34.52223999999999
 20
12.125
 10
34.64723999999999
 20
12.125
  0
LINE
  5
703
330
1E
100
AcDbEntity
  8
0
  6
CONTINUOUS
 62
     5
100
AcDbLine
 10
34.64723999999999
 20
12.125
 30
0.0
 11
38.49999999999998
 21
12.125
 31
0.0
  0
LINE
  5
704
330
1E
100
AcDbEntity
  8
0
  6
CONTINUOUS
 62
     5
100
AcDbLine
 10
38.49999999999998
 20
16.125
 30
0.0
 11
34.55799999999998
 21
16.125
 31
0.0
  0
LWPOLYLINE
  5
705
330
1E
100
AcDbEntity
  8
0
  6
CONTINUOUS
 62
     5
100
AcDbPolyline
 90
        3
 70
     0
 43
0.0
 10
34.433
 20
16.125
 10
34.55799999999998
 20
16.125
 10
12.875
 20
16.125
  0
LINE
  5
70A
330
1E
100
AcDbEntity
  8
0
  6
CONTINUOUS
 62
     5
100
AcDbLine
 10
38.49999999999998
 20
20.625
 30
0.0
 11
34.77223999999999
 21
20.625
 31
0.0
  0
LWPOLYLINE
  5
70B
330
1E
100
AcDbEntity
  8
0
  6
CONTINUOUS
 62
     5
100
AcDbPolyline
 90
        3
 70
     0
 43
0.0
 10
34.64723999999999
 20
20.625
 10
34.77223999999999
 20
20.625
 10
12.875
 20
20.625
  0
LWPOLYLINE
  5
710
330
1E
100
AcDbEntity
  8
0
  6
CONTINUOUS
 62
     5
100
AcDbPolyline
 90
        3
 70
     0
 43
0.0
 10
12.875
 20
17.625
 10
34.55799999999998
 20
17.625
 10
34.68299999999999
 20
17.625
  0
LINE
  5
715
330
1E
100
AcDbEntity
  8
0
  6
CONTINUOUS
 62
     5
100
AcDbLine
 10
34.68299999999999
 20
17.625
 30
0.0
 11
38.49999999999998
 21
17.625
 31
0.0
  0
CIRCLE
  5
8A2
330
1E
100
AcDbEntity
  8
0
  6
CONTINUOUS
 62
     5
100
AcDbCircle
 10
9.875
 20
13.59399999999999
 30
0.0
 40
0.73
  0
LINE
  5
8A3
330
1E
100
AcDbEntity
  8
0
  6
CONTINUOUS
 62
     5
100
AcDbLine
 10
9.875
 20
12.717
 30
0.0
 11
9.875
 21
14.47099999999999
 31
0.0
  0
CIRCLE
  5
8A4
330
1E
100
AcDbEntity
  8
0
  6
CONTINUOUS
 62
     5
100
AcDbCircle
 10
9.875
 20
13.59399999999999
 30
0.0
 40
0.521
  0
CIRCLE
  5
8A5
330
1E
100
AcDbEntity
  8
0
  6
CONTINUOUS
 62
     5
100
AcDbCircle
 10
9.875
 20
13.59399999999999
 30
0.0
 40
0.4810000000000001
  0
CIRCLE
  5
8A6
330
1E
100
AcDbEntity
  8
0
  6
CONTINUOUS
 62
     5
100
AcDbCircle
 10
9.875
 20
13.59399999999999
 30
0.0
 40
0.4060000000000001
  0
ARC
  5
8A7
330
1E
100
AcDbEntity
  8
0
  6
CONTINUOUS
 62
     5
100
AcDbCircle
 10
9.875
 20
13.59399999999999
 30
0.0
 40
0.475
100
AcDbArc
 50
85.00000100000002
 51
4.999999999999999
  0
CIRCLE
  5
8A8
330
1E
100
AcDbEntity
  8
0
  6
CONTINUOUS
 62
     5
100
AcDbCircle
 10
9.875
 20
15.25
 30
0.0
 40
0.73
  0
CIRCLE
  5
8A9
330
1E
100
AcDbEntity
  8
0
  6
CONTINUOUS
 62
     5
100
AcDbCircle
 10
9.875
 20
15.25
 30
0.0
 40
0.521
  0
CIRCLE
  5
8AA
330
1E
100
AcDbEntity
  8
0
  6
CONTINUOUS
 62
     5
100
AcDbCircle
 10
9.875
 20
15.25
 30
0.0
 40
0.4810000000000001
  0
ARC
  5
8AB
330
1E
100
AcDbEntity
  8
0
  6
CONTINUOUS
 62
     5
100
AcDbCircle
 10
9.875
 20
15.25
 30
0.0
 40
0.475
100
AcDbArc
 50
85.00000100000002
 51
4.999999999999999
  0
CIRCLE
  5
8AC
330
1E
100
AcDbEntity
  8
0
  6
CONTINUOUS
 62
     5
100
AcDbCircle
 10
9.875
 20
15.25
 30
0.0
 40
0.4060000000000001
  0
LINE
  5
8AD
330
1E
100
AcDbEntity
  8
0
  6
CONTINUOUS
 62
     5
100
AcDbLine
 10
9.875
 20
14.373
 30
0.0
 11
9.875
 21
16.127
 31
0.0
  0
LINE
  5
8AE
330
1E
100
AcDbEntity
  8
0
  6
CONTINUOUS
 62
     5
100
AcDbLine
 10
8.997999999999997
 20
13.59399999999999
 30
0.0
 11
10.75099999999999
 21
13.59399999999999
 31
0.0
  0
LINE
  5
8AF
330
1E
100
AcDbEntity
  8
0
  6
CONTINUOUS
 62
     5
100
AcDbLine
 10
8.997999999999997
 20
15.25
 30
0.0
 11
10.75099999999999
 21
15.25
 31
0.0
  0
CIRCLE
  5
8E4
330
1E
100
AcDbEntity
  8
0
  6
CONTINUOUS
 62
     5
100
AcDbCircle
 10
41.5
 20
13.59399999999999
 30
0.0
 40
0.73
  0
LINE
  5
8E5
330
1E
100
AcDbEntity
  8
0
  6
CONTINUOUS
 62
     5
100
AcDbLine
 10
40.623
 20
13.59399999999999
 30
0.0
 11
42.37599999999999
 21
13.59399999999999
 31
0.0
  0
LINE
  5
8E6
330
1E
100
AcDbEntity
  8
0
  6
CONTINUOUS
 62
     5
100
AcDbLine
 10
40.623
 20
15.25
 30
0.0
 11
42.37599999999999
 21
15.25
 31
0.0
  0
CIRCLE
  5
8E7
330
1E
100
AcDbEntity
  8
0
  6
CONTINUOUS
 62
     5
100
AcDbCircle
 10
41.5
 20
15.25
 30
0.0
 40
0.73
  0
LINE
  5
8E8
330
1E
100
AcDbEntity
  8
0
  6
CONTINUOUS
 62
     5
100
AcDbLine
 10
41.5
 20
12.717
 30
0.0
 11
41.5
 21
14.47099999999999
 31
0.0
  0
CIRCLE
  5
8E9
330
1E
100
AcDbEntity
  8
0
  6
CONTINUOUS
 62
     5
100
AcDbCircle
 10
41.5
 20
13.59399999999999
 30
0.0
 40
0.521
  0
CIRCLE
  5
8EA
330
1E
100
AcDbEntity
  8
0
  6
CONTINUOUS
 62
     5
100
AcDbCircle
 10
41.5
 20
13.59399999999999
 30
0.0
 40
0.4810000000000001
  0
CIRCLE
  5
8EB
330
1E
100
AcDbEntity
  8
0
  6
CONTINUOUS
 62
     5
100
AcDbCircle
 10
41.5
 20
13.59399999999999
 30
0.0
 40
0.4060000000000001
  0
ARC
  5
8EC
330
1E
100
AcDbEntity
  8
0
  6
CONTINUOUS
 62
     5
100
AcDbCircle
 10
41.5
 20
13.59399999999999
 30
0.0
 40
0.475
100
AcDbArc
 50
85.00000100000002
 51
4.999999999999999
  0
CIRCLE
  5
8ED
330
1E
100
AcDbEntity
  8
0
  6
CONTINUOUS
 62
     5
100
AcDbCircle
 10
41.5
 20
15.25
 30
0.0
 40
0.521
  0
CIRCLE
  5
8EE
330
1E
100
AcDbEntity
  8
0
  6
CONTINUOUS
 62
     5
100
AcDbCircle
 10
41.5
 20
15.25
 30
0.0
 40
0.4810000000000001
  0
CIRCLE
  5
8EF
330
1E
100
AcDbEntity
  8
0
  6
CONTINUOUS
 62
     5
100
AcDbCircle
 10
41.5
 20
15.25
 30
0.0
 40
0.4060000000000001
  0
ARC
  5
8F0
330
1E
100
AcDbEntity
  8
0
  6
CONTINUOUS
 62
     5
100
AcDbCircle
 10
41.5
 20
15.25
 30
0.0
 40
0.475
100
AcDbArc
 50
85.00000100000002
 51
4.999999999999999
  0
LINE
  5
8F1
330
1E
100
AcDbEntity
  8
0
  6
CONTINUOUS
 62
     5
100
AcDbLine
 10
41.5
 20
14.373
 30
0.0
 11
41.5
 21
16.127
 31
0.0
  0
TEXT
  5
917
330
1E
100
AcDbEntity
  8
0
 62
     5
100
AcDbText
 10
14.71164025
 20
10.128125
 30
0.0
 40
0.2125
  1
GB
 41
0.825
 72
     4
 11
14.857734
 21
10.234375
 31
0.0
100
AcDbText
  0
CIRCLE
  5
918
330
1E
100
AcDbEntity
  8
0
  6
CONTINUOUS
 62
     5
100
AcDbCircle
 10
14.15599999999999
 20
9.906
 30
0.0
 40
0.435
  0
LINE
  5
919
330
1E
100
AcDbEntity
  8
0
  6
CONTINUOUS
 62
     5
100
AcDbLine
 10
14.15599999999999
 20
9.382999999999999
 30
0.0
 11
14.15599999999999
 21
10.429
 31
0.0
  0
CIRCLE
  5
91A
330
1E
100
AcDbEntity
  8
0
  6
CONTINUOUS
 62
     5
100
AcDbCircle
 10
16.28099999999999
 20
9.906
 30
0.0
 40
0.435
  0
LINE
  5
91B
330
1E
100
AcDbEntity
  8
0
  6
CONTINUOUS
 62
     5
100
AcDbLine
 10
16.28099999999999
 20
9.382999999999999
 30
0.0
 11
16.28099999999999
 21
10.429
 31
0.0
  0
TEXT
  5
91C
330
1E
100
AcDbEntity
  8
0
 62
     5
100
AcDbText
 10
16.83664025
 20
10.128125
 30
0.0
 40
0.2125
  1
GB
 41
0.825
 72
     4
 11
16.982734
 21
10.234375
 31
0.0
100
AcDbText
  0
CIRCLE
  5
91D
330
1E
100
AcDbEntity
  8
0
  6
CONTINUOUS
 62
     5
100
AcDbCircle
 10
35.40599999999999
 20
9.906
 30
0.0
 40
0.435
  0
LINE
  5
91E
330
1E
100
AcDbEntity
  8
0
  6
CONTINUOUS
 62
     5
100
AcDbLine
 10
35.40599999999999
 20
9.382999999999999
 30
0.0
 11
35.40599999999999
 21
10.429
 31
0.0
  0
TEXT
  5
91F
330
1E
100
AcDbEntity
  8
0
 62
     5
100
AcDbText
 10
35.96164025
 20
10.128125
 30
0.0
 40
0.2125
  1
GB
 41
0.825
 72
     4
 11
36.107734
 21
10.234375
 31
0.0
100
AcDbText
  0
TEXT
  5
920
330
1E
100
AcDbEntity
  8
0
 62
     5
100
AcDbText
 10
14.387415
 20
9.156399999999999
 30
0.0
 40
0.1872
  1
DAMAN ****
 41
0.825
 72
     4
 11
15.133875
 21
9.25
 31
0.0
100
AcDbText
  0
CIRCLE
  5
921
330
1E
100
AcDbEntity
  8
0
  6
CONTINUOUS
 62
     5
100
AcDbCircle
 10
14.15599999999999
 20
9.906
 30
0.0
 40
0.259
  0
CIRCLE
  5
922
330
1E
100
AcDbEntity
  8
0
  6
CONTINUOUS
 62
     5
100
AcDbCircle
 10
14.15599999999999
 20
9.906
 30
0.0
 40
0.23
  0
CIRCLE
  5
923
330
1E
100
AcDbEntity
  8
0
  6
CONTINUOUS
 62
     5
100
AcDbCircle
 10
14.15599999999999
 20
9.906
 30
0.0
 40
0.14
  0
ARC
  5
924
330
1E
100
AcDbEntity
  8
0
  6
CONTINUOUS
 62
     5
100
AcDbCircle
 10
14.15599999999999
 20
9.906
 30
0.0
 40
0.164
100
AcDbArc
 50
85.00000100000002
 51
4.999999999999999
  0
LINE
  5
925
330
1E
100
AcDbEntity
  8
0
  6
CONTINUOUS
 62
     5
100
AcDbLine
 10
13.63299999999999
 20
9.906
 30
0.0
 11
14.67799999999999
 21
9.906
 31
0.0
  0
CIRCLE
  5
926
330
1E
100
AcDbEntity
  8
0
  6
CONTINUOUS
 62
     5
100
AcDbCircle
 10
16.28099999999999
 20
9.906
 30
0.0
 40
0.259
  0
CIRCLE
  5
927
330
1E
100
AcDbEntity
  8
0
  6
CONTINUOUS
 62
     5
100
AcDbCircle
 10
16.28099999999999
 20
9.906
 30
0.0
 40
0.23
  0
LINE
  5
928
330
1E
100
AcDbEntity
  8
0
  6
CONTINUOUS
 62
     5
100
AcDbLine
 10
15.758
 20
9.906
 30
0.0
 11
16.803
 21
9.906
 31
0.0
  0
CIRCLE
  5
929
330
1E
100
AcDbEntity
  8
0
  6
CONTINUOUS
 62
     5
100
AcDbCircle
 10
16.28099999999999
 20
9.906
 30
0.0
 40
0.14
  0
ARC
  5
92A
330
1E
100
AcDbEntity
  8
0
  6
CONTINUOUS
 62
     5
100
AcDbCircle
 10
16.28099999999999
 20
9.906
 30
0.0
 40
0.164
100
AcDbArc
 50
85.00000100000002
 51
4.999999999999999
  0
LINE
  5
92B
330
1E
100
AcDbEntity
  8
0
  6
CONTINUOUS
 62
     5
100
AcDbLine
 10
34.88299999999999
 20
9.906
 30
0.0
 11
35.92799999999999
 21
9.906
 31
0.0
  0
CIRCLE
  5
92C
330
1E
100
AcDbEntity
  8
0
  6
CONTINUOUS
 62
     5
100
AcDbCircle
 10
35.40599999999999
 20
9.906
 30
0.0
 40
0.259
  0
CIRCLE
  5
92D
330
1E
100
AcDbEntity
  8
0
  6
CONTINUOUS
 62
     5
100
AcDbCircle
 10
35.40599999999999
 20
9.906
 30
0.0
 40
0.23
  0
CIRCLE
  5
92E
330
1E
100
AcDbEntity
  8
0
  6
CONTINUOUS
 62
     5
100
AcDbCircle
 10
35.40599999999999
 20
9.906
 30
0.0
 40
0.14
  0
ARC
  5
92F
330
1E
100
AcDbEntity
  8
0
  6
CONTINUOUS
 62
     5
100
AcDbCircle
 10
35.40599999999999
 20
9.906
 30
0.0
 40
0.164
100
AcDbArc
 50
85.00000100000002
 51
4.999999999999999
  0
CIRCLE
  5
930
330
1E
100
AcDbEntity
  8
0
  6
CONTINUOUS
 62
     5
100
AcDbCircle
 10
37.0
 20
9.125
 30
0.0
 40
0.435
  0
LINE
  5
931
330
1E
100
AcDbEntity
  8
0
  6
CONTINUOUS
 62
     5
100
AcDbLine
 10
37.0
 20
8.602
 30
0.0
 11
37.0
 21
9.647999999999999
 31
0.0
  0
LINE
  5
932
330
1E
100
AcDbEntity
  8
0
  6
CONTINUOUS
 62
     5
100
AcDbLine
 10
36.477
 20
9.125
 30
0.0
 11
37.522
 21
9.125
 31
0.0
  0
CIRCLE
  5
933
330
1E
100
AcDbEntity
  8
0
  6
CONTINUOUS
 62
     5
100
AcDbCircle
 10
37.0
 20
9.125
 30
0.0
 40
0.259
  0
ARC
  5
934
330
1E
100
AcDbEntity
  8
0
  6
CONTINUOUS
 62
     5
100
AcDbCircle
 10
37.0
 20
9.125
 30
0.0
 40
0.256
100
AcDbArc
 50
85.00000100000002
 51
4.999999999999999
  0
CIRCLE
  5
935
330
1E
100
AcDbEntity
  8
0
  6
CONTINUOUS
 62
     5
100
AcDbCircle
 10
37.0
 20
9.125
 30
0.0
 40
0.23
  0
CIRCLE
  5
936
330
1E
100
AcDbEntity
  8
0
  6
CONTINUOUS
 62
     5
100
AcDbCircle
 10
37.0
 20
9.125
 30
0.0
 40
0.2189999999999999
  0
TEXT
  5
937
330
1E
100
AcDbEntity
  8
0
 62
     5
100
AcDbText
 10
37.55564024999999
 20
9.347125
 30
0.0
 40
0.2125
  1
GP
 41
0.825
 72
     4
 11
37.70173399999999
 21
9.453374999999999
 31
0.0
100
AcDbText
  0
TEXT
  5
97D
330
1E
100
AcDbEntity
  8
0
 62
     5
100
AcDbText
 10
38.0280075
 20
3.590179
 30
0.0
 40
0.2125
  1
T
 41
0.825
 72
     4
 11
38.08644499999999
 21
3.696429
 31
0.0
100
AcDbText
  0
TEXT
  5
97E
330
1E
100
AcDbEntity
  8
0
 62
     5
100
AcDbText
 10
38.0414005
 20
4.592073
 30
0.0
 40
0.2125
  1
P
 41
0.825
 72
     4
 11
38.099838
 21
4.698323
 31
0.0
100
AcDbText
  0
LINE
  5
97F
330
1E
100
AcDbEntity
  8
0
  6
CONTINUOUS
 62
     5
100
AcDbLine
 10
14.15599999999999
 20
3.024999999999999
 30
0.0
 11
14.15599999999999
 21
4.474999999999998
 31
0.0
  0
CIRCLE
  5
980
330
1E
100
AcDbEntity
  8
0
  6
CONTINUOUS
 62
     5
100
AcDbCircle
 10
14.15599999999999
 20
3.75
 30
0.0
 40
0.604
  0
CIRCLE
  5
981
330
1E
100
AcDbEntity
  8
0
  6
CONTINUOUS
 62
     5
100
AcDbCircle
 10
14.15599999999999
 20
3.75
 30
0.0
 40
0.412
  0
CIRCLE
  5
982
330
1E
100
AcDbEntity
  8
0
  6
CONTINUOUS
 62
     5
100
AcDbCircle
 10
14.15599999999999
 20
3.75
 30
0.0
 40
0.373
  0
ARC
  5
983
330
1E
100
AcDbEntity
  8
0
  6
CONTINUOUS
 62
     5
100
AcDbCircle
 10
14.15599999999999
 20
3.75
 30
0.0
 40
0.4020000000000001
100
AcDbArc
 50
85.00000100000002
 51
4.999999999999999
  0
CIRCLE
  5
984
330
1E
100
AcDbEntity
  8
0
  6
CONTINUOUS
 62
     5
100
AcDbCircle
 10
14.15599999999999
 20
3.75
 30
0.0
 40
0.3439999999999999
  0
CIRCLE
  5
985
330
1E
100
AcDbEntity
  8
0
  6
CONTINUOUS
 62
     5
100
AcDbCircle
 10
16.28099999999999
 20
3.75
 30
0.0
 40
0.604
  0
LINE
  5
986
330
1E
100
AcDbEntity
  8
0
  6
CONTINUOUS
 62
     5
100
AcDbLine
 10
16.28099999999999
 20
3.024999999999999
 30
0.0
 11
16.28099999999999
 21
4.474999999999998
 31
0.0
  0
CIRCLE
  5
987
330
1E
100
AcDbEntity
  8
0
  6
CONTINUOUS
 62
     5
100
AcDbCircle
 10
16.28099999999999
 20
3.75
 30
0.0
 40
0.412
  0
CIRCLE
  5
988
330
1E
100
AcDbEntity
  8
0
  6
CONTINUOUS
 62
     5
100
AcDbCircle
 10
16.28099999999999
 20
3.75
 30
0.0
 40
0.373
  0
ARC
  5
989
330
1E
100
AcDbEntity
  8
0
  6
CONTINUOUS
 62
     5
100
AcDbCircle
 10
16.28099999999999
 20
3.75
 30
0.0
 40
0.4020000000000001
100
AcDbArc
 50
85.00000100000002
 51
4.999999999999999
  0
CIRCLE
  5
98A
330
1E
100
AcDbEntity
  8
0
  6
CONTINUOUS
 62
     5
100
AcDbCircle
 10
16.28099999999999
 20
3.75
 30
0.0
 40
0.3439999999999999
  0
CIRCLE
  5
98B
330
1E
100
AcDbEntity
  8
0
  6
CONTINUOUS
 62
     5
100
AcDbCircle
 10
37.0
 20
3.25
 30
0.0
 40
0.8439999999999997
  0
LINE
  5
98C
330
1E
100
AcDbEntity
  8
0
  6
CONTINUOUS
 62
     5
100
AcDbLine
 10
37.0
 20
2.237
 30
0.0
 11
37.0
 21
4.262999999999999
 31
0.0
  0
CIRCLE
  5
98D
330
1E
100
AcDbEntity
  8
0
  6
CONTINUOUS
 62
     5
100
AcDbCircle
 10
37.0
 20
3.25
 30
0.0
 40
0.7305000000000002
  0
LINE
  5
98E
330
1E
100
AcDbEntity
  8
0
  6
CONTINUOUS
 62
     5
100
AcDbLine
 10
35.40599999999999
 20
3.024999999999999
 30
0.0
 11
35.40599999999999
 21
4.474999999999998
 31
0.0
  0
CIRCLE
  5
98F
330
1E
100
AcDbEntity
  8
0
  6
CONTINUOUS
 62
     5
100
AcDbCircle
 10
35.40599999999999
 20
3.75
 30
0.0
 40
0.604
  0
CIRCLE
  5
990
330
1E
100
AcDbEntity
  8
0
  6
CONTINUOUS
 62
     5
100
AcDbCircle
 10
35.40599999999999
 20
3.75
 30
0.0
 40
0.412
  0
CIRCLE
  5
991
330
1E
100
AcDbEntity
  8
0
  6
CONTINUOUS
 62
     5
100
AcDbCircle
 10
35.40599999999999
 20
3.75
 30
0.0
 40
0.373
  0
ARC
  5
992
330
1E
100
AcDbEntity
  8
0
  6
CONTINUOUS
 62
     5
100
AcDbCircle
 10
35.40599999999999
 20
3.75
 30
0.0
 40
0.4020000000000001
100
AcDbArc
 50
85.00000100000002
 51
4.999999999999999
  0
CIRCLE
  5
993
330
1E
100
AcDbEntity
  8
0
  6
CONTINUOUS
 62
     5
100
AcDbCircle
 10
35.40599999999999
 20
3.75
 30
0.0
 40
0.3439999999999999
  0
LINE
  5
994
330
1E
100
AcDbEntity
  8
0
  6
CONTINUOUS
 62
     5
100
AcDbLine
 10
13.43099999999999
 20
3.75
 30
0.0
 11
14.88
 21
3.75
 31
0.0
  0
TEXT
  5
995
330
1E
100
AcDbEntity
  8
0
 62
     5
100
AcDbText
 10
14.6868625
 20
3.047370999999998
 30
0.0
 40
0.2125
  1
A
 41
0.825
 72
     4
 11
14.7453
 21
3.153620999999998
 31
0.0
100
AcDbText
  0
LINE
  5
996
330
1E
100
AcDbEntity
  8
0
  6
CONTINUOUS
 62
     5
100
AcDbLine
 10
15.556
 20
3.75
 30
0.0
 11
17.00499999999999
 21
3.75
 31
0.0
  0
TEXT
  5
997
330
1E
100
AcDbEntity
  8
0
 62
     5
100
AcDbText
 10
16.8118625
 20
3.047370999999998
 30
0.0
 40
0.2125
  1
A
 41
0.825
 72
     4
 11
16.8703
 21
3.153620999999998
 31
0.0
100
AcDbText
  0
LINE
  5
998
330
1E
100
AcDbEntity
  8
0
  6
CONTINUOUS
 62
     5
100
AcDbLine
 10
35.98699999999999
 20
3.25
 30
0.0
 11
38.01199999999998
 21
3.25
 31
0.0
  0
LINE
  5
999
330
1E
100
AcDbEntity
  8
0
  6
CONTINUOUS
 62
     5
100
AcDbLine
 10
34.68099999999999
 20
3.75
 30
0.0
 11
36.12999999999999
 21
3.75
 31
0.0
  0
CIRCLE
  5
99A
330
1E
100
AcDbEntity
  8
0
  6
CONTINUOUS
 62
     5
100
AcDbCircle
 10
37.0
 20
3.25
 30
0.0
 40
0.521
  0
CIRCLE
  5
99B
330
1E
100
AcDbEntity
  8
0
  6
CONTINUOUS
 62
     5
100
AcDbCircle
 10
37.0
 20
3.25
 30
0.0
 40
0.4810000000000001
  0
ARC
  5
99C
330
1E
100
AcDbEntity
  8
0
  6
CONTINUOUS
 62
     5
100
AcDbCircle
 10
37.0
 20
3.25
 30
0.0
 40
0.475
100
AcDbArc
 50
85.00000100000002
 51
4.999999999999999
  0
CIRCLE
  5
99D
330
1E
100
AcDbEntity
  8
0
  6
CONTINUOUS
 62
     5
100
AcDbCircle
 10
37.0
 20
3.25
 30
0.0
 40
0.4060000000000001
  0
CIRCLE
  5
99E
330
1E
100
AcDbEntity
  8
0
  6
CONTINUOUS
 62
     5
100
AcDbCircle
 10
14.15599999999999
 20
5.25
 30
0.0
 40
0.604
  0
CIRCLE
  5
99F
330
1E
100
AcDbEntity
  8
0
  6
CONTINUOUS
 62
     5
100
AcDbCircle
 10
14.15599999999999
 20
5.25
 30
0.0
 40
0.412
  0
LINE
  5
9A0
330
1E
100
AcDbEntity
  8
0
  6
CONTINUOUS
 62
     5
100
AcDbLine
 10
14.15599999999999
 20
4.525
 30
0.0
 11
14.15599999999999
 21
5.974999999999998
 31
0.0
  0
ARC
  5
9A1
330
1E
100
AcDbEntity
  8
0
  6
CONTINUOUS
 62
     5
100
AcDbCircle
 10
14.15599999999999
 20
5.25
 30
0.0
 40
0.4020000000000001
100
AcDbArc
 50
85.00000100000002
 51
4.999999999999999
  0
CIRCLE
  5
9A2
330
1E
100
AcDbEntity
  8
0
  6
CONTINUOUS
 62
     5
100
AcDbCircle
 10
14.15599999999999
 20
5.25
 30
0.0
 40
0.373
  0
CIRCLE
  5
9A3
330
1E
100
AcDbEntity
  8
0
  6
CONTINUOUS
 62
     5
100
AcDbCircle
 10
14.15599999999999
 20
5.25
 30
0.0
 40
0.3439999999999999
  0
LINE
  5
9A4
330
1E
100
AcDbEntity
  8
0
  6
CONTINUOUS
 62
     5
100
AcDbLine
 10
13.43099999999999
 20
5.25
 30
0.0
 11
14.88
 21
5.25
 31
0.0
  0
TEXT
  5
9A5
330
1E
100
AcDbEntity
  8
0
 62
     5
100
AcDbText
 10
14.6868625
 20
4.576980999999999
 30
0.0
 40
0.2125
  1
B
 41
0.825
 72
     4
 11
14.7453
 21
4.683231
 31
0.0
100
AcDbText
  0
CIRCLE
  5
9A6
330
1E
100
AcDbEntity
  8
0
  6
CONTINUOUS
 62
     5
100
AcDbCircle
 10
16.28099999999999
 20
5.25
 30
0.0
 40
0.604
  0
CIRCLE
  5
9A7
330
1E
100
AcDbEntity
  8
0
  6
CONTINUOUS
 62
     5
100
AcDbCircle
 10
16.28099999999999
 20
5.25
 30
0.0
 40
0.412
  0
LINE
  5
9A8
330
1E
100
AcDbEntity
  8
0
  6
CONTINUOUS
 62
     5
100
AcDbLine
 10
16.28099999999999
 20
4.525
 30
0.0
 11
16.28099999999999
 21
5.974999999999998
 31
0.0
  0
CIRCLE
  5
9A9
330
1E
100
AcDbEntity
  8
0
  6
CONTINUOUS
 62
     5
100
AcDbCircle
 10
16.28099999999999
 20
5.25
 30
0.0
 40
0.373
  0
CIRCLE
  5
9AA
330
1E
100
AcDbEntity
  8
0
  6
CONTINUOUS
 62
     5
100
AcDbCircle
 10
16.28099999999999
 20
5.25
 30
0.0
 40
0.3439999999999999
  0
ARC
  5
9AB
330
1E
100
AcDbEntity
  8
0
  6
CONTINUOUS
 62
     5
100
AcDbCircle
 10
16.28099999999999
 20
5.25
 30
0.0
 40
0.4020000000000001
100
AcDbArc
 50
85.00000100000002
 51
4.999999999999999
  0
LINE
  5
9AC
330
1E
100
AcDbEntity
  8
0
  6
CONTINUOUS
 62
     5
100
AcDbLine
 10
15.556
 20
5.25
 30
0.0
 11
17.00499999999999
 21
5.25
 31
0.0
  0
TEXT
  5
9AD
330
1E
100
AcDbEntity
  8
0
 62
     5
100
AcDbText
 10
16.8118625
 20
4.576980999999999
 30
0.0
 40
0.2125
  1
B
 41
0.825
 72
     4
 11
16.8703
 21
4.683231
 31
0.0
100
AcDbText
  0
LINE
  5
9AE
330
1E
100
AcDbEntity
  8
0
  6
CONTINUOUS
 62
     5
100
AcDbLine
 10
35.98699999999999
 20
5.062
 30
0.0
 11
38.01199999999998
 21
5.062
 31
0.0
  0
LINE
  5
9AF
330
1E
100
AcDbEntity
  8
0
  6
CONTINUOUS
 62
     5
100
AcDbLine
 10
34.68099999999999
 20
5.25
 30
0.0
 11
36.12999999999999
 21
5.25
 31
0.0
  0
CIRCLE
  5
9B0
330
1E
100
AcDbEntity
  8
0
  6
CONTINUOUS
 62
     5
100
AcDbCircle
 10
35.40599999999999
 20
5.25
 30
0.0
 40
0.604
  0
CIRCLE
  5
9B1
330
1E
100
AcDbEntity
  8
0
  6
CONTINUOUS
 62
     5
100
AcDbCircle
 10
35.40599999999999
 20
5.25
 30
0.0
 40
0.412
  0
LINE
  5
9B2
330
1E
100
AcDbEntity
  8
0
  6
CONTINUOUS
 62
     5
100
AcDbLine
 10
35.40599999999999
 20
4.525
 30
0.0
 11
35.40599999999999
 21
5.974999999999998
 31
0.0
  0
CIRCLE
  5
9B3
330
1E
100
AcDbEntity
  8
0
  6
CONTINUOUS
 62
     5
100
AcDbCircle
 10
35.40599999999999
 20
5.25
 30
0.0
 40
0.373
  0
CIRCLE
  5
9B4
330
1E
100
AcDbEntity
  8
0
  6
CONTINUOUS
 62
     5
100
AcDbCircle
 10
35.40599999999999
 20
5.25
 30
0.0
 40
0.3439999999999999
  0
ARC
  5
9B5
330
1E
100
AcDbEntity
  8
0
  6
CONTINUOUS
 62
     5
100
AcDbCircle
 10
35.40599999999999
 20
5.25
 30
0.0
 40
0.4020000000000001
100
AcDbArc
 50
85.00000100000002
 51
4.999999999999999
  0
TEXT
  5
9B6
330
1E
100
AcDbEntity
  8
0
 62
     5
100
AcDbText
 10
35.8118625
 20
4.440248999999998
 30
0.0
 40
0.2125
  1
B
 41
0.825
 72
     4
 11
35.8703
 21
4.546498999999998
 31
0.0
100
AcDbText
  0
CIRCLE
  5
9B7
330
1E
100
AcDbEntity
  8
0
  6
CONTINUOUS
 62
     5
100
AcDbCircle
 10
37.0
 20
5.062
 30
0.0
 40
0.8439999999999997
  0
LINE
  5
9B8
330
1E
100
AcDbEntity
  8
0
  6
CONTINUOUS
 62
     5
100
AcDbLine
 10
37.0
 20
4.048999999999999
 30
0.0
 11
37.0
 21
6.075
 31
0.0
  0
CIRCLE
  5
9B9
330
1E
100
AcDbEntity
  8
0
  6
CONTINUOUS
 62
     5
100
AcDbCircle
 10
37.0
 20
5.062
 30
0.0
 40
0.7305000000000002
  0
CIRCLE
  5
9BA
330
1E
100
AcDbEntity
  8
0
  6
CONTINUOUS
 62
     5
100
AcDbCircle
 10
37.0
 20
5.062
 30
0.0
 40
0.521
  0
CIRCLE
  5
9BB
330
1E
100
AcDbEntity
  8
0
  6
CONTINUOUS
 62
     5
100
AcDbCircle
 10
37.0
 20
5.062
 30
0.0
 40
0.4810000000000001
  0
ARC
  5
9BC
330
1E
100
AcDbEntity
  8
0
  6
CONTINUOUS
 62
     5
100
AcDbCircle
 10
37.0
 20
5.062
 30
0.0
 40
0.475
100
AcDbArc
 50
85.00000100000002
 51
4.999999999999999
  0
CIRCLE
  5
9BD
330
1E
100
AcDbEntity
  8
0
  6
CONTINUOUS
 62
     5
100
AcDbCircle
 10
37.0
 20
5.062
 30
0.0
 40
0.4060000000000001
  0
LWPOLYLINE
  5
9E1
330
1E
100
AcDbEntity
  8
0
  6
CONTINUOUS
 62
     5
100
AcDbPolyline
 90
       20
 70
     0
 43
0.0
 10
16.98942699999999
 20
17.9125
 10
16.99474
 20
17.901875
 10
17.005365
 20
17.89125
 10
17.026615
 20
17.88593699999998
 10
17.05848999999999
 20
17.88593699999998
 10
17.07974
 20
17.896562
 10
17.095677
 20
17.91781199999998
 10
17.10630199999998
 20
17.944375
 10
17.111615
 20
17.97625
 10
17.111615
 20
18.013437
 10
17.10630199999998
 20
18.04531199999998
 10
17.095677
 20
18.066562
 10
17.07974
 20
18.087812
 10
17.05848999999999
 20
18.098437
 10
17.021302
 20
18.098437
 10
17.005365
 20
18.093125
 10
16.99474
 20
18.0825
 10
16.98411499999999
 20
18.06125
 10
16.98411499999999
 20
18.00281199999998
 10
17.03724
 20
18.00281199999998
  0
CIRCLE
  5
9E2
330
1E
100
AcDbEntity
  8
0
  6
CONTINUOUS
 62
     5
100
AcDbCircle
 10
14.15599999999999
 20
18.32799999999998
 30
0.0
 40
0.435
  0
CIRCLE
  5
9E3
330
1E
100
AcDbEntity
  8
0
  6
CONTINUOUS
 62
     5
100
AcDbCircle
 10
14.15599999999999
 20
18.32799999999998
 30
0.0
 40
0.259
  0
CIRCLE
  5
9E4
330
1E
100
AcDbEntity
  8
0
  6
CONTINUOUS
 62
     5
100
AcDbCircle
 10
14.15599999999999
 20
18.32799999999998
 30
0.0
 40
0.23
  0
LINE
  5
9E5
330
1E
100
AcDbEntity
  8
0
  6
CONTINUOUS
 62
     5
100
AcDbLine
 10
14.15599999999999
 20
17.80499999999999
 30
0.0
 11
14.15599999999999
 21
18.85099999999998
 31
0.0
  0
ARC
  5
9E6
330
1E
100
AcDbEntity
  8
0
  6
CONTINUOUS
 62
     5
100
AcDbCircle
 10
14.15599999999999
 20
18.32799999999998
 30
0.0
 40
0.164
100
AcDbArc
 50
85.00000100000002
 51
4.999999999999999
  0
CIRCLE
  5
9E7
330
1E
100
AcDbEntity
  8
0
  6
CONTINUOUS
 62
     5
100
AcDbCircle
 10
14.15599999999999
 20
18.32799999999998
 30
0.0
 40
0.14
  0
LINE
  5
9E8
330
1E
100
AcDbEntity
  8
0
  6
CONTINUOUS
 62
     5
100
AcDbLine
 10
13.63299999999999
 20
18.32799999999998
 30
0.0
 11
14.67799999999999
 21
18.32799999999998
 31
0.0
  0
LWPOLYLINE
  5
9E9
330
1E
100
AcDbEntity
  8
0
  6
CONTINUOUS
 62
     5
100
AcDbPolyline
 90
        4
 70
     0
 43
0.0
 10
14.80598999999999
 20
18.098437
 10
14.74755199999999
 20
17.88593699999998
 10
14.73692699999999
 20
17.88593699999998
 10
14.67849
 20
18.098437
  0
LWPOLYLINE
  5
9EA
330
1E
100
AcDbEntity
  8
0
  6
CONTINUOUS
 62
     5
100
AcDbPolyline
 90
       20
 70
     0
 43
0.0
 10
14.864427
 20
17.9125
 10
14.86974
 20
17.901875
 10
14.88036499999999
 20
17.89125
 10
14.901615
 20
17.88593699999998
 10
14.93349
 20
17.88593699999998
 10
14.95473999999999
 20
17.896562
 10
14.97067699999998
 20
17.91781199999998
 10
14.981302
 20
17.944375
 10
14.98661499999998
 20
17.97625
 10
14.98661499999998
 20
18.013437
 10
14.981302
 20
18.04531199999998
 10
14.97067699999998
 20
18.066562
 10
14.95473999999999
 20
18.087812
 10
14.93349
 20
18.098437
 10
14.89630199999998
 20
18.098437
 10
14.88036499999999
 20
18.093125
 10
14.86974
 20
18.0825
 10
14.859115
 20
18.06125
 10
14.859115
 20
18.00281199999998
 10
14.91223999999998
 20
18.00281199999998
  0
LINE
  5
9EB
330
1E
100
AcDbEntity
  8
0
  6
CONTINUOUS
 62
     5
100
AcDbLine
 10
14.78474
 20
18.024062
 30
0.0
 11
14.69974
 21
18.024062
 31
0.0
  0
CIRCLE
  5
9EC
330
1E
100
AcDbEntity
  8
0
  6
CONTINUOUS
 62
     5
100
AcDbCircle
 10
16.28099999999999
 20
18.32799999999998
 30
0.0
 40
0.435
  0
CIRCLE
  5
9ED
330
1E
100
AcDbEntity
  8
0
  6
CONTINUOUS
 62
     5
100
AcDbCircle
 10
16.28099999999999
 20
18.32799999999998
 30
0.0
 40
0.259
  0
CIRCLE
  5
9EE
330
1E
100
AcDbEntity
  8
0
  6
CONTINUOUS
 62
     5
100
AcDbCircle
 10
16.28099999999999
 20
18.32799999999998
 30
0.0
 40
0.23
  0
LINE
  5
9EF
330
1E
100
AcDbEntity
  8
0
  6
CONTINUOUS
 62
     5
100
AcDbLine
 10
16.28099999999999
 20
17.80499999999999
 30
0.0
 11
16.28099999999999
 21
18.85099999999998
 31
0.0
  0
ARC
  5
9F0
330
1E
100
AcDbEntity
  8
0
  6
CONTINUOUS
 62
     5
100
AcDbCircle
 10
16.28099999999999
 20
18.32799999999998
 30
0.0
 40
0.164
100
AcDbArc
 50
85.00000100000002
 51
4.999999999999999
  0
CIRCLE
  5
9F1
330
1E
100
AcDbEntity
  8
0
  6
CONTINUOUS
 62
     5
100
AcDbCircle
 10
16.28099999999999
 20
18.32799999999998
 30
0.0
 40
0.14
  0
LINE
  5
9F2
330
1E
100
AcDbEntity
  8
0
  6
CONTINUOUS
 62
     5
100
AcDbLine
 10
15.758
 20
18.32799999999998
 30
0.0
 11
16.803
 21
18.32799999999998
 31
0.0
  0
LWPOLYLINE
  5
9F3
330
1E
100
AcDbEntity
  8
0
  6
CONTINUOUS
 62
     5
100
AcDbPolyline
 90
        4
 70
     0
 43
0.0
 10
16.93098999999999
 20
18.098437
 10
16.872552
 20
17.88593699999998
 10
16.86192699999999
 20
17.88593699999998
 10
16.80349
 20
18.098437
  0
LINE
  5
9F4
330
1E
100
AcDbEntity
  8
0
  6
CONTINUOUS
 62
     5
100
AcDbLine
 10
16.90973999999999
 20
18.024062
 30
0.0
 11
16.82474
 21
18.024062
 31
0.0
  0
CIRCLE
  5
9F5
330
1E
100
AcDbEntity
  8
0
  6
CONTINUOUS
 62
     5
100
AcDbCircle
 10
35.40599999999999
 20
18.32799999999998
 30
0.0
 40
0.435
  0
CIRCLE
  5
9F6
330
1E
100
AcDbEntity
  8
0
  6
CONTINUOUS
 62
     5
100
AcDbCircle
 10
35.40599999999999
 20
18.32799999999998
 30
0.0
 40
0.259
  0
CIRCLE
  5
9F7
330
1E
100
AcDbEntity
  8
0
  6
CONTINUOUS
 62
     5
100
AcDbCircle
 10
35.40599999999999
 20
18.32799999999998
 30
0.0
 40
0.23
  0
LINE
  5
9F8
330
1E
100
AcDbEntity
  8
0
  6
CONTINUOUS
 62
     5
100
AcDbLine
 10
35.40599999999999
 20
17.80499999999999
 30
0.0
 11
35.40599999999999
 21
18.85099999999998
 31
0.0
  0
ARC
  5
9F9
330
1E
100
AcDbEntity
  8
0
  6
CONTINUOUS
 62
     5
100
AcDbCircle
 10
35.40599999999999
 20
18.32799999999998
 30
0.0
 40
0.164
100
AcDbArc
 50
85.00000100000002
 51
4.999999999999999
  0
CIRCLE
  5
9FA
330
1E
100
AcDbEntity
  8
0
  6
CONTINUOUS
 62
     5
100
AcDbCircle
 10
35.40599999999999
 20
18.32799999999998
 30
0.0
 40
0.14
  0
LINE
  5
9FB
330
1E
100
AcDbEntity
  8
0
  6
CONTINUOUS
 62
     5
100
AcDbLine
 10
34.88299999999999
 20
18.32799999999998
 30
0.0
 11
35.92799999999999
 21
18.32799999999998
 31
0.0
  0
LWPOLYLINE
  5
9FC
330
1E
100
AcDbEntity
  8
0
  6
CONTINUOUS
 62
     5
100
AcDbPolyline
 90
        4
 70
     0
 43
0.0
 10
36.05598999999998
 20
18.098437
 10
35.99755199999998
 20
17.88593699999998
 10
35.98692699999999
 20
17.88593699999998
 10
35.92848999999999
 20
18.098437
  0
LINE
  5
9FD
330
1E
100
AcDbEntity
  8
0
  6
CONTINUOUS
 62
     5
100
AcDbLine
 10
36.03474
 20
18.024062
 30
0.0
 11
35.94973999999999
 21
18.024062
 31
0.0
  0
LWPOLYLINE
  5
9FE
330
1E
100
AcDbEntity
  8
0
  6
CONTINUOUS
 62
     5
100
AcDbPolyline
 90
       20
 70
     0
 43
0.0
 10
36.114427
 20
17.9125
 10
36.11974
 20
17.901875
 10
36.13036499999999
 20
17.89125
 10
36.15161499999999
 20
17.88593699999998
 10
36.18349
 20
17.88593699999998
 10
36.20474
 20
17.896562
 10
36.22067699999998
 20
17.91781199999998
 10
36.231302
 20
17.944375
 10
36.236615
 20
17.97625
 10
36.236615
 20
18.013437
 10
36.231302
 20
18.04531199999998
 10
36.22067699999998
 20
18.066562
 10
36.20474
 20
18.087812
 10
36.18349
 20
18.098437
 10
36.14630199999999
 20
18.098437
 10
36.13036499999999
 20
18.093125
 10
36.11974
 20
18.0825
 10
36.109115
 20
18.06125
 10
36.109115
 20
18.00281199999998
 10
36.16223999999999
 20
18.00281199999998
  0
TEXT
  5
9FF
330
1E
100
AcDbEntity
  8
0
 62
     5
100
AcDbText
 10
35.9368625
 20
3.047370999999998
 30
0.0
 40
0.2125
  1
A
 41
0.825
 72
     4
 11
35.9953
 21
3.153620999999998
 31
0.0
100
AcDbText
  0
TEXT
  5
A29
330
1E
100
AcDbEntity
  8
0
 62
     5
100
AcDbText
 10
18.96164025
 20
10.128125
 30
0.0
 40
0.2125
  1
GB
 41
0.825
 72
     4
 11
19.107734
 21
10.234375
 31
0.0
100
AcDbText
  0
LINE
  5
A2A
330
1E
100
AcDbEntity
  8
0
  6
CONTINUOUS
 62
     5
100
AcDbLine
 10
18.40599999999999
 20
9.382999999999999
 30
0.0
 11
18.40599999999999
 21
10.429
 31
0.0
  0
CIRCLE
  5
A2B
330
1E
100
AcDbEntity
  8
0
  6
CONTINUOUS
 62
     5
100
AcDbCircle
 10
18.40599999999999
 20
9.906
 30
0.0
 40
0.435
  0
CIRCLE
  5
A2C
330
1E
100
AcDbEntity
  8
0
  6
CONTINUOUS
 62
     5
100
AcDbCircle
 10
18.40599999999999
 20
3.75
 30
0.0
 40
0.3439999999999999
  0
ARC
  5
A2D
330
1E
100
AcDbEntity
  8
0
  6
CONTINUOUS
 62
     5
100
AcDbCircle
 10
18.40599999999999
 20
3.75
 30
0.0
 40
0.4020000000000001
100
AcDbArc
 50
85.00000100000002
 51
4.999999999999999
  0
CIRCLE
  5
A2E
330
1E
100
AcDbEntity
  8
0
  6
CONTINUOUS
 62
     5
100
AcDbCircle
 10
18.40599999999999
 20
3.75
 30
0.0
 40
0.373
  0
CIRCLE
  5
A2F
330
1E
100
AcDbEntity
  8
0
  6
CONTINUOUS
 62
     5
100
AcDbCircle
 10
18.40599999999999
 20
3.75
 30
0.0
 40
0.412
  0
LINE
  5
A30
330
1E
100
AcDbEntity
  8
0
  6
CONTINUOUS
 62
     5
100
AcDbLine
 10
18.40599999999999
 20
3.024999999999999
 30
0.0
 11
18.40599999999999
 21
4.474999999999998
 31
0.0
  0
CIRCLE
  5
A31
330
1E
100
AcDbEntity
  8
0
  6
CONTINUOUS
 62
     5
100
AcDbCircle
 10
18.40599999999999
 20
3.75
 30
0.0
 40
0.604
  0
LINE
  5
A32
330
1E
100
AcDbEntity
  8
0
  6
CONTINUOUS
 62
     5
100
AcDbLine
 10
17.68099999999999
 20
3.75
 30
0.0
 11
19.12999999999999
 21
3.75
 31
0.0
  0
TEXT
  5
A33
330
1E
100
AcDbEntity
  8
0
 62
     5
100
AcDbText
 10
18.9368625
 20
3.047370999999998
 30
0.0
 40
0.2125
  1
A
 41
0.825
 72
     4
 11
18.9953
 21
3.153620999999998
 31
0.0
100
AcDbText
  0
ARC
  5
A34
330
1E
100
AcDbEntity
  8
0
  6
CONTINUOUS
 62
     5
100
AcDbCircle
 10
18.40599999999999
 20
5.25
 30
0.0
 40
0.4020000000000001
100
AcDbArc
 50
85.00000100000002
 51
4.999999999999999
  0
CIRCLE
  5
A35
330
1E
100
AcDbEntity
  8
0
  6
CONTINUOUS
 62
     5
100
AcDbCircle
 10
18.40599999999999
 20
5.25
 30
0.0
 40
0.3439999999999999
  0
CIRCLE
  5
A36
330
1E
100
AcDbEntity
  8
0
  6
CONTINUOUS
 62
     5
100
AcDbCircle
 10
18.40599999999999
 20
5.25
 30
0.0
 40
0.373
  0
LINE
  5
A37
330
1E
100
AcDbEntity
  8
0
  6
CONTINUOUS
 62
     5
100
AcDbLine
 10
18.40599999999999
 20
4.525
 30
0.0
 11
18.40599999999999
 21
5.974999999999998
 31
0.0
  0
CIRCLE
  5
A38
330
1E
100
AcDbEntity
  8
0
  6
CONTINUOUS
 62
     5
100
AcDbCircle
 10
18.40599999999999
 20
5.25
 30
0.0
 40
0.412
  0
CIRCLE
  5
A39
330
1E
100
AcDbEntity
  8
0
  6
CONTINUOUS
 62
     5
100
AcDbCircle
 10
18.40599999999999
 20
5.25
 30
0.0
 40
0.604
  0
LINE
  5
A3A
330
1E
100
AcDbEntity
  8
0
  6
CONTINUOUS
 62
     5
100
AcDbLine
 10
17.68099999999999
 20
5.25
 30
0.0
 11
19.12999999999999
 21
5.25
 31
0.0
  0
TEXT
  5
A3B
330
1E
100
AcDbEntity
  8
0
 62
     5
100
AcDbText
 10
18.9368625
 20
4.576980999999999
 30
0.0
 40
0.2125
  1
B
 41
0.825
 72
     4
 11
18.9953
 21
4.683231
 31
0.0
100
AcDbText
  0
LINE
  5
A3C
330
1E
100
AcDbEntity
  8
0
  6
CONTINUOUS
 62
     5
100
AcDbLine
 10
17.883
 20
9.906
 30
0.0
 11
18.928
 21
9.906
 31
0.0
  0
CIRCLE
  5
A3D
330
1E
100
AcDbEntity
  8
0
  6
CONTINUOUS
 62
     5
100
AcDbCircle
 10
18.40599999999999
 20
9.906
 30
0.0
 40
0.259
  0
ARC
  5
A3E
330
1E
100
AcDbEntity
  8
0
  6
CONTINUOUS
 62
     5
100
AcDbCircle
 10
18.40599999999999
 20
9.906
 30
0.0
 40
0.164
100
AcDbArc
 50
85.00000100000002
 51
4.999999999999999
  0
CIRCLE
  5
A3F
330
1E
100
AcDbEntity
  8
0
  6
CONTINUOUS
 62
     5
100
AcDbCircle
 10
18.40599999999999
 20
9.906
 30
0.0
 40
0.14
  0
CIRCLE
  5
A40
330
1E
100
AcDbEntity
  8
0
  6
CONTINUOUS
 62
     5
100
AcDbCircle
 10
18.40599999999999
 20
9.906
 30
0.0
 40
0.23
  0
CIRCLE
  5
A41
330
1E
100
AcDbEntity
  8
0
  6
CONTINUOUS
 62
     5
100
AcDbCircle
 10
17.765
 20
13.561
 30
0.0
 40
0.078
  0
LINE
  5
A42
330
1E
100
AcDbEntity
  8
0
  6
CONTINUOUS
 62
     5
100
AcDbLine
 10
17.765
 20
13.467
 30
0.0
 11
17.765
 21
13.65499999999999
 31
0.0
  0
CIRCLE
  5
A43
330
1E
100
AcDbEntity
  8
0
  6
CONTINUOUS
 62
     5
100
AcDbCircle
 10
18.40599999999999
 20
13.672
 30
0.0
 40
0.14
  0
LINE
  5
A44
330
1E
100
AcDbEntity
  8
0
  6
CONTINUOUS
 62
     5
100
AcDbLine
 10
18.40599999999999
 20
13.503
 30
0.0
 11
18.40599999999999
 21
13.841
 31
0.0
  0
LINE
  5
A45
330
1E
100
AcDbEntity
  8
0
  6
CONTINUOUS
 62
     5
100
AcDbLine
 10
17.65199999999999
 20
13.266
 30
0.0
 11
17.88
 21
13.266
 31
0.0
  0
ARC
  5
A46
330
1E
100
AcDbEntity
  8
0
  6
CONTINUOUS
 62
     5
100
AcDbCircle
 10
17.76599999999999
 20
13.266
 30
0.0
 40
0.087
100
AcDbArc
 50
85.00000099999999
 51
5.0
  0
CIRCLE
  5
A47
330
1E
100
AcDbEntity
  8
0
  6
CONTINUOUS
 62
     5
100
AcDbCircle
 10
17.76599999999999
 20
13.266
 30
0.0
 40
0.075
  0
CIRCLE
  5
A48
330
1E
100
AcDbEntity
  8
0
  6
CONTINUOUS
 62
     5
100
AcDbCircle
 10
17.76599999999999
 20
13.266
 30
0.0
 40
0.095
  0
LINE
  5
A49
330
1E
100
AcDbEntity
  8
0
  6
CONTINUOUS
 62
     5
100
AcDbLine
 10
17.76599999999999
 20
13.15199999999999
 30
0.0
 11
17.76599999999999
 21
13.38
 31
0.0
  0
LINE
  5
A4A
330
1E
100
AcDbEntity
  8
0
  6
CONTINUOUS
 62
     5
100
AcDbLine
 10
18.93199999999999
 20
13.266
 30
0.0
 11
19.16
 21
13.266
 31
0.0
  0
LINE
  5
A4B
330
1E
100
AcDbEntity
  8
0
  6
CONTINUOUS
 62
     5
100
AcDbLine
 10
19.04599999999998
 20
13.15199999999999
 30
0.0
 11
19.04599999999998
 21
13.38
 31
0.0
  0
ARC
  5
A4C
330
1E
100
AcDbEntity
  8
0
  6
CONTINUOUS
 62
     5
100
AcDbCircle
 10
19.04599999999998
 20
13.266
 30
0.0
 40
0.087
100
AcDbArc
 50
85.00000099999999
 51
5.0
  0
CIRCLE
  5
A4D
330
1E
100
AcDbEntity
  8
0
  6
CONTINUOUS
 62
     5
100
AcDbCircle
 10
19.04599999999998
 20
13.266
 30
0.0
 40
0.075
  0
CIRCLE
  5
A4E
330
1E
100
AcDbEntity
  8
0
  6
CONTINUOUS
 62
     5
100
AcDbCircle
 10
19.04599999999998
 20
13.266
 30
0.0
 40
0.095
  0
LINE
  5
A4F
330
1E
100
AcDbEntity
  8
0
  6
CONTINUOUS
 62
     5
100
AcDbLine
 10
18.0
 20
13.847
 30
0.0
 11
18.0
 21
14.185
 31
0.0
  0
CIRCLE
  5
A50
330
1E
100
AcDbEntity
  8
0
  6
CONTINUOUS
 62
     5
100
AcDbCircle
 10
18.0
 20
14.016
 30
0.0
 40
0.14
  0
LINE
  5
A51
330
1E
100
AcDbEntity
  8
0
  6
CONTINUOUS
 62
     5
100
AcDbLine
 10
17.672
 20
13.561
 30
0.0
 11
17.859
 21
13.561
 31
0.0
  0
LINE
  5
A52
330
1E
100
AcDbEntity
  8
0
  6
CONTINUOUS
 62
     5
100
AcDbLine
 10
17.83099999999999
 20
14.016
 30
0.0
 11
18.16799999999999
 21
14.016
 31
0.0
  0
LINE
  5
A53
330
1E
100
AcDbEntity
  8
0
  6
CONTINUOUS
 62
     5
100
AcDbLine
 10
17.682
 20
14.85999999999999
 30
0.0
 11
17.91
 21
14.85999999999999
 31
0.0
  0
LINE
  5
A54
330
1E
100
AcDbEntity
  8
0
  6
CONTINUOUS
 62
     5
100
AcDbLine
 10
17.79599999999999
 20
14.74599999999998
 30
0.0
 11
17.79599999999999
 21
14.974
 31
0.0
  0
ARC
  5
A55
330
1E
100
AcDbEntity
  8
0
  6
CONTINUOUS
 62
     5
100
AcDbCircle
 10
17.79599999999999
 20
14.85999999999999
 30
0.0
 40
0.087
100
AcDbArc
 50
85.00000099999999
 51
5.0
  0
CIRCLE
  5
A56
330
1E
100
AcDbEntity
  8
0
  6
CONTINUOUS
 62
     5
100
AcDbCircle
 10
17.79599999999999
 20
14.85999999999999
 30
0.0
 40
0.075
  0
CIRCLE
  5
A57
330
1E
100
AcDbEntity
  8
0
  6
CONTINUOUS
 62
     5
100
AcDbCircle
 10
17.79599999999999
 20
14.85999999999999
 30
0.0
 40
0.095
  0
LINE
  5
A58
330
1E
100
AcDbEntity
  8
0
  6
CONTINUOUS
 62
     5
100
AcDbLine
 10
18.40599999999999
 20
14.191
 30
0.0
 11
18.40599999999999
 21
14.529
 31
0.0
  0
CIRCLE
  5
A59
330
1E
100
AcDbEntity
  8
0
  6
CONTINUOUS
 62
     5
100
AcDbCircle
 10
18.40599999999999
 20
14.35999999999999
 30
0.0
 40
0.14
  0
LINE
  5
A5A
330
1E
100
AcDbEntity
  8
0
  6
CONTINUOUS
 62
     5
100
AcDbLine
 10
18.663
 20
14.016
 30
0.0
 11
18.963
 21
14.016
 31
0.0
  0
LINE
  5
A5B
330
1E
100
AcDbEntity
  8
0
  6
CONTINUOUS
 62
     5
100
AcDbLine
 10
18.237
 20
13.672
 30
0.0
 11
18.574
 21
13.672
 31
0.0
  0
LINE
  5
A5C
330
1E
100
AcDbEntity
  8
0
  6
CONTINUOUS
 62
     5
100
AcDbLine
 10
18.704
 20
13.946
 30
0.0
 11
18.71699999999999
 21
13.92599999999999
 31
0.0
  0
LINE
  5
A5D
330
1E
100
AcDbEntity
  8
0
  6
CONTINUOUS
 62
     5
100
AcDbLine
 10
18.908
 20
13.92599999999999
 30
0.0
 11
18.92099999999998
 21
13.946
 31
0.0
  0
LINE
  5
A5E
330
1E
100
AcDbEntity
  8
0
  6
CONTINUOUS
 62
     5
100
AcDbLine
 10
18.812
 20
13.866
 30
0.0
 11
18.812
 21
14.16599999999998
 31
0.0
  0
LINE
  5
A5F
330
1E
100
AcDbEntity
  8
0
  6
CONTINUOUS
 62
     5
100
AcDbLine
 10
18.71699999999999
 20
13.92599999999999
 30
0.0
 11
18.73199999999999
 21
13.909
 31
0.0
  0
LINE
  5
A60
330
1E
100
AcDbEntity
  8
0
  6
CONTINUOUS
 62
     5
100
AcDbLine
 10
18.73199999999999
 20
13.909
 30
0.0
 11
18.75
 21
13.89499999999999
 31
0.0
  0
LINE
  5
A61
330
1E
100
AcDbEntity
  8
0
  6
CONTINUOUS
 62
     5
100
AcDbLine
 10
18.875
 20
13.89499999999999
 30
0.0
 11
18.893
 21
13.909
 31
0.0
  0
LINE
  5
A62
330
1E
100
AcDbEntity
  8
0
  6
CONTINUOUS
 62
     5
100
AcDbLine
 10
18.893
 20
13.909
 30
0.0
 11
18.908
 21
13.92599999999999
 31
0.0
  0
LINE
  5
A63
330
1E
100
AcDbEntity
  8
0
  6
CONTINUOUS
 62
     5
100
AcDbLine
 10
18.75
 20
13.89499999999999
 30
0.0
 11
18.76999999999999
 21
13.884
 31
0.0
  0
LINE
  5
A64
330
1E
100
AcDbEntity
  8
0
  6
CONTINUOUS
 62
     5
100
AcDbLine
 10
18.76999999999999
 20
13.884
 30
0.0
 11
18.791
 21
13.878
 31
0.0
  0
LINE
  5
A65
330
1E
100
AcDbEntity
  8
0
  6
CONTINUOUS
 62
     5
100
AcDbLine
 10
18.791
 20
13.878
 30
0.0
 11
18.812
 21
13.87599999999999
 31
0.0
  0
LINE
  5
A66
330
1E
100
AcDbEntity
  8
0
  6
CONTINUOUS
 62
     5
100
AcDbLine
 10
18.812
 20
13.87599999999999
 30
0.0
 11
18.83399999999999
 21
13.878
 31
0.0
  0
LINE
  5
A67
330
1E
100
AcDbEntity
  8
0
  6
CONTINUOUS
 62
     5
100
AcDbLine
 10
18.83399999999999
 20
13.878
 30
0.0
 11
18.855
 21
13.884
 31
0.0
  0
LINE
  5
A68
330
1E
100
AcDbEntity
  8
0
  6
CONTINUOUS
 62
     5
100
AcDbLine
 10
18.855
 20
13.884
 30
0.0
 11
18.875
 21
13.89499999999999
 31
0.0
  0
LINE
  5
A69
330
1E
100
AcDbEntity
  8
0
  6
CONTINUOUS
 62
     5
100
AcDbLine
 10
18.92999999999999
 20
13.968
 30
0.0
 11
18.93599999999998
 21
13.992
 31
0.0
  0
LINE
  5
A6A
330
1E
100
AcDbEntity
  8
0
  6
CONTINUOUS
 62
     5
100
AcDbLine
 10
18.93599999999998
 20
14.03999999999999
 30
0.0
 11
18.92999999999999
 21
14.064
 31
0.0
  0
LINE
  5
A6B
330
1E
100
AcDbEntity
  8
0
  6
CONTINUOUS
 62
     5
100
AcDbLine
 10
18.687
 20
14.016
 30
0.0
 11
18.689
 21
13.992
 31
0.0
  0
LINE
  5
A6C
330
1E
100
AcDbEntity
  8
0
  6
CONTINUOUS
 62
     5
100
AcDbLine
 10
18.689
 20
13.992
 30
0.0
 11
18.695
 21
13.968
 31
0.0
  0
LINE
  5
A6D
330
1E
100
AcDbEntity
  8
0
  6
CONTINUOUS
 62
     5
100
AcDbLine
 10
18.695
 20
13.968
 30
0.0
 11
18.704
 21
13.946
 31
0.0
  0
LINE
  5
A6E
330
1E
100
AcDbEntity
  8
0
  6
CONTINUOUS
 62
     5
100
AcDbLine
 10
18.92099999999998
 20
13.946
 30
0.0
 11
18.92999999999999
 21
13.968
 31
0.0
  0
LINE
  5
A6F
330
1E
100
AcDbEntity
  8
0
  6
CONTINUOUS
 62
     5
100
AcDbLine
 10
18.92999999999999
 20
14.064
 30
0.0
 11
18.92099999999998
 21
14.08599999999998
 31
0.0
  0
LINE
  5
A70
330
1E
100
AcDbEntity
  8
0
  6
CONTINUOUS
 62
     5
100
AcDbLine
 10
18.92099999999998
 20
14.08599999999998
 30
0.0
 11
18.908
 21
14.106
 31
0.0
  0
LINE
  5
A71
330
1E
100
AcDbEntity
  8
0
  6
CONTINUOUS
 62
     5
100
AcDbLine
 10
18.908
 20
14.106
 30
0.0
 11
18.893
 21
14.123
 31
0.0
  0
LINE
  5
A72
330
1E
100
AcDbEntity
  8
0
  6
CONTINUOUS
 62
     5
100
AcDbLine
 10
18.893
 20
14.123
 30
0.0
 11
18.875
 21
14.137
 31
0.0
  0
LINE
  5
A73
330
1E
100
AcDbEntity
  8
0
  6
CONTINUOUS
 62
     5
100
AcDbLine
 10
18.875
 20
14.137
 30
0.0
 11
18.855
 21
14.148
 31
0.0
  0
LINE
  5
A74
330
1E
100
AcDbEntity
  8
0
  6
CONTINUOUS
 62
     5
100
AcDbLine
 10
18.855
 20
14.148
 30
0.0
 11
18.83399999999999
 21
14.15399999999999
 31
0.0
  0
LINE
  5
A75
330
1E
100
AcDbEntity
  8
0
  6
CONTINUOUS
 62
     5
100
AcDbLine
 10
18.83399999999999
 20
14.15399999999999
 30
0.0
 11
18.812
 21
14.15599999999999
 31
0.0
  0
LINE
  5
A76
330
1E
100
AcDbEntity
  8
0
  6
CONTINUOUS
 62
     5
100
AcDbLine
 10
18.812
 20
14.15599999999999
 30
0.0
 11
18.791
 21
14.15399999999999
 31
0.0
  0
LINE
  5
A77
330
1E
100
AcDbEntity
  8
0
  6
CONTINUOUS
 62
     5
100
AcDbLine
 10
18.791
 20
14.15399999999999
 30
0.0
 11
18.76999999999999
 21
14.148
 31
0.0
  0
LINE
  5
A78
330
1E
100
AcDbEntity
  8
0
  6
CONTINUOUS
 62
     5
100
AcDbLine
 10
18.76999999999999
 20
14.148
 30
0.0
 11
18.75
 21
14.137
 31
0.0
  0
LINE
  5
A79
330
1E
100
AcDbEntity
  8
0
  6
CONTINUOUS
 62
     5
100
AcDbLine
 10
18.75
 20
14.137
 30
0.0
 11
18.73199999999999
 21
14.123
 31
0.0
  0
LINE
  5
A7A
330
1E
100
AcDbEntity
  8
0
  6
CONTINUOUS
 62
     5
100
AcDbLine
 10
18.73199999999999
 20
14.123
 30
0.0
 11
18.71699999999999
 21
14.106
 31
0.0
  0
LINE
  5
A7B
330
1E
100
AcDbEntity
  8
0
  6
CONTINUOUS
 62
     5
100
AcDbLine
 10
18.71699999999999
 20
14.106
 30
0.0
 11
18.704
 21
14.08599999999998
 31
0.0
  0
LINE
  5
A7C
330
1E
100
AcDbEntity
  8
0
  6
CONTINUOUS
 62
     5
100
AcDbLine
 10
18.704
 20
14.08599999999998
 30
0.0
 11
18.695
 21
14.064
 31
0.0
  0
LINE
  5
A7D
330
1E
100
AcDbEntity
  8
0
  6
CONTINUOUS
 62
     5
100
AcDbLine
 10
18.695
 20
14.064
 30
0.0
 11
18.689
 21
14.03999999999999
 31
0.0
  0
LINE
  5
A7E
330
1E
100
AcDbEntity
  8
0
  6
CONTINUOUS
 62
     5
100
AcDbLine
 10
18.689
 20
14.03999999999999
 30
0.0
 11
18.687
 21
14.016
 31
0.0
  0
LINE
  5
A7F
330
1E
100
AcDbEntity
  8
0
  6
CONTINUOUS
 62
     5
100
AcDbLine
 10
18.93599999999998
 20
13.992
 30
0.0
 11
18.937
 21
14.016
 31
0.0
  0
LINE
  5
A80
330
1E
100
AcDbEntity
  8
0
  6
CONTINUOUS
 62
     5
100
AcDbLine
 10
18.937
 20
14.016
 30
0.0
 11
18.93599999999998
 21
14.03999999999999
 31
0.0
  0
LINE
  5
A81
330
1E
100
AcDbEntity
  8
0
  6
CONTINUOUS
 62
     5
100
AcDbLine
 10
18.237
 20
14.35999999999999
 30
0.0
 11
18.574
 21
14.35999999999999
 31
0.0
  0
LINE
  5
A82
330
1E
100
AcDbEntity
  8
0
  6
CONTINUOUS
 62
     5
100
AcDbLine
 10
18.902
 20
14.85999999999999
 30
0.0
 11
19.12999999999999
 21
14.85999999999999
 31
0.0
  0
ARC
  5
A83
330
1E
100
AcDbEntity
  8
0
  6
CONTINUOUS
 62
     5
100
AcDbCircle
 10
19.01599999999999
 20
14.85999999999999
 30
0.0
 40
0.087
100
AcDbArc
 50
85.00000099999999
 51
5.0
  0
CIRCLE
  5
A84
330
1E
100
AcDbEntity
  8
0
  6
CONTINUOUS
 62
     5
100
AcDbCircle
 10
19.01599999999999
 20
14.85999999999999
 30
0.0
 40
0.095
  0
LINE
  5
A85
330
1E
100
AcDbEntity
  8
0
  6
CONTINUOUS
 62
     5
100
AcDbLine
 10
19.01599999999999
 20
14.74599999999998
 30
0.0
 11
19.01599999999999
 21
14.974
 31
0.0
  0
CIRCLE
  5
A86
330
1E
100
AcDbEntity
  8
0
  6
CONTINUOUS
 62
     5
100
AcDbCircle
 10
19.01599999999999
 20
14.85999999999999
 30
0.0
 40
0.075
  0
LWPOLYLINE
  5
A87
330
1E
100
AcDbEntity
  8
0
  6
CONTINUOUS
 62
     5
100
AcDbPolyline
 90
       20
 70
     0
 43
0.0
 10
19.11442699999999
 20
17.9125
 10
19.11974
 20
17.901875
 10
19.130365
 20
17.89125
 10
19.15161499999999
 20
17.88593699999998
 10
19.18348999999999
 20
17.88593699999998
 10
19.20474
 20
17.896562
 10
19.22067699999999
 20
17.91781199999998
 10
19.23130199999999
 20
17.944375
 10
19.236615
 20
17.97625
 10
19.236615
 20
18.013437
 10
19.23130199999999
 20
18.04531199999998
 10
19.22067699999999
 20
18.066562
 10
19.20474
 20
18.087812
 10
19.18348999999999
 20
18.098437
 10
19.14630199999999
 20
18.098437
 10
19.130365
 20
18.093125
 10
19.11974
 20
18.0825
 10
19.10911499999999
 20
18.06125
 10
19.10911499999999
 20
18.00281199999998
 10
19.16224
 20
18.00281199999998
  0
CIRCLE
  5
A88
330
1E
100
AcDbEntity
  8
0
  6
CONTINUOUS
 62
     5
100
AcDbCircle
 10
18.40599999999999
 20
18.32799999999998
 30
0.0
 40
0.14
  0
ARC
  5
A89
330
1E
100
AcDbEntity
  8
0
  6
CONTINUOUS
 62
     5
100
AcDbCircle
 10
18.40599999999999
 20
18.32799999999998
 30
0.0
 40
0.164
100
AcDbArc
 50
85.00000100000002
 51
4.999999999999999
  0
LINE
  5
A8A
330
1E
100
AcDbEntity
  8
0
  6
CONTINUOUS
 62
     5
100
AcDbLine
 10
18.40599999999999
 20
17.80499999999999
 30
0.0
 11
18.40599999999999
 21
18.85099999999998
 31
0.0
  0
CIRCLE
  5
A8B
330
1E
100
AcDbEntity
  8
0
  6
CONTINUOUS
 62
     5
100
AcDbCircle
 10
18.40599999999999
 20
18.32799999999998
 30
0.0
 40
0.23
  0
CIRCLE
  5
A8C
330
1E
100
AcDbEntity
  8
0
  6
CONTINUOUS
 62
     5
100
AcDbCircle
 10
18.40599999999999
 20
18.32799999999998
 30
0.0
 40
0.259
  0
CIRCLE
  5
A8D
330
1E
100
AcDbEntity
  8
0
  6
CONTINUOUS
 62
     5
100
AcDbCircle
 10
18.40599999999999
 20
18.32799999999998
 30
0.0
 40
0.435
  0
LINE
  5
A8E
330
1E
100
AcDbEntity
  8
0
  6
CONTINUOUS
 62
     5
100
AcDbLine
 10
17.883
 20
18.32799999999998
 30
0.0
 11
18.928
 21
18.32799999999998
 31
0.0
  0
LWPOLYLINE
  5
A8F
330
1E
100
AcDbEntity
  8
0
  6
CONTINUOUS
 62
     5
100
AcDbPolyline
 90
        4
 70
     0
 43
0.0
 10
19.05598999999999
 20
18.098437
 10
18.99755199999999
 20
17.88593699999998
 10
18.98692699999999
 20
17.88593699999998
 10
18.92849
 20
18.098437
  0
LINE
  5
A90
330
1E
100
AcDbEntity
  8
0
  6
CONTINUOUS
 62
     5
100
AcDbLine
 10
19.03473999999999
 20
18.024062
 30
0.0
 11
18.94973999999999
 21
18.024062
 31
0.0
  0
CIRCLE
  5
AB4
330
1E
100
AcDbEntity
  8
0
  6
CONTINUOUS
 62
     5
100
AcDbCircle
 10
33.28099999999999
 20
9.906
 30
0.0
 40
0.435
  0
LINE
  5
AB5
330
1E
100
AcDbEntity
  8
0
  6
CONTINUOUS
 62
     5
100
AcDbLine
 10
33.28099999999999
 20
9.382999999999999
 30
0.0
 11
33.28099999999999
 21
10.429
 31
0.0
  0
TEXT
  5
AB6
330
1E
100
AcDbEntity
  8
0
 62
     5
100
AcDbText
 10
33.83664025
 20
10.128125
 30
0.0
 40
0.2125
  1
GB
 41
0.825
 72
     4
 11
33.982734
 21
10.234375
 31
0.0
100
AcDbText
  0
CIRCLE
  5
AB7
330
1E
100
AcDbEntity
  8
0
  6
CONTINUOUS
 62
     5
100
AcDbCircle
 10
33.28099999999999
 20
3.75
 30
0.0
 40
0.604
  0
LINE
  5
AB8
330
1E
100
AcDbEntity
  8
0
  6
CONTINUOUS
 62
     5
100
AcDbLine
 10
33.28099999999999
 20
3.024999999999999
 30
0.0
 11
33.28099999999999
 21
4.474999999999998
 31
0.0
  0
CIRCLE
  5
AB9
330
1E
100
AcDbEntity
  8
0
  6
CONTINUOUS
 62
     5
100
AcDbCircle
 10
33.28099999999999
 20
3.75
 30
0.0
 40
0.412
  0
CIRCLE
  5
ABA
330
1E
100
AcDbEntity
  8
0
  6
CONTINUOUS
 62
     5
100
AcDbCircle
 10
33.28099999999999
 20
3.75
 30
0.0
 40
0.373
  0
ARC
  5
ABB
330
1E
100
AcDbEntity
  8
0
  6
CONTINUOUS
 62
     5
100
AcDbCircle
 10
33.28099999999999
 20
3.75
 30
0.0
 40
0.4020000000000001
100
AcDbArc
 50
85.00000100000002
 51
4.999999999999999
  0
CIRCLE
  5
ABC
330
1E
100
AcDbEntity
  8
0
  6
CONTINUOUS
 62
     5
100
AcDbCircle
 10
33.28099999999999
 20
3.75
 30
0.0
 40
0.3439999999999999
  0
LINE
  5
ABD
330
1E
100
AcDbEntity
  8
0
  6
CONTINUOUS
 62
     5
100
AcDbLine
 10
32.55599999999999
 20
3.75
 30
0.0
 11
34.00499999999999
 21
3.75
 31
0.0
  0
TEXT
  5
ABE
330
1E
100
AcDbEntity
  8
0
 62
     5
100
AcDbText
 10
33.8118625
 20
3.047370999999998
 30
0.0
 40
0.2125
  1
A
 41
0.825
 72
     4
 11
33.8703
 21
3.153620999999998
 31
0.0
100
AcDbText
  0
LINE
  5
ABF
330
1E
100
AcDbEntity
  8
0
  6
CONTINUOUS
 62
     5
100
AcDbLine
 10
32.55599999999999
 20
5.25
 30
0.0
 11
34.00499999999999
 21
5.25
 31
0.0
  0
CIRCLE
  5
AC0
330
1E
100
AcDbEntity
  8
0
  6
CONTINUOUS
 62
     5
100
AcDbCircle
 10
33.28099999999999
 20
5.25
 30
0.0
 40
0.604
  0
CIRCLE
  5
AC1
330
1E
100
AcDbEntity
  8
0
  6
CONTINUOUS
 62
     5
100
AcDbCircle
 10
33.28099999999999
 20
5.25
 30
0.0
 40
0.412
  0
LINE
  5
AC2
330
1E
100
AcDbEntity
  8
0
  6
CONTINUOUS
 62
     5
100
AcDbLine
 10
33.28099999999999
 20
4.525
 30
0.0
 11
33.28099999999999
 21
5.974999999999998
 31
0.0
  0
CIRCLE
  5
AC3
330
1E
100
AcDbEntity
  8
0
  6
CONTINUOUS
 62
     5
100
AcDbCircle
 10
33.28099999999999
 20
5.25
 30
0.0
 40
0.373
  0
CIRCLE
  5
AC4
330
1E
100
AcDbEntity
  8
0
  6
CONTINUOUS
 62
     5
100
AcDbCircle
 10
33.28099999999999
 20
5.25
 30
0.0
 40
0.3439999999999999
  0
ARC
  5
AC5
330
1E
100
AcDbEntity
  8
0
  6
CONTINUOUS
 62
     5
100
AcDbCircle
 10
33.28099999999999
 20
5.25
 30
0.0
 40
0.4020000000000001
100
AcDbArc
 50
85.00000100000002
 51
4.999999999999999
  0
TEXT
  5
AC6
330
1E
100
AcDbEntity
  8
0
 62
     5
100
AcDbText
 10
33.8118625
 20
4.576980999999999
 30
0.0
 40
0.2125
  1
B
 41
0.825
 72
     4
 11
33.8703
 21
4.683231
 31
0.0
100
AcDbText
  0
LINE
  5
AC7
330
1E
100
AcDbEntity
  8
0
  6
CONTINUOUS
 62
     5
100
AcDbLine
 10
32.75799999999999
 20
9.906
 30
0.0
 11
33.803
 21
9.906
 31
0.0
  0
CIRCLE
  5
AC8
330
1E
100
AcDbEntity
  8
0
  6
CONTINUOUS
 62
     5
100
AcDbCircle
 10
33.28099999999999
 20
9.906
 30
0.0
 40
0.23
  0
CIRCLE
  5
AC9
330
1E
100
AcDbEntity
  8
0
  6
CONTINUOUS
 62
     5
100
AcDbCircle
 10
33.28099999999999
 20
9.906
 30
0.0
 40
0.259
  0
CIRCLE
  5
ACA
330
1E
100
AcDbEntity
  8
0
  6
CONTINUOUS
 62
     5
100
AcDbCircle
 10
33.28099999999999
 20
9.906
 30
0.0
 40
0.14
  0
ARC
  5
ACB
330
1E
100
AcDbEntity
  8
0
  6
CONTINUOUS
 62
     5
100
AcDbCircle
 10
33.28099999999999
 20
9.906
 30
0.0
 40
0.164
100
AcDbArc
 50
85.00000100000002
 51
4.999999999999999
  0
LINE
  5
ACC
330
1E
100
AcDbEntity
  8
0
  6
CONTINUOUS
 62
     5
100
AcDbLine
 10
33.28099999999999
 20
13.503
 30
0.0
 11
33.28099999999999
 21
13.841
 31
0.0
  0
CIRCLE
  5
ACD
330
1E
100
AcDbEntity
  8
0
  6
CONTINUOUS
 62
     5
100
AcDbCircle
 10
33.28099999999999
 20
13.672
 30
0.0
 40
0.14
  0
LINE
  5
ACE
330
1E
100
AcDbEntity
  8
0
  6
CONTINUOUS
 62
     5
100
AcDbLine
 10
32.64
 20
13.467
 30
0.0
 11
32.64
 21
13.65499999999999
 31
0.0
  0
CIRCLE
  5
ACF
330
1E
100
AcDbEntity
  8
0
  6
CONTINUOUS
 62
     5
100
AcDbCircle
 10
32.64
 20
13.561
 30
0.0
 40
0.078
  0
CIRCLE
  5
AD0
330
1E
100
AcDbEntity
  8
0
  6
CONTINUOUS
 62
     5
100
AcDbCircle
 10
33.92099999999999
 20
13.266
 30
0.0
 40
0.095
  0
CIRCLE
  5
AD1
330
1E
100
AcDbEntity
  8
0
  6
CONTINUOUS
 62
     5
100
AcDbCircle
 10
33.92099999999999
 20
13.266
 30
0.0
 40
0.075
  0
ARC
  5
AD2
330
1E
100
AcDbEntity
  8
0
  6
CONTINUOUS
 62
     5
100
AcDbCircle
 10
33.92099999999999
 20
13.266
 30
0.0
 40
0.087
100
AcDbArc
 50
85.00000099999999
 51
5.0
  0
LINE
  5
AD3
330
1E
100
AcDbEntity
  8
0
  6
CONTINUOUS
 62
     5
100
AcDbLine
 10
33.80699999999999
 20
13.266
 30
0.0
 11
34.03499999999999
 21
13.266
 31
0.0
  0
CIRCLE
  5
AD4
330
1E
100
AcDbEntity
  8
0
  6
CONTINUOUS
 62
     5
100
AcDbCircle
 10
32.64099999999999
 20
13.266
 30
0.0
 40
0.095
  0
CIRCLE
  5
AD5
330
1E
100
AcDbEntity
  8
0
  6
CONTINUOUS
 62
     5
100
AcDbCircle
 10
32.64099999999999
 20
13.266
 30
0.0
 40
0.075
  0
ARC
  5
AD6
330
1E
100
AcDbEntity
  8
0
  6
CONTINUOUS
 62
     5
100
AcDbCircle
 10
32.64099999999999
 20
13.266
 30
0.0
 40
0.087
100
AcDbArc
 50
85.00000099999999
 51
5.0
  0
LINE
  5
AD7
330
1E
100
AcDbEntity
  8
0
  6
CONTINUOUS
 62
     5
100
AcDbLine
 10
32.52699999999999
 20
13.266
 30
0.0
 11
32.755
 21
13.266
 31
0.0
  0
LINE
  5
AD8
330
1E
100
AcDbEntity
  8
0
  6
CONTINUOUS
 62
     5
100
AcDbLine
 10
32.64099999999999
 20
13.15199999999999
 30
0.0
 11
32.64099999999999
 21
13.38
 31
0.0
  0
LINE
  5
AD9
330
1E
100
AcDbEntity
  8
0
  6
CONTINUOUS
 62
     5
100
AcDbLine
 10
33.92099999999999
 20
13.15199999999999
 30
0.0
 11
33.92099999999999
 21
13.38
 31
0.0
  0
CIRCLE
  5
ADA
330
1E
100
AcDbEntity
  8
0
  6
CONTINUOUS
 62
     5
100
AcDbCircle
 10
33.89099999999999
 20
14.85999999999999
 30
0.0
 40
0.095
  0
ARC
  5
ADB
330
1E
100
AcDbEntity
  8
0
  6
CONTINUOUS
 62
     5
100
AcDbCircle
 10
33.89099999999999
 20
14.85999999999999
 30
0.0
 40
0.087
100
AcDbArc
 50
85.00000099999999
 51
5.0
  0
LINE
  5
ADC
330
1E
100
AcDbEntity
  8
0
  6
CONTINUOUS
 62
     5
100
AcDbLine
 10
33.777
 20
14.85999999999999
 30
0.0
 11
34.00499999999999
 21
14.85999999999999
 31
0.0
  0
LINE
  5
ADD
330
1E
100
AcDbEntity
  8
0
  6
CONTINUOUS
 62
     5
100
AcDbLine
 10
32.70599999999999
 20
14.016
 30
0.0
 11
33.043
 21
14.016
 31
0.0
  0
CIRCLE
  5
ADE
330
1E
100
AcDbEntity
  8
0
  6
CONTINUOUS
 62
     5
100
AcDbCircle
 10
32.875
 20
14.016
 30
0.0
 40
0.14
  0
LINE
  5
ADF
330
1E
100
AcDbEntity
  8
0
  6
CONTINUOUS
 62
     5
100
AcDbLine
 10
32.875
 20
13.847
 30
0.0
 11
32.875
 21
14.185
 31
0.0
  0
LINE
  5
AE0
330
1E
100
AcDbEntity
  8
0
  6
CONTINUOUS
 62
     5
100
AcDbLine
 10
32.54699999999999
 20
13.561
 30
0.0
 11
32.734
 21
13.561
 31
0.0
  0
CIRCLE
  5
AE1
330
1E
100
AcDbEntity
  8
0
  6
CONTINUOUS
 62
     5
100
AcDbCircle
 10
32.67099999999999
 20
14.85999999999999
 30
0.0
 40
0.095
  0
CIRCLE
  5
AE2
330
1E
100
AcDbEntity
  8
0
  6
CONTINUOUS
 62
     5
100
AcDbCircle
 10
32.67099999999999
 20
14.85999999999999
 30
0.0
 40
0.075
  0
ARC
  5
AE3
330
1E
100
AcDbEntity
  8
0
  6
CONTINUOUS
 62
     5
100
AcDbCircle
 10
32.67099999999999
 20
14.85999999999999
 30
0.0
 40
0.087
100
AcDbArc
 50
85.00000099999999
 51
5.0
  0
LINE
  5
AE4
330
1E
100
AcDbEntity
  8
0
  6
CONTINUOUS
 62
     5
100
AcDbLine
 10
32.557
 20
14.85999999999999
 30
0.0
 11
32.78499999999999
 21
14.85999999999999
 31
0.0
  0
LINE
  5
AE5
330
1E
100
AcDbEntity
  8
0
  6
CONTINUOUS
 62
     5
100
AcDbLine
 10
32.67099999999999
 20
14.74599999999998
 30
0.0
 11
32.67099999999999
 21
14.974
 31
0.0
  0
CIRCLE
  5
AE6
330
1E
100
AcDbEntity
  8
0
  6
CONTINUOUS
 62
     5
100
AcDbCircle
 10
33.28099999999999
 20
14.35999999999999
 30
0.0
 40
0.14
  0
LINE
  5
AE7
330
1E
100
AcDbEntity
  8
0
  6
CONTINUOUS
 62
     5
100
AcDbLine
 10
33.28099999999999
 20
14.191
 30
0.0
 11
33.28099999999999
 21
14.529
 31
0.0
  0
LINE
  5
AE8
330
1E
100
AcDbEntity
  8
0
  6
CONTINUOUS
 62
     5
100
AcDbLine
 10
33.112
 20
13.672
 30
0.0
 11
33.44899999999999
 21
13.672
 31
0.0
  0
LINE
  5
AE9
330
1E
100
AcDbEntity
  8
0
  6
CONTINUOUS
 62
     5
100
AcDbLine
 10
33.687
 20
13.866
 30
0.0
 11
33.687
 21
14.16599999999998
 31
0.0
  0
LINE
  5
AEA
330
1E
100
AcDbEntity
  8
0
  6
CONTINUOUS
 62
     5
100
AcDbLine
 10
33.783
 20
13.92599999999999
 30
0.0
 11
33.79599999999998
 21
13.946
 31
0.0
  0
LINE
  5
AEB
330
1E
100
AcDbEntity
  8
0
  6
CONTINUOUS
 62
     5
100
AcDbLine
 10
33.579
 20
13.946
 30
0.0
 11
33.59199999999999
 21
13.92599999999999
 31
0.0
  0
LINE
  5
AEC
330
1E
100
AcDbEntity
  8
0
  6
CONTINUOUS
 62
     5
100
AcDbLine
 10
33.709
 20
13.878
 30
0.0
 11
33.73
 21
13.884
 31
0.0
  0
LINE
  5
AED
330
1E
100
AcDbEntity
  8
0
  6
CONTINUOUS
 62
     5
100
AcDbLine
 10
33.687
 20
13.87599999999999
 30
0.0
 11
33.709
 21
13.878
 31
0.0
  0
LINE
  5
AEE
330
1E
100
AcDbEntity
  8
0
  6
CONTINUOUS
 62
     5
100
AcDbLine
 10
33.666
 20
13.878
 30
0.0
 11
33.687
 21
13.87599999999999
 31
0.0
  0
LINE
  5
AEF
330
1E
100
AcDbEntity
  8
0
  6
CONTINUOUS
 62
     5
100
AcDbLine
 10
33.64499999999999
 20
13.884
 30
0.0
 11
33.666
 21
13.878
 31
0.0
  0
LINE
  5
AF0
330
1E
100
AcDbEntity
  8
0
  6
CONTINUOUS
 62
     5
100
AcDbLine
 10
33.625
 20
13.89499999999999
 30
0.0
 11
33.64499999999999
 21
13.884
 31
0.0
  0
LINE
  5
AF1
330
1E
100
AcDbEntity
  8
0
  6
CONTINUOUS
 62
     5
100
AcDbLine
 10
33.607
 20
13.909
 30
0.0
 11
33.625
 21
13.89499999999999
 31
0.0
  0
LINE
  5
AF2
330
1E
100
AcDbEntity
  8
0
  6
CONTINUOUS
 62
     5
100
AcDbLine
 10
33.59199999999999
 20
13.92599999999999
 30
0.0
 11
33.607
 21
13.909
 31
0.0
  0
LINE
  5
AF3
330
1E
100
AcDbEntity
  8
0
  6
CONTINUOUS
 62
     5
100
AcDbLine
 10
33.73
 20
13.884
 30
0.0
 11
33.75
 21
13.89499999999999
 31
0.0
  0
LINE
  5
AF4
330
1E
100
AcDbEntity
  8
0
  6
CONTINUOUS
 62
     5
100
AcDbLine
 10
33.768
 20
13.909
 30
0.0
 11
33.783
 21
13.92599999999999
 31
0.0
  0
LINE
  5
AF5
330
1E
100
AcDbEntity
  8
0
  6
CONTINUOUS
 62
     5
100
AcDbLine
 10
33.75
 20
13.89499999999999
 30
0.0
 11
33.768
 21
13.909
 31
0.0
  0
LINE
  5
AF6
330
1E
100
AcDbEntity
  8
0
  6
CONTINUOUS
 62
     5
100
AcDbLine
 10
33.73
 20
14.148
 30
0.0
 11
33.709
 21
14.15399999999999
 31
0.0
  0
LINE
  5
AF7
330
1E
100
AcDbEntity
  8
0
  6
CONTINUOUS
 62
     5
100
AcDbLine
 10
33.53799999999999
 20
14.016
 30
0.0
 11
33.838
 21
14.016
 31
0.0
  0
LINE
  5
AF8
330
1E
100
AcDbEntity
  8
0
  6
CONTINUOUS
 62
     5
100
AcDbLine
 10
33.666
 20
14.15399999999999
 30
0.0
 11
33.64499999999999
 21
14.148
 31
0.0
  0
LINE
  5
AF9
330
1E
100
AcDbEntity
  8
0
  6
CONTINUOUS
 62
     5
100
AcDbLine
 10
33.687
 20
14.15599999999999
 30
0.0
 11
33.666
 21
14.15399999999999
 31
0.0
  0
LINE
  5
AFA
330
1E
100
AcDbEntity
  8
0
  6
CONTINUOUS
 62
     5
100
AcDbLine
 10
33.709
 20
14.15399999999999
 30
0.0
 11
33.687
 21
14.15599999999999
 31
0.0
  0
LINE
  5
AFB
330
1E
100
AcDbEntity
  8
0
  6
CONTINUOUS
 62
     5
100
AcDbLine
 10
33.57
 20
13.968
 30
0.0
 11
33.579
 21
13.946
 31
0.0
  0
LINE
  5
AFC
330
1E
100
AcDbEntity
  8
0
  6
CONTINUOUS
 62
     5
100
AcDbLine
 10
33.564
 20
13.992
 30
0.0
 11
33.57
 21
13.968
 31
0.0
  0
LINE
  5
AFD
330
1E
100
AcDbEntity
  8
0
  6
CONTINUOUS
 62
     5
100
AcDbLine
 10
33.56199999999999
 20
14.016
 30
0.0
 11
33.564
 21
13.992
 31
0.0
  0
LINE
  5
AFE
330
1E
100
AcDbEntity
  8
0
  6
CONTINUOUS
 62
     5
100
AcDbLine
 10
33.564
 20
14.03999999999999
 30
0.0
 11
33.56199999999999
 21
14.016
 31
0.0
  0
LINE
  5
AFF
330
1E
100
AcDbEntity
  8
0
  6
CONTINUOUS
 62
     5
100
AcDbLine
 10
33.57
 20
14.064
 30
0.0
 11
33.564
 21
14.03999999999999
 31
0.0
  0
LINE
  5
B00
330
1E
100
AcDbEntity
  8
0
  6
CONTINUOUS
 62
     5
100
AcDbLine
 10
33.579
 20
14.08599999999998
 30
0.0
 11
33.57
 21
14.064
 31
0.0
  0
LINE
  5
B01
330
1E
100
AcDbEntity
  8
0
  6
CONTINUOUS
 62
     5
100
AcDbLine
 10
33.59199999999999
 20
14.106
 30
0.0
 11
33.579
 21
14.08599999999998
 31
0.0
  0
LINE
  5
B02
330
1E
100
AcDbEntity
  8
0
  6
CONTINUOUS
 62
     5
100
AcDbLine
 10
33.607
 20
14.123
 30
0.0
 11
33.59199999999999
 21
14.106
 31
0.0
  0
LINE
  5
B03
330
1E
100
AcDbEntity
  8
0
  6
CONTINUOUS
 62
     5
100
AcDbLine
 10
33.625
 20
14.137
 30
0.0
 11
33.607
 21
14.123
 31
0.0
  0
LINE
  5
B04
330
1E
100
AcDbEntity
  8
0
  6
CONTINUOUS
 62
     5
100
AcDbLine
 10
33.64499999999999
 20
14.148
 30
0.0
 11
33.625
 21
14.137
 31
0.0
  0
LINE
  5
B05
330
1E
100
AcDbEntity
  8
0
  6
CONTINUOUS
 62
     5
100
AcDbLine
 10
33.75
 20
14.137
 30
0.0
 11
33.73
 21
14.148
 31
0.0
  0
LINE
  5
B06
330
1E
100
AcDbEntity
  8
0
  6
CONTINUOUS
 62
     5
100
AcDbLine
 10
33.768
 20
14.123
 30
0.0
 11
33.75
 21
14.137
 31
0.0
  0
LINE
  5
B07
330
1E
100
AcDbEntity
  8
0
  6
CONTINUOUS
 62
     5
100
AcDbLine
 10
33.783
 20
14.106
 30
0.0
 11
33.768
 21
14.123
 31
0.0
  0
LINE
  5
B08
330
1E
100
AcDbEntity
  8
0
  6
CONTINUOUS
 62
     5
100
AcDbLine
 10
33.79599999999998
 20
14.08599999999998
 30
0.0
 11
33.783
 21
14.106
 31
0.0
  0
LINE
  5
B09
330
1E
100
AcDbEntity
  8
0
  6
CONTINUOUS
 62
     5
100
AcDbLine
 10
33.805
 20
14.064
 30
0.0
 11
33.79599999999998
 21
14.08599999999998
 31
0.0
  0
LINE
  5
B0A
330
1E
100
AcDbEntity
  8
0
  6
CONTINUOUS
 62
     5
100
AcDbLine
 10
33.79599999999998
 20
13.946
 30
0.0
 11
33.805
 21
13.968
 31
0.0
  0
LINE
  5
B0B
330
1E
100
AcDbEntity
  8
0
  6
CONTINUOUS
 62
     5
100
AcDbLine
 10
33.81099999999998
 20
14.03999999999999
 30
0.0
 11
33.805
 21
14.064
 31
0.0
  0
LINE
  5
B0C
330
1E
100
AcDbEntity
  8
0
  6
CONTINUOUS
 62
     5
100
AcDbLine
 10
33.805
 20
13.968
 30
0.0
 11
33.81099999999998
 21
13.992
 31
0.0
  0
LINE
  5
B0D
330
1E
100
AcDbEntity
  8
0
  6
CONTINUOUS
 62
     5
100
AcDbLine
 10
33.81199999999999
 20
14.016
 30
0.0
 11
33.81099999999998
 21
14.03999999999999
 31
0.0
  0
LINE
  5
B0E
330
1E
100
AcDbEntity
  8
0
  6
CONTINUOUS
 62
     5
100
AcDbLine
 10
33.81099999999998
 20
13.992
 30
0.0
 11
33.81199999999999
 21
14.016
 31
0.0
  0
LINE
  5
B0F
330
1E
100
AcDbEntity
  8
0
  6
CONTINUOUS
 62
     5
100
AcDbLine
 10
33.112
 20
14.35999999999999
 30
0.0
 11
33.44899999999999
 21
14.35999999999999
 31
0.0
  0
CIRCLE
  5
B10
330
1E
100
AcDbEntity
  8
0
  6
CONTINUOUS
 62
     5
100
AcDbCircle
 10
33.89099999999999
 20
14.85999999999999
 30
0.0
 40
0.075
  0
LINE
  5
B11
330
1E
100
AcDbEntity
  8
0
  6
CONTINUOUS
 62
     5
100
AcDbLine
 10
33.89099999999999
 20
14.74599999999998
 30
0.0
 11
33.89099999999999
 21
14.974
 31
0.0
  0
CIRCLE
  5
B12
330
1E
100
AcDbEntity
  8
0
  6
CONTINUOUS
 62
     5
100
AcDbCircle
 10
33.28099999999999
 20
18.32799999999998
 30
0.0
 40
0.435
  0
CIRCLE
  5
B13
330
1E
100
AcDbEntity
  8
0
  6
CONTINUOUS
 62
     5
100
AcDbCircle
 10
33.28099999999999
 20
18.32799999999998
 30
0.0
 40
0.259
  0
CIRCLE
  5
B14
330
1E
100
AcDbEntity
  8
0
  6
CONTINUOUS
 62
     5
100
AcDbCircle
 10
33.28099999999999
 20
18.32799999999998
 30
0.0
 40
0.23
  0
LINE
  5
B15
330
1E
100
AcDbEntity
  8
0
  6
CONTINUOUS
 62
     5
100
AcDbLine
 10
33.28099999999999
 20
17.80499999999999
 30
0.0
 11
33.28099999999999
 21
18.85099999999998
 31
0.0
  0
ARC
  5
B16
330
1E
100
AcDbEntity
  8
0
  6
CONTINUOUS
 62
     5
100
AcDbCircle
 10
33.28099999999999
 20
18.32799999999998
 30
0.0
 40
0.164
100
AcDbArc
 50
85.00000100000002
 51
4.999999999999999
  0
CIRCLE
  5
B17
330
1E
100
AcDbEntity
  8
0
  6
CONTINUOUS
 62
     5
100
AcDbCircle
 10
33.28099999999999
 20
18.32799999999998
 30
0.0
 40
0.14
  0
LINE
  5
B18
330
1E
100
AcDbEntity
  8
0
  6
CONTINUOUS
 62
     5
100
AcDbLine
 10
32.75799999999999
 20
18.32799999999998
 30
0.0
 11
33.803
 21
18.32799999999998
 31
0.0
  0
LWPOLYLINE
  5
B19
330
1E
100
AcDbEntity
  8
0
  6
CONTINUOUS
 62
     5
100
AcDbPolyline
 90
        4
 70
     0
 43
0.0
 10
33.93098999999999
 20
18.098437
 10
33.872552
 20
17.88593699999998
 10
33.86192699999999
 20
17.88593699999998
 10
33.80348999999999
 20
18.098437
  0
LINE
  5
B1A
330
1E
100
AcDbEntity
  8
0
  6
CONTINUOUS
 62
     5
100
AcDbLine
 10
33.90973999999999
 20
18.024062
 30
0.0
 11
33.82474
 21
18.024062
 31
0.0
  0
LWPOLYLINE
  5
B1B
330
1E
100
AcDbEntity
  8
0
  6
CONTINUOUS
 62
     5
100
AcDbPolyline
 90
       20
 70
     0
 43
0.0
 10
33.98942699999999
 20
17.9125
 10
33.99474
 20
17.901875
 10
34.00536499999999
 20
17.89125
 10
34.026615
 20
17.88593699999998
 10
34.05848999999999
 20
17.88593699999998
 10
34.07974
 20
17.896562
 10
34.09567699999999
 20
17.91781199999998
 10
34.10630199999998
 20
17.944375
 10
34.111615
 20
17.97625
 10
34.111615
 20
18.013437
 10
34.10630199999998
 20
18.04531199999998
 10
34.09567699999999
 20
18.066562
 10
34.07974
 20
18.087812
 10
34.05848999999999
 20
18.098437
 10
34.021302
 20
18.098437
 10
34.00536499999999
 20
18.093125
 10
33.99474
 20
18.0825
 10
33.98411499999999
 20
18.06125
 10
33.98411499999999
 20
18.00281199999998
 10
34.03723999999999
 20
18.00281199999998
  0
CIRCLE
  5
B3F
330
1E
100
AcDbEntity
  8
0
  6
CONTINUOUS
 62
     5
100
AcDbCircle
 10
20.53099999999999
 20
9.906
 30
0.0
 40
0.435
  0
LINE
  5
B40
330
1E
100
AcDbEntity
  8
0
  6
CONTINUOUS
 62
     5
100
AcDbLine
 10
20.53099999999999
 20
9.382999999999999
 30
0.0
 11
20.53099999999999
 21
10.429
 31
0.0
  0
TEXT
  5
B41
330
1E
100
AcDbEntity
  8
0
 62
     5
100
AcDbText
 10
21.08664025
 20
10.128125
 30
0.0
 40
0.2125
  1
GB
 41
0.825
 72
     4
 11
21.23273399999999
 21
10.234375
 31
0.0
100
AcDbText
  0
CIRCLE
  5
B42
330
1E
100
AcDbEntity
  8
0
  6
CONTINUOUS
 62
     5
100
AcDbCircle
 10
20.53099999999999
 20
3.75
 30
0.0
 40
0.604
  0
LINE
  5
B43
330
1E
100
AcDbEntity
  8
0
  6
CONTINUOUS
 62
     5
100
AcDbLine
 10
20.53099999999999
 20
3.024999999999999
 30
0.0
 11
20.53099999999999
 21
4.474999999999998
 31
0.0
  0
CIRCLE
  5
B44
330
1E
100
AcDbEntity
  8
0
  6
CONTINUOUS
 62
     5
100
AcDbCircle
 10
20.53099999999999
 20
3.75
 30
0.0
 40
0.412
  0
CIRCLE
  5
B45
330
1E
100
AcDbEntity
  8
0
  6
CONTINUOUS
 62
     5
100
AcDbCircle
 10
20.53099999999999
 20
3.75
 30
0.0
 40
0.373
  0
ARC
  5
B46
330
1E
100
AcDbEntity
  8
0
  6
CONTINUOUS
 62
     5
100
AcDbCircle
 10
20.53099999999999
 20
3.75
 30
0.0
 40
0.4020000000000001
100
AcDbArc
 50
85.00000100000002
 51
4.999999999999999
  0
CIRCLE
  5
B47
330
1E
100
AcDbEntity
  8
0
  6
CONTINUOUS
 62
     5
100
AcDbCircle
 10
20.53099999999999
 20
3.75
 30
0.0
 40
0.3439999999999999
  0
LINE
  5
B48
330
1E
100
AcDbEntity
  8
0
  6
CONTINUOUS
 62
     5
100
AcDbLine
 10
19.80599999999999
 20
3.75
 30
0.0
 11
21.25499999999999
 21
3.75
 31
0.0
  0
TEXT
  5
B49
330
1E
100
AcDbEntity
  8
0
 62
     5
100
AcDbText
 10
21.06186249999999
 20
3.047370999999998
 30
0.0
 40
0.2125
  1
A
 41
0.825
 72
     4
 11
21.1203
 21
3.153620999999998
 31
0.0
100
AcDbText
  0
LINE
  5
B4A
330
1E
100
AcDbEntity
  8
0
  6
CONTINUOUS
 62
     5
100
AcDbLine
 10
19.80599999999999
 20
5.25
 30
0.0
 11
21.25499999999999
 21
5.25
 31
0.0
  0
CIRCLE
  5
B4B
330
1E
100
AcDbEntity
  8
0
  6
CONTINUOUS
 62
     5
100
AcDbCircle
 10
20.53099999999999
 20
5.25
 30
0.0
 40
0.604
  0
CIRCLE
  5
B4C
330
1E
100
AcDbEntity
  8
0
  6
CONTINUOUS
 62
     5
100
AcDbCircle
 10
20.53099999999999
 20
5.25
 30
0.0
 40
0.412
  0
LINE
  5
B4D
330
1E
100
AcDbEntity
  8
0
  6
CONTINUOUS
 62
     5
100
AcDbLine
 10
20.53099999999999
 20
4.525
 30
0.0
 11
20.53099999999999
 21
5.974999999999998
 31
0.0
  0
CIRCLE
  5
B4E
330
1E
100
AcDbEntity
  8
0
  6
CONTINUOUS
 62
     5
100
AcDbCircle
 10
20.53099999999999
 20
5.25
 30
0.0
 40
0.373
  0
CIRCLE
  5
B4F
330
1E
100
AcDbEntity
  8
0
  6
CONTINUOUS
 62
     5
100
AcDbCircle
 10
20.53099999999999
 20
5.25
 30
0.0
 40
0.3439999999999999
  0
ARC
  5
B50
330
1E
100
AcDbEntity
  8
0
  6
CONTINUOUS
 62
     5
100
AcDbCircle
 10
20.53099999999999
 20
5.25
 30
0.0
 40
0.4020000000000001
100
AcDbArc
 50
85.00000100000002
 51
4.999999999999999
  0
TEXT
  5
B51
330
1E
100
AcDbEntity
  8
0
 62
     5
100
AcDbText
 10
21.06186249999999
 20
4.576980999999999
 30
0.0
 40
0.2125
  1
B
 41
0.825
 72
     4
 11
21.1203
 21
4.683231
 31
0.0
100
AcDbText
  0
LINE
  5
B52
330
1E
100
AcDbEntity
  8
0
  6
CONTINUOUS
 62
     5
100
AcDbLine
 10
20.00799999999999
 20
9.906
 30
0.0
 11
21.053
 21
9.906
 31
0.0
  0
CIRCLE
  5
B53
330
1E
100
AcDbEntity
  8
0
  6
CONTINUOUS
 62
     5
100
AcDbCircle
 10
20.53099999999999
 20
9.906
 30
0.0
 40
0.23
  0
CIRCLE
  5
B54
330
1E
100
AcDbEntity
  8
0
  6
CONTINUOUS
 62
     5
100
AcDbCircle
 10
20.53099999999999
 20
9.906
 30
0.0
 40
0.259
  0
CIRCLE
  5
B55
330
1E
100
AcDbEntity
  8
0
  6
CONTINUOUS
 62
     5
100
AcDbCircle
 10
20.53099999999999
 20
9.906
 30
0.0
 40
0.14
  0
ARC
  5
B56
330
1E
100
AcDbEntity
  8
0
  6
CONTINUOUS
 62
     5
100
AcDbCircle
 10
20.53099999999999
 20
9.906
 30
0.0
 40
0.164
100
AcDbArc
 50
85.00000100000002
 51
4.999999999999999
  0
LINE
  5
B57
330
1E
100
AcDbEntity
  8
0
  6
CONTINUOUS
 62
     5
100
AcDbLine
 10
20.53099999999999
 20
13.503
 30
0.0
 11
20.53099999999999
 21
13.841
 31
0.0
  0
CIRCLE
  5
B58
330
1E
100
AcDbEntity
  8
0
  6
CONTINUOUS
 62
     5
100
AcDbCircle
 10
20.53099999999999
 20
13.672
 30
0.0
 40
0.14
  0
LINE
  5
B59
330
1E
100
AcDbEntity
  8
0
  6
CONTINUOUS
 62
     5
100
AcDbLine
 10
19.89
 20
13.467
 30
0.0
 11
19.89
 21
13.65499999999999
 31
0.0
  0
CIRCLE
  5
B5A
330
1E
100
AcDbEntity
  8
0
  6
CONTINUOUS
 62
     5
100
AcDbCircle
 10
19.89
 20
13.561
 30
0.0
 40
0.078
  0
CIRCLE
  5
B5B
330
1E
100
AcDbEntity
  8
0
  6
CONTINUOUS
 62
     5
100
AcDbCircle
 10
21.17099999999998
 20
13.266
 30
0.0
 40
0.095
  0
CIRCLE
  5
B5C
330
1E
100
AcDbEntity
  8
0
  6
CONTINUOUS
 62
     5
100
AcDbCircle
 10
21.17099999999998
 20
13.266
 30
0.0
 40
0.075
  0
ARC
  5
B5D
330
1E
100
AcDbEntity
  8
0
  6
CONTINUOUS
 62
     5
100
AcDbCircle
 10
21.17099999999998
 20
13.266
 30
0.0
 40
0.087
100
AcDbArc
 50
85.00000099999999
 51
5.0
  0
LINE
  5
B5E
330
1E
100
AcDbEntity
  8
0
  6
CONTINUOUS
 62
     5
100
AcDbLine
 10
21.05699999999999
 20
13.266
 30
0.0
 11
21.285
 21
13.266
 31
0.0
  0
CIRCLE
  5
B5F
330
1E
100
AcDbEntity
  8
0
  6
CONTINUOUS
 62
     5
100
AcDbCircle
 10
19.89099999999999
 20
13.266
 30
0.0
 40
0.095
  0
CIRCLE
  5
B60
330
1E
100
AcDbEntity
  8
0
  6
CONTINUOUS
 62
     5
100
AcDbCircle
 10
19.89099999999999
 20
13.266
 30
0.0
 40
0.075
  0
ARC
  5
B61
330
1E
100
AcDbEntity
  8
0
  6
CONTINUOUS
 62
     5
100
AcDbCircle
 10
19.89099999999999
 20
13.266
 30
0.0
 40
0.087
100
AcDbArc
 50
85.00000099999999
 51
5.0
  0
LINE
  5
B62
330
1E
100
AcDbEntity
  8
0
  6
CONTINUOUS
 62
     5
100
AcDbLine
 10
19.77699999999999
 20
13.266
 30
0.0
 11
20.005
 21
13.266
 31
0.0
  0
LINE
  5
B63
330
1E
100
AcDbEntity
  8
0
  6
CONTINUOUS
 62
     5
100
AcDbLine
 10
19.89099999999999
 20
13.15199999999999
 30
0.0
 11
19.89099999999999
 21
13.38
 31
0.0
  0
LINE
  5
B64
330
1E
100
AcDbEntity
  8
0
  6
CONTINUOUS
 62
     5
100
AcDbLine
 10
21.17099999999998
 20
13.15199999999999
 30
0.0
 11
21.17099999999998
 21
13.38
 31
0.0
  0
CIRCLE
  5
B65
330
1E
100
AcDbEntity
  8
0
  6
CONTINUOUS
 62
     5
100
AcDbCircle
 10
21.14099999999999
 20
14.85999999999999
 30
0.0
 40
0.095
  0
ARC
  5
B66
330
1E
100
AcDbEntity
  8
0
  6
CONTINUOUS
 62
     5
100
AcDbCircle
 10
21.14099999999999
 20
14.85999999999999
 30
0.0
 40
0.087
100
AcDbArc
 50
85.00000099999999
 51
5.0
  0
LINE
  5
B67
330
1E
100
AcDbEntity
  8
0
  6
CONTINUOUS
 62
     5
100
AcDbLine
 10
21.027
 20
14.85999999999999
 30
0.0
 11
21.25499999999999
 21
14.85999999999999
 31
0.0
  0
LINE
  5
B68
330
1E
100
AcDbEntity
  8
0
  6
CONTINUOUS
 62
     5
100
AcDbLine
 10
19.95599999999998
 20
14.016
 30
0.0
 11
20.293
 21
14.016
 31
0.0
  0
CIRCLE
  5
B69
330
1E
100
AcDbEntity
  8
0
  6
CONTINUOUS
 62
     5
100
AcDbCircle
 10
20.125
 20
14.016
 30
0.0
 40
0.14
  0
LINE
  5
B6A
330
1E
100
AcDbEntity
  8
0
  6
CONTINUOUS
 62
     5
100
AcDbLine
 10
20.125
 20
13.847
 30
0.0
 11
20.125
 21
14.185
 31
0.0
  0
LINE
  5
B6B
330
1E
100
AcDbEntity
  8
0
  6
CONTINUOUS
 62
     5
100
AcDbLine
 10
19.797
 20
13.561
 30
0.0
 11
19.984
 21
13.561
 31
0.0
  0
CIRCLE
  5
B6C
330
1E
100
AcDbEntity
  8
0
  6
CONTINUOUS
 62
     5
100
AcDbCircle
 10
19.92099999999999
 20
14.85999999999999
 30
0.0
 40
0.095
  0
CIRCLE
  5
B6D
330
1E
100
AcDbEntity
  8
0
  6
CONTINUOUS
 62
     5
100
AcDbCircle
 10
19.92099999999999
 20
14.85999999999999
 30
0.0
 40
0.075
  0
ARC
  5
B6E
330
1E
100
AcDbEntity
  8
0
  6
CONTINUOUS
 62
     5
100
AcDbCircle
 10
19.92099999999999
 20
14.85999999999999
 30
0.0
 40
0.087
100
AcDbArc
 50
85.00000099999999
 51
5.0
  0
LINE
  5
B6F
330
1E
100
AcDbEntity
  8
0
  6
CONTINUOUS
 62
     5
100
AcDbLine
 10
19.807
 20
14.85999999999999
 30
0.0
 11
20.035
 21
14.85999999999999
 31
0.0
  0
LINE
  5
B70
330
1E
100
AcDbEntity
  8
0
  6
CONTINUOUS
 62
     5
100
AcDbLine
 10
19.92099999999999
 20
14.74599999999998
 30
0.0
 11
19.92099999999999
 21
14.974
 31
0.0
  0
CIRCLE
  5
B71
330
1E
100
AcDbEntity
  8
0
  6
CONTINUOUS
 62
     5
100
AcDbCircle
 10
20.53099999999999
 20
14.35999999999999
 30
0.0
 40
0.14
  0
LINE
  5
B72
330
1E
100
AcDbEntity
  8
0
  6
CONTINUOUS
 62
     5
100
AcDbLine
 10
20.53099999999999
 20
14.191
 30
0.0
 11
20.53099999999999
 21
14.529
 31
0.0
  0
LINE
  5
B73
330
1E
100
AcDbEntity
  8
0
  6
CONTINUOUS
 62
     5
100
AcDbLine
 10
20.362
 20
13.672
 30
0.0
 11
20.699
 21
13.672
 31
0.0
  0
LINE
  5
B74
330
1E
100
AcDbEntity
  8
0
  6
CONTINUOUS
 62
     5
100
AcDbLine
 10
20.937
 20
13.866
 30
0.0
 11
20.937
 21
14.16599999999998
 31
0.0
  0
LINE
  5
B75
330
1E
100
AcDbEntity
  8
0
  6
CONTINUOUS
 62
     5
100
AcDbLine
 10
21.033
 20
13.92599999999999
 30
0.0
 11
21.04599999999998
 21
13.946
 31
0.0
  0
LINE
  5
B76
330
1E
100
AcDbEntity
  8
0
  6
CONTINUOUS
 62
     5
100
AcDbLine
 10
20.82899999999999
 20
13.946
 30
0.0
 11
20.842
 21
13.92599999999999
 31
0.0
  0
LINE
  5
B77
330
1E
100
AcDbEntity
  8
0
  6
CONTINUOUS
 62
     5
100
AcDbLine
 10
20.95899999999999
 20
13.878
 30
0.0
 11
20.98
 21
13.884
 31
0.0
  0
LINE
  5
B78
330
1E
100
AcDbEntity
  8
0
  6
CONTINUOUS
 62
     5
100
AcDbLine
 10
20.937
 20
13.87599999999999
 30
0.0
 11
20.95899999999999
 21
13.878
 31
0.0
  0
LINE
  5
B79
330
1E
100
AcDbEntity
  8
0
  6
CONTINUOUS
 62
     5
100
AcDbLine
 10
20.916
 20
13.878
 30
0.0
 11
20.937
 21
13.87599999999999
 31
0.0
  0
LINE
  5
B7A
330
1E
100
AcDbEntity
  8
0
  6
CONTINUOUS
 62
     5
100
AcDbLine
 10
20.895
 20
13.884
 30
0.0
 11
20.916
 21
13.878
 31
0.0
  0
LINE
  5
B7B
330
1E
100
AcDbEntity
  8
0
  6
CONTINUOUS
 62
     5
100
AcDbLine
 10
20.87499999999999
 20
13.89499999999999
 30
0.0
 11
20.895
 21
13.884
 31
0.0
  0
LINE
  5
B7C
330
1E
100
AcDbEntity
  8
0
  6
CONTINUOUS
 62
     5
100
AcDbLine
 10
20.857
 20
13.909
 30
0.0
 11
20.87499999999999
 21
13.89499999999999
 31
0.0
  0
LINE
  5
B7D
330
1E
100
AcDbEntity
  8
0
  6
CONTINUOUS
 62
     5
100
AcDbLine
 10
20.842
 20
13.92599999999999
 30
0.0
 11
20.857
 21
13.909
 31
0.0
  0
LINE
  5
B7E
330
1E
100
AcDbEntity
  8
0
  6
CONTINUOUS
 62
     5
100
AcDbLine
 10
20.98
 20
13.884
 30
0.0
 11
21.0
 21
13.89499999999999
 31
0.0
  0
LINE
  5
B7F
330
1E
100
AcDbEntity
  8
0
  6
CONTINUOUS
 62
     5
100
AcDbLine
 10
21.018
 20
13.909
 30
0.0
 11
21.033
 21
13.92599999999999
 31
0.0
  0
LINE
  5
B80
330
1E
100
AcDbEntity
  8
0
  6
CONTINUOUS
 62
     5
100
AcDbLine
 10
21.0
 20
13.89499999999999
 30
0.0
 11
21.018
 21
13.909
 31
0.0
  0
LINE
  5
B81
330
1E
100
AcDbEntity
  8
0
  6
CONTINUOUS
 62
     5
100
AcDbLine
 10
20.98
 20
14.148
 30
0.0
 11
20.95899999999999
 21
14.15399999999999
 31
0.0
  0
LINE
  5
B82
330
1E
100
AcDbEntity
  8
0
  6
CONTINUOUS
 62
     5
100
AcDbLine
 10
20.788
 20
14.016
 30
0.0
 11
21.088
 21
14.016
 31
0.0
  0
LINE
  5
B83
330
1E
100
AcDbEntity
  8
0
  6
CONTINUOUS
 62
     5
100
AcDbLine
 10
20.916
 20
14.15399999999999
 30
0.0
 11
20.895
 21
14.148
 31
0.0
  0
LINE
  5
B84
330
1E
100
AcDbEntity
  8
0
  6
CONTINUOUS
 62
     5
100
AcDbLine
 10
20.937
 20
14.15599999999999
 30
0.0
 11
20.916
 21
14.15399999999999
 31
0.0
  0
LINE
  5
B85
330
1E
100
AcDbEntity
  8
0
  6
CONTINUOUS
 62
     5
100
AcDbLine
 10
20.95899999999999
 20
14.15399999999999
 30
0.0
 11
20.937
 21
14.15599999999999
 31
0.0
  0
LINE
  5
B86
330
1E
100
AcDbEntity
  8
0
  6
CONTINUOUS
 62
     5
100
AcDbLine
 10
20.82
 20
13.968
 30
0.0
 11
20.82899999999999
 21
13.946
 31
0.0
  0
LINE
  5
B87
330
1E
100
AcDbEntity
  8
0
  6
CONTINUOUS
 62
     5
100
AcDbLine
 10
20.81399999999999
 20
13.992
 30
0.0
 11
20.82
 21
13.968
 31
0.0
  0
LINE
  5
B88
330
1E
100
AcDbEntity
  8
0
  6
CONTINUOUS
 62
     5
100
AcDbLine
 10
20.812
 20
14.016
 30
0.0
 11
20.81399999999999
 21
13.992
 31
0.0
  0
LINE
  5
B89
330
1E
100
AcDbEntity
  8
0
  6
CONTINUOUS
 62
     5
100
AcDbLine
 10
20.81399999999999
 20
14.03999999999999
 30
0.0
 11
20.812
 21
14.016
 31
0.0
  0
LINE
  5
B8A
330
1E
100
AcDbEntity
  8
0
  6
CONTINUOUS
 62
     5
100
AcDbLine
 10
20.82
 20
14.064
 30
0.0
 11
20.81399999999999
 21
14.03999999999999
 31
0.0
  0
LINE
  5
B8B
330
1E
100
AcDbEntity
  8
0
  6
CONTINUOUS
 62
     5
100
AcDbLine
 10
20.82899999999999
 20
14.08599999999998
 30
0.0
 11
20.82
 21
14.064
 31
0.0
  0
LINE
  5
B8C
330
1E
100
AcDbEntity
  8
0
  6
CONTINUOUS
 62
     5
100
AcDbLine
 10
20.842
 20
14.106
 30
0.0
 11
20.82899999999999
 21
14.08599999999998
 31
0.0
  0
LINE
  5
B8D
330
1E
100
AcDbEntity
  8
0
  6
CONTINUOUS
 62
     5
100
AcDbLine
 10
20.857
 20
14.123
 30
0.0
 11
20.842
 21
14.106
 31
0.0
  0
LINE
  5
B8E
330
1E
100
AcDbEntity
  8
0
  6
CONTINUOUS
 62
     5
100
AcDbLine
 10
20.87499999999999
 20
14.137
 30
0.0
 11
20.857
 21
14.123
 31
0.0
  0
LINE
  5
B8F
330
1E
100
AcDbEntity
  8
0
  6
CONTINUOUS
 62
     5
100
AcDbLine
 10
20.895
 20
14.148
 30
0.0
 11
20.87499999999999
 21
14.137
 31
0.0
  0
LINE
  5
B90
330
1E
100
AcDbEntity
  8
0
  6
CONTINUOUS
 62
     5
100
AcDbLine
 10
21.0
 20
14.137
 30
0.0
 11
20.98
 21
14.148
 31
0.0
  0
LINE
  5
B91
330
1E
100
AcDbEntity
  8
0
  6
CONTINUOUS
 62
     5
100
AcDbLine
 10
21.018
 20
14.123
 30
0.0
 11
21.0
 21
14.137
 31
0.0
  0
LINE
  5
B92
330
1E
100
AcDbEntity
  8
0
  6
CONTINUOUS
 62
     5
100
AcDbLine
 10
21.033
 20
14.106
 30
0.0
 11
21.018
 21
14.123
 31
0.0
  0
LINE
  5
B93
330
1E
100
AcDbEntity
  8
0
  6
CONTINUOUS
 62
     5
100
AcDbLine
 10
21.04599999999998
 20
14.08599999999998
 30
0.0
 11
21.033
 21
14.106
 31
0.0
  0
LINE
  5
B94
330
1E
100
AcDbEntity
  8
0
  6
CONTINUOUS
 62
     5
100
AcDbLine
 10
21.055
 20
14.064
 30
0.0
 11
21.04599999999998
 21
14.08599999999998
 31
0.0
  0
LINE
  5
B95
330
1E
100
AcDbEntity
  8
0
  6
CONTINUOUS
 62
     5
100
AcDbLine
 10
21.04599999999998
 20
13.946
 30
0.0
 11
21.055
 21
13.968
 31
0.0
  0
LINE
  5
B96
330
1E
100
AcDbEntity
  8
0
  6
CONTINUOUS
 62
     5
100
AcDbLine
 10
21.06099999999998
 20
14.03999999999999
 30
0.0
 11
21.055
 21
14.064
 31
0.0
  0
LINE
  5
B97
330
1E
100
AcDbEntity
  8
0
  6
CONTINUOUS
 62
     5
100
AcDbLine
 10
21.055
 20
13.968
 30
0.0
 11
21.06099999999998
 21
13.992
 31
0.0
  0
LINE
  5
B98
330
1E
100
AcDbEntity
  8
0
  6
CONTINUOUS
 62
     5
100
AcDbLine
 10
21.062
 20
14.016
 30
0.0
 11
21.06099999999998
 21
14.03999999999999
 31
0.0
  0
LINE
  5
B99
330
1E
100
AcDbEntity
  8
0
  6
CONTINUOUS
 62
     5
100
AcDbLine
 10
21.06099999999998
 20
13.992
 30
0.0
 11
21.062
 21
14.016
 31
0.0
  0
LINE
  5
B9A
330
1E
100
AcDbEntity
  8
0
  6
CONTINUOUS
 62
     5
100
AcDbLine
 10
20.362
 20
14.35999999999999
 30
0.0
 11
20.699
 21
14.35999999999999
 31
0.0
  0
CIRCLE
  5
B9B
330
1E
100
AcDbEntity
  8
0
  6
CONTINUOUS
 62
     5
100
AcDbCircle
 10
21.14099999999999
 20
14.85999999999999
 30
0.0
 40
0.075
  0
LINE
  5
B9C
330
1E
100
AcDbEntity
  8
0
  6
CONTINUOUS
 62
     5
100
AcDbLine
 10
21.14099999999999
 20
14.74599999999998
 30
0.0
 11
21.14099999999999
 21
14.974
 31
0.0
  0
CIRCLE
  5
B9D
330
1E
100
AcDbEntity
  8
0
  6
CONTINUOUS
 62
     5
100
AcDbCircle
 10
20.53099999999999
 20
18.32799999999998
 30
0.0
 40
0.435
  0
CIRCLE
  5
B9E
330
1E
100
AcDbEntity
  8
0
  6
CONTINUOUS
 62
     5
100
AcDbCircle
 10
20.53099999999999
 20
18.32799999999998
 30
0.0
 40
0.259
  0
CIRCLE
  5
B9F
330
1E
100
AcDbEntity
  8
0
  6
CONTINUOUS
 62
     5
100
AcDbCircle
 10
20.53099999999999
 20
18.32799999999998
 30
0.0
 40
0.23
  0
LINE
  5
BA0
330
1E
100
AcDbEntity
  8
0
  6
CONTINUOUS
 62
     5
100
AcDbLine
 10
20.53099999999999
 20
17.80499999999999
 30
0.0
 11
20.53099999999999
 21
18.85099999999998
 31
0.0
  0
ARC
  5
BA1
330
1E
100
AcDbEntity
  8
0
  6
CONTINUOUS
 62
     5
100
AcDbCircle
 10
20.53099999999999
 20
18.32799999999998
 30
0.0
 40
0.164
100
AcDbArc
 50
85.00000100000002
 51
4.999999999999999
  0
CIRCLE
  5
BA2
330
1E
100
AcDbEntity
  8
0
  6
CONTINUOUS
 62
     5
100
AcDbCircle
 10
20.53099999999999
 20
18.32799999999998
 30
0.0
 40
0.14
  0
LINE
  5
BA3
330
1E
100
AcDbEntity
  8
0
  6
CONTINUOUS
 62
     5
100
AcDbLine
 10
20.00799999999999
 20
18.32799999999998
 30
0.0
 11
21.053
 21
18.32799999999998
 31
0.0
  0
LWPOLYLINE
  5
BA4
330
1E
100
AcDbEntity
  8
0
  6
CONTINUOUS
 62
     5
100
AcDbPolyline
 90
        4
 70
     0
 43
0.0
 10
21.18098999999999
 20
18.098437
 10
21.12255199999999
 20
17.88593699999998
 10
21.11192699999999
 20
17.88593699999998
 10
21.05348999999999
 20
18.098437
  0
LINE
  5
BA5
330
1E
100
AcDbEntity
  8
0
  6
CONTINUOUS
 62
     5
100
AcDbLine
 10
21.15973999999999
 20
18.024062
 30
0.0
 11
21.07473999999999
 21
18.024062
 31
0.0
  0
LWPOLYLINE
  5
BA6
330
1E
100
AcDbEntity
  8
0
  6
CONTINUOUS
 62
     5
100
AcDbPolyline
 90
       20
 70
     0
 43
0.0
 10
21.23942699999999
 20
17.9125
 10
21.24474
 20
17.901875
 10
21.255365
 20
17.89125
 10
21.27661499999999
 20
17.88593699999998
 10
21.30848999999999
 20
17.88593699999998
 10
21.32974
 20
17.896562
 10
21.34567699999999
 20
17.91781199999998
 10
21.35630199999999
 20
17.944375
 10
21.361615
 20
17.97625
 10
21.361615
 20
18.013437
 10
21.35630199999999
 20
18.04531199999998
 10
21.34567699999999
 20
18.066562
 10
21.32974
 20
18.087812
 10
21.30848999999999
 20
18.098437
 10
21.27130199999999
 20
18.098437
 10
21.255365
 20
18.093125
 10
21.24474
 20
18.0825
 10
21.23411499999999
 20
18.06125
 10
21.23411499999999
 20
18.00281199999998
 10
21.28724
 20
18.00281199999998
  0
TEXT
  5
BCA
330
1E
100
AcDbEntity
  8
0
 62
     5
100
AcDbText
 10
23.21164025
 20
10.128125
 30
0.0
 40
0.2125
  1
GB
 41
0.825
 72
     4
 11
23.357734
 21
10.234375
 31
0.0
100
AcDbText
  0
LINE
  5
BCB
330
1E
100
AcDbEntity
  8
0
  6
CONTINUOUS
 62
     5
100
AcDbLine
 10
22.65599999999999
 20
9.382999999999999
 30
0.0
 11
22.65599999999999
 21
10.429
 31
0.0
  0
CIRCLE
  5
BCC
330
1E
100
AcDbEntity
  8
0
  6
CONTINUOUS
 62
     5
100
AcDbCircle
 10
22.65599999999999
 20
9.906
 30
0.0
 40
0.435
  0
TEXT
  5
BCD
330
1E
100
AcDbEntity
  8
0
 62
     5
100
AcDbText
 10
23.1868625
 20
4.576980999999999
 30
0.0
 40
0.2125
  1
B
 41
0.825
 72
     4
 11
23.2453
 21
4.683231
 31
0.0
100
AcDbText
  0
CIRCLE
  5
BCE
330
1E
100
AcDbEntity
  8
0
  6
CONTINUOUS
 62
     5
100
AcDbCircle
 10
22.65599999999999
 20
5.25
 30
0.0
 40
0.604
  0
LINE
  5
BCF
330
1E
100
AcDbEntity
  8
0
  6
CONTINUOUS
 62
     5
100
AcDbLine
 10
21.93099999999999
 20
5.25
 30
0.0
 11
23.37999999999999
 21
5.25
 31
0.0
  0
TEXT
  5
BD0
330
1E
100
AcDbEntity
  8
0
 62
     5
100
AcDbText
 10
23.1868625
 20
3.047370999999998
 30
0.0
 40
0.2125
  1
A
 41
0.825
 72
     4
 11
23.2453
 21
3.153620999999998
 31
0.0
100
AcDbText
  0
LINE
  5
BD1
330
1E
100
AcDbEntity
  8
0
  6
CONTINUOUS
 62
     5
100
AcDbLine
 10
21.93099999999999
 20
3.75
 30
0.0
 11
23.37999999999999
 21
3.75
 31
0.0
  0
CIRCLE
  5
BD2
330
1E
100
AcDbEntity
  8
0
  6
CONTINUOUS
 62
     5
100
AcDbCircle
 10
22.65599999999999
 20
3.75
 30
0.0
 40
0.604
  0
CIRCLE
  5
BD3
330
1E
100
AcDbEntity
  8
0
  6
CONTINUOUS
 62
     5
100
AcDbCircle
 10
22.65599999999999
 20
3.75
 30
0.0
 40
0.3439999999999999
  0
ARC
  5
BD4
330
1E
100
AcDbEntity
  8
0
  6
CONTINUOUS
 62
     5
100
AcDbCircle
 10
22.65599999999999
 20
3.75
 30
0.0
 40
0.4020000000000001
100
AcDbArc
 50
85.00000100000002
 51
4.999999999999999
  0
CIRCLE
  5
BD5
330
1E
100
AcDbEntity
  8
0
  6
CONTINUOUS
 62
     5
100
AcDbCircle
 10
22.65599999999999
 20
3.75
 30
0.0
 40
0.373
  0
CIRCLE
  5
BD6
330
1E
100
AcDbEntity
  8
0
  6
CONTINUOUS
 62
     5
100
AcDbCircle
 10
22.65599999999999
 20
3.75
 30
0.0
 40
0.412
  0
LINE
  5
BD7
330
1E
100
AcDbEntity
  8
0
  6
CONTINUOUS
 62
     5
100
AcDbLine
 10
22.65599999999999
 20
3.024999999999999
 30
0.0
 11
22.65599999999999
 21
4.474999999999998
 31
0.0
  0
ARC
  5
BD8
330
1E
100
AcDbEntity
  8
0
  6
CONTINUOUS
 62
     5
100
AcDbCircle
 10
22.65599999999999
 20
5.25
 30
0.0
 40
0.4020000000000001
100
AcDbArc
 50
85.00000100000002
 51
4.999999999999999
  0
CIRCLE
  5
BD9
330
1E
100
AcDbEntity
  8
0
  6
CONTINUOUS
 62
     5
100
AcDbCircle
 10
22.65599999999999
 20
5.25
 30
0.0
 40
0.3439999999999999
  0
CIRCLE
  5
BDA
330
1E
100
AcDbEntity
  8
0
  6
CONTINUOUS
 62
     5
100
AcDbCircle
 10
22.65599999999999
 20
5.25
 30
0.0
 40
0.373
  0
LINE
  5
BDB
330
1E
100
AcDbEntity
  8
0
  6
CONTINUOUS
 62
     5
100
AcDbLine
 10
22.65599999999999
 20
4.525
 30
0.0
 11
22.65599999999999
 21
5.974999999999998
 31
0.0
  0
CIRCLE
  5
BDC
330
1E
100
AcDbEntity
  8
0
  6
CONTINUOUS
 62
     5
100
AcDbCircle
 10
22.65599999999999
 20
5.25
 30
0.0
 40
0.412
  0
LINE
  5
BDD
330
1E
100
AcDbEntity
  8
0
  6
CONTINUOUS
 62
     5
100
AcDbLine
 10
22.13299999999999
 20
9.906
 30
0.0
 11
23.178
 21
9.906
 31
0.0
  0
ARC
  5
BDE
330
1E
100
AcDbEntity
  8
0
  6
CONTINUOUS
 62
     5
100
AcDbCircle
 10
22.65599999999999
 20
9.906
 30
0.0
 40
0.164
100
AcDbArc
 50
85.00000100000002
 51
4.999999999999999
  0
CIRCLE
  5
BDF
330
1E
100
AcDbEntity
  8
0
  6
CONTINUOUS
 62
     5
100
AcDbCircle
 10
22.65599999999999
 20
9.906
 30
0.0
 40
0.14
  0
CIRCLE
  5
BE0
330
1E
100
AcDbEntity
  8
0
  6
CONTINUOUS
 62
     5
100
AcDbCircle
 10
22.65599999999999
 20
9.906
 30
0.0
 40
0.259
  0
CIRCLE
  5
BE1
330
1E
100
AcDbEntity
  8
0
  6
CONTINUOUS
 62
     5
100
AcDbCircle
 10
22.65599999999999
 20
9.906
 30
0.0
 40
0.23
  0
LINE
  5
BE2
330
1E
100
AcDbEntity
  8
0
  6
CONTINUOUS
 62
     5
100
AcDbLine
 10
23.18199999999999
 20
13.266
 30
0.0
 11
23.41
 21
13.266
 31
0.0
  0
ARC
  5
BE3
330
1E
100
AcDbEntity
  8
0
  6
CONTINUOUS
 62
     5
100
AcDbCircle
 10
23.29599999999998
 20
13.266
 30
0.0
 40
0.087
100
AcDbArc
 50
85.00000099999999
 51
5.0
  0
CIRCLE
  5
BE4
330
1E
100
AcDbEntity
  8
0
  6
CONTINUOUS
 62
     5
100
AcDbCircle
 10
23.29599999999998
 20
13.266
 30
0.0
 40
0.075
  0
CIRCLE
  5
BE5
330
1E
100
AcDbEntity
  8
0
  6
CONTINUOUS
 62
     5
100
AcDbCircle
 10
23.29599999999998
 20
13.266
 30
0.0
 40
0.095
  0
LINE
  5
BE6
330
1E
100
AcDbEntity
  8
0
  6
CONTINUOUS
 62
     5
100
AcDbLine
 10
23.28473999999999
 20
18.024062
 30
0.0
 11
23.19973999999999
 21
18.024062
 31
0.0
  0
LWPOLYLINE
  5
BE7
330
1E
100
AcDbEntity
  8
0
  6
CONTINUOUS
 62
     5
100
AcDbPolyline
 90
        4
 70
     0
 43
0.0
 10
23.30598999999998
 20
18.098437
 10
23.24755199999999
 20
17.88593699999998
 10
23.23692699999999
 20
17.88593699999998
 10
23.17849
 20
18.098437
  0
CIRCLE
  5
BE8
330
1E
100
AcDbEntity
  8
0
  6
CONTINUOUS
 62
     5
100
AcDbCircle
 10
23.26599999999999
 20
14.85999999999999
 30
0.0
 40
0.075
  0
LINE
  5
BE9
330
1E
100
AcDbEntity
  8
0
  6
CONTINUOUS
 62
     5
100
AcDbLine
 10
23.152
 20
14.85999999999999
 30
0.0
 11
23.37999999999999
 21
14.85999999999999
 31
0.0
  0
ARC
  5
BEA
330
1E
100
AcDbEntity
  8
0
  6
CONTINUOUS
 62
     5
100
AcDbCircle
 10
23.26599999999999
 20
14.85999999999999
 30
0.0
 40
0.087
100
AcDbArc
 50
85.00000099999999
 51
5.0
  0
CIRCLE
  5
BEB
330
1E
100
AcDbEntity
  8
0
  6
CONTINUOUS
 62
     5
100
AcDbCircle
 10
23.26599999999999
 20
14.85999999999999
 30
0.0
 40
0.095
  0
CIRCLE
  5
BEC
330
1E
100
AcDbEntity
  8
0
  6
CONTINUOUS
 62
     5
100
AcDbCircle
 10
22.015
 20
13.561
 30
0.0
 40
0.078
  0
LINE
  5
BED
330
1E
100
AcDbEntity
  8
0
  6
CONTINUOUS
 62
     5
100
AcDbLine
 10
22.015
 20
13.467
 30
0.0
 11
22.015
 21
13.65499999999999
 31
0.0
  0
CIRCLE
  5
BEE
330
1E
100
AcDbEntity
  8
0
  6
CONTINUOUS
 62
     5
100
AcDbCircle
 10
22.65599999999999
 20
13.672
 30
0.0
 40
0.14
  0
LINE
  5
BEF
330
1E
100
AcDbEntity
  8
0
  6
CONTINUOUS
 62
     5
100
AcDbLine
 10
22.65599999999999
 20
13.503
 30
0.0
 11
22.65599999999999
 21
13.841
 31
0.0
  0
CIRCLE
  5
BF0
330
1E
100
AcDbEntity
  8
0
  6
CONTINUOUS
 62
     5
100
AcDbCircle
 10
22.01599999999999
 20
13.266
 30
0.0
 40
0.095
  0
LINE
  5
BF1
330
1E
100
AcDbEntity
  8
0
  6
CONTINUOUS
 62
     5
100
AcDbLine
 10
21.90199999999999
 20
13.266
 30
0.0
 11
22.13
 21
13.266
 31
0.0
  0
ARC
  5
BF2
330
1E
100
AcDbEntity
  8
0
  6
CONTINUOUS
 62
     5
100
AcDbCircle
 10
22.01599999999999
 20
13.266
 30
0.0
 40
0.087
100
AcDbArc
 50
85.00000099999999
 51
5.0
  0
CIRCLE
  5
BF3
330
1E
100
AcDbEntity
  8
0
  6
CONTINUOUS
 62
     5
100
AcDbCircle
 10
22.01599999999999
 20
13.266
 30
0.0
 40
0.075
  0
LINE
  5
BF4
330
1E
100
AcDbEntity
  8
0
  6
CONTINUOUS
 62
     5
100
AcDbLine
 10
22.01599999999999
 20
13.15199999999999
 30
0.0
 11
22.01599999999999
 21
13.38
 31
0.0
  0
CIRCLE
  5
BF5
330
1E
100
AcDbEntity
  8
0
  6
CONTINUOUS
 62
     5
100
AcDbCircle
 10
22.25
 20
14.016
 30
0.0
 40
0.14
  0
LINE
  5
BF6
330
1E
100
AcDbEntity
  8
0
  6
CONTINUOUS
 62
     5
100
AcDbLine
 10
22.08099999999999
 20
14.016
 30
0.0
 11
22.418
 21
14.016
 31
0.0
  0
LINE
  5
BF7
330
1E
100
AcDbEntity
  8
0
  6
CONTINUOUS
 62
     5
100
AcDbLine
 10
21.922
 20
13.561
 30
0.0
 11
22.109
 21
13.561
 31
0.0
  0
LINE
  5
BF8
330
1E
100
AcDbEntity
  8
0
  6
CONTINUOUS
 62
     5
100
AcDbLine
 10
21.932
 20
14.85999999999999
 30
0.0
 11
22.16
 21
14.85999999999999
 31
0.0
  0
ARC
  5
BF9
330
1E
100
AcDbEntity
  8
0
  6
CONTINUOUS
 62
     5
100
AcDbCircle
 10
22.04599999999999
 20
14.85999999999999
 30
0.0
 40
0.087
100
AcDbArc
 50
85.00000099999999
 51
5.0
  0
CIRCLE
  5
BFA
330
1E
100
AcDbEntity
  8
0
  6
CONTINUOUS
 62
     5
100
AcDbCircle
 10
22.04599999999999
 20
14.85999999999999
 30
0.0
 40
0.075
  0
CIRCLE
  5
BFB
330
1E
100
AcDbEntity
  8
0
  6
CONTINUOUS
 62
     5
100
AcDbCircle
 10
22.04599999999999
 20
14.85999999999999
 30
0.0
 40
0.095
  0
LINE
  5
BFC
330
1E
100
AcDbEntity
  8
0
  6
CONTINUOUS
 62
     5
100
AcDbLine
 10
22.04599999999999
 20
14.74599999999998
 30
0.0
 11
22.04599999999999
 21
14.974
 31
0.0
  0
LINE
  5
BFD
330
1E
100
AcDbEntity
  8
0
  6
CONTINUOUS
 62
     5
100
AcDbLine
 10
22.65599999999999
 20
14.191
 30
0.0
 11
22.65599999999999
 21
14.529
 31
0.0
  0
CIRCLE
  5
BFE
330
1E
100
AcDbEntity
  8
0
  6
CONTINUOUS
 62
     5
100
AcDbCircle
 10
22.65599999999999
 20
14.35999999999999
 30
0.0
 40
0.14
  0
LINE
  5
BFF
330
1E
100
AcDbEntity
  8
0
  6
CONTINUOUS
 62
     5
100
AcDbLine
 10
22.487
 20
13.672
 30
0.0
 11
22.824
 21
13.672
 31
0.0
  0
LINE
  5
C00
330
1E
100
AcDbEntity
  8
0
  6
CONTINUOUS
 62
     5
100
AcDbLine
 10
22.25
 20
13.847
 30
0.0
 11
22.25
 21
14.185
 31
0.0
  0
LINE
  5
C01
330
1E
100
AcDbEntity
  8
0
  6
CONTINUOUS
 62
     5
100
AcDbLine
 10
22.954
 20
13.946
 30
0.0
 11
22.96699999999999
 21
13.92599999999999
 31
0.0
  0
LINE
  5
C02
330
1E
100
AcDbEntity
  8
0
  6
CONTINUOUS
 62
     5
100
AcDbLine
 10
23.158
 20
13.92599999999999
 30
0.0
 11
23.17099999999998
 21
13.946
 31
0.0
  0
LINE
  5
C03
330
1E
100
AcDbEntity
  8
0
  6
CONTINUOUS
 62
     5
100
AcDbLine
 10
23.062
 20
13.866
 30
0.0
 11
23.062
 21
14.16599999999998
 31
0.0
  0
LINE
  5
C04
330
1E
100
AcDbEntity
  8
0
  6
CONTINUOUS
 62
     5
100
AcDbLine
 10
22.982
 20
13.909
 30
0.0
 11
23.0
 21
13.89499999999999
 31
0.0
  0
LINE
  5
C05
330
1E
100
AcDbEntity
  8
0
  6
CONTINUOUS
 62
     5
100
AcDbLine
 10
22.96699999999999
 20
13.92599999999999
 30
0.0
 11
22.982
 21
13.909
 31
0.0
  0
LINE
  5
C06
330
1E
100
AcDbEntity
  8
0
  6
CONTINUOUS
 62
     5
100
AcDbLine
 10
23.125
 20
13.89499999999999
 30
0.0
 11
23.143
 21
13.909
 31
0.0
  0
LINE
  5
C07
330
1E
100
AcDbEntity
  8
0
  6
CONTINUOUS
 62
     5
100
AcDbLine
 10
23.143
 20
13.909
 30
0.0
 11
23.158
 21
13.92599999999999
 31
0.0
  0
LINE
  5
C08
330
1E
100
AcDbEntity
  8
0
  6
CONTINUOUS
 62
     5
100
AcDbLine
 10
23.105
 20
13.884
 30
0.0
 11
23.125
 21
13.89499999999999
 31
0.0
  0
LINE
  5
C09
330
1E
100
AcDbEntity
  8
0
  6
CONTINUOUS
 62
     5
100
AcDbLine
 10
23.0
 20
13.89499999999999
 30
0.0
 11
23.02
 21
13.884
 31
0.0
  0
LINE
  5
C0A
330
1E
100
AcDbEntity
  8
0
  6
CONTINUOUS
 62
     5
100
AcDbLine
 10
23.02
 20
13.884
 30
0.0
 11
23.041
 21
13.878
 31
0.0
  0
LINE
  5
C0B
330
1E
100
AcDbEntity
  8
0
  6
CONTINUOUS
 62
     5
100
AcDbLine
 10
23.041
 20
13.878
 30
0.0
 11
23.062
 21
13.87599999999999
 31
0.0
  0
LINE
  5
C0C
330
1E
100
AcDbEntity
  8
0
  6
CONTINUOUS
 62
     5
100
AcDbLine
 10
23.062
 20
13.87599999999999
 30
0.0
 11
23.084
 21
13.878
 31
0.0
  0
LINE
  5
C0D
330
1E
100
AcDbEntity
  8
0
  6
CONTINUOUS
 62
     5
100
AcDbLine
 10
23.084
 20
13.878
 30
0.0
 11
23.105
 21
13.884
 31
0.0
  0
LINE
  5
C0E
330
1E
100
AcDbEntity
  8
0
  6
CONTINUOUS
 62
     5
100
AcDbLine
 10
23.0
 20
14.137
 30
0.0
 11
22.982
 21
14.123
 31
0.0
  0
LINE
  5
C0F
330
1E
100
AcDbEntity
  8
0
  6
CONTINUOUS
 62
     5
100
AcDbLine
 10
22.913
 20
14.016
 30
0.0
 11
23.213
 21
14.016
 31
0.0
  0
LINE
  5
C10
330
1E
100
AcDbEntity
  8
0
  6
CONTINUOUS
 62
     5
100
AcDbLine
 10
22.982
 20
14.123
 30
0.0
 11
22.96699999999999
 21
14.106
 31
0.0
  0
LINE
  5
C11
330
1E
100
AcDbEntity
  8
0
  6
CONTINUOUS
 62
     5
100
AcDbLine
 10
22.96699999999999
 20
14.106
 30
0.0
 11
22.954
 21
14.08599999999998
 31
0.0
  0
LINE
  5
C12
330
1E
100
AcDbEntity
  8
0
  6
CONTINUOUS
 62
     5
100
AcDbLine
 10
22.954
 20
14.08599999999998
 30
0.0
 11
22.945
 21
14.064
 31
0.0
  0
LINE
  5
C13
330
1E
100
AcDbEntity
  8
0
  6
CONTINUOUS
 62
     5
100
AcDbLine
 10
22.945
 20
14.064
 30
0.0
 11
22.939
 21
14.03999999999999
 31
0.0
  0
LINE
  5
C14
330
1E
100
AcDbEntity
  8
0
  6
CONTINUOUS
 62
     5
100
AcDbLine
 10
22.939
 20
14.03999999999999
 30
0.0
 11
22.937
 21
14.016
 31
0.0
  0
LINE
  5
C15
330
1E
100
AcDbEntity
  8
0
  6
CONTINUOUS
 62
     5
100
AcDbLine
 10
22.937
 20
14.016
 30
0.0
 11
22.939
 21
13.992
 31
0.0
  0
LINE
  5
C16
330
1E
100
AcDbEntity
  8
0
  6
CONTINUOUS
 62
     5
100
AcDbLine
 10
22.939
 20
13.992
 30
0.0
 11
22.945
 21
13.968
 31
0.0
  0
LINE
  5
C17
330
1E
100
AcDbEntity
  8
0
  6
CONTINUOUS
 62
     5
100
AcDbLine
 10
22.945
 20
13.968
 30
0.0
 11
22.954
 21
13.946
 31
0.0
  0
LINE
  5
C18
330
1E
100
AcDbEntity
  8
0
  6
CONTINUOUS
 62
     5
100
AcDbLine
 10
23.18599999999998
 20
13.992
 30
0.0
 11
23.187
 21
14.016
 31
0.0
  0
LINE
  5
C19
330
1E
100
AcDbEntity
  8
0
  6
CONTINUOUS
 62
     5
100
AcDbLine
 10
23.187
 20
14.016
 30
0.0
 11
23.18599999999998
 21
14.03999999999999
 31
0.0
  0
LINE
  5
C1A
330
1E
100
AcDbEntity
  8
0
  6
CONTINUOUS
 62
     5
100
AcDbLine
 10
23.18
 20
13.968
 30
0.0
 11
23.18599999999998
 21
13.992
 31
0.0
  0
LINE
  5
C1B
330
1E
100
AcDbEntity
  8
0
  6
CONTINUOUS
 62
     5
100
AcDbLine
 10
23.18599999999998
 20
14.03999999999999
 30
0.0
 11
23.18
 21
14.064
 31
0.0
  0
LINE
  5
C1C
330
1E
100
AcDbEntity
  8
0
  6
CONTINUOUS
 62
     5
100
AcDbLine
 10
23.17099999999998
 20
13.946
 30
0.0
 11
23.18
 21
13.968
 31
0.0
  0
LINE
  5
C1D
330
1E
100
AcDbEntity
  8
0
  6
CONTINUOUS
 62
     5
100
AcDbLine
 10
23.18
 20
14.064
 30
0.0
 11
23.17099999999998
 21
14.08599999999998
 31
0.0
  0
LINE
  5
C1E
330
1E
100
AcDbEntity
  8
0
  6
CONTINUOUS
 62
     5
100
AcDbLine
 10
23.17099999999998
 20
14.08599999999998
 30
0.0
 11
23.158
 21
14.106
 31
0.0
  0
LINE
  5
C1F
330
1E
100
AcDbEntity
  8
0
  6
CONTINUOUS
 62
     5
100
AcDbLine
 10
23.158
 20
14.106
 30
0.0
 11
23.143
 21
14.123
 31
0.0
  0
LINE
  5
C20
330
1E
100
AcDbEntity
  8
0
  6
CONTINUOUS
 62
     5
100
AcDbLine
 10
23.143
 20
14.123
 30
0.0
 11
23.125
 21
14.137
 31
0.0
  0
LINE
  5
C21
330
1E
100
AcDbEntity
  8
0
  6
CONTINUOUS
 62
     5
100
AcDbLine
 10
23.125
 20
14.137
 30
0.0
 11
23.105
 21
14.148
 31
0.0
  0
LINE
  5
C22
330
1E
100
AcDbEntity
  8
0
  6
CONTINUOUS
 62
     5
100
AcDbLine
 10
23.02
 20
14.148
 30
0.0
 11
23.0
 21
14.137
 31
0.0
  0
LINE
  5
C23
330
1E
100
AcDbEntity
  8
0
  6
CONTINUOUS
 62
     5
100
AcDbLine
 10
23.084
 20
14.15399999999999
 30
0.0
 11
23.062
 21
14.15599999999999
 31
0.0
  0
LINE
  5
C24
330
1E
100
AcDbEntity
  8
0
  6
CONTINUOUS
 62
     5
100
AcDbLine
 10
23.062
 20
14.15599999999999
 30
0.0
 11
23.041
 21
14.15399999999999
 31
0.0
  0
LINE
  5
C25
330
1E
100
AcDbEntity
  8
0
  6
CONTINUOUS
 62
     5
100
AcDbLine
 10
23.041
 20
14.15399999999999
 30
0.0
 11
23.02
 21
14.148
 31
0.0
  0
LINE
  5
C26
330
1E
100
AcDbEntity
  8
0
  6
CONTINUOUS
 62
     5
100
AcDbLine
 10
23.105
 20
14.148
 30
0.0
 11
23.084
 21
14.15399999999999
 31
0.0
  0
LINE
  5
C27
330
1E
100
AcDbEntity
  8
0
  6
CONTINUOUS
 62
     5
100
AcDbLine
 10
22.487
 20
14.35999999999999
 30
0.0
 11
22.824
 21
14.35999999999999
 31
0.0
  0
CIRCLE
  5
C28
330
1E
100
AcDbEntity
  8
0
  6
CONTINUOUS
 62
     5
100
AcDbCircle
 10
22.65599999999999
 20
18.32799999999998
 30
0.0
 40
0.14
  0
ARC
  5
C29
330
1E
100
AcDbEntity
  8
0
  6
CONTINUOUS
 62
     5
100
AcDbCircle
 10
22.65599999999999
 20
18.32799999999998
 30
0.0
 40
0.164
100
AcDbArc
 50
85.00000100000002
 51
4.999999999999999
  0
LINE
  5
C2A
330
1E
100
AcDbEntity
  8
0
  6
CONTINUOUS
 62
     5
100
AcDbLine
 10
22.65599999999999
 20
17.80499999999999
 30
0.0
 11
22.65599999999999
 21
18.85099999999998
 31
0.0
  0
CIRCLE
  5
C2B
330
1E
100
AcDbEntity
  8
0
  6
CONTINUOUS
 62
     5
100
AcDbCircle
 10
22.65599999999999
 20
18.32799999999998
 30
0.0
 40
0.23
  0
CIRCLE
  5
C2C
330
1E
100
AcDbEntity
  8
0
  6
CONTINUOUS
 62
     5
100
AcDbCircle
 10
22.65599999999999
 20
18.32799999999998
 30
0.0
 40
0.259
  0
CIRCLE
  5
C2D
330
1E
100
AcDbEntity
  8
0
  6
CONTINUOUS
 62
     5
100
AcDbCircle
 10
22.65599999999999
 20
18.32799999999998
 30
0.0
 40
0.435
  0
LINE
  5
C2E
330
1E
100
AcDbEntity
  8
0
  6
CONTINUOUS
 62
     5
100
AcDbLine
 10
22.13299999999999
 20
18.32799999999998
 30
0.0
 11
23.178
 21
18.32799999999998
 31
0.0
  0
LINE
  5
C2F
330
1E
100
AcDbEntity
  8
0
  6
CONTINUOUS
 62
     5
100
AcDbLine
 10
23.29599999999998
 20
13.15199999999999
 30
0.0
 11
23.29599999999998
 21
13.38
 31
0.0
  0
LINE
  5
C30
330
1E
100
AcDbEntity
  8
0
  6
CONTINUOUS
 62
     5
100
AcDbLine
 10
23.26599999999999
 20
14.74599999999998
 30
0.0
 11
23.26599999999999
 21
14.974
 31
0.0
  0
LWPOLYLINE
  5
C31
330
1E
100
AcDbEntity
  8
0
  6
CONTINUOUS
 62
     5
100
AcDbPolyline
 90
       20
 70
     0
 43
0.0
 10
23.36442699999999
 20
17.9125
 10
23.36974
 20
17.901875
 10
23.380365
 20
17.89125
 10
23.401615
 20
17.88593699999998
 10
23.43348999999999
 20
17.88593699999998
 10
23.45474
 20
17.896562
 10
23.47067699999999
 20
17.91781199999998
 10
23.48130199999999
 20
17.944375
 10
23.48661499999999
 20
17.97625
 10
23.48661499999999
 20
18.013437
 10
23.48130199999999
 20
18.04531199999998
 10
23.47067699999999
 20
18.066562
 10
23.45474
 20
18.087812
 10
23.43348999999999
 20
18.098437
 10
23.39630199999999
 20
18.098437
 10
23.380365
 20
18.093125
 10
23.36974
 20
18.0825
 10
23.35911499999999
 20
18.06125
 10
23.35911499999999
 20
18.00281199999998
 10
23.41223999999999
 20
18.00281199999998
  0
CIRCLE
  5
C55
330
1E
100
AcDbEntity
  8
0
  6
CONTINUOUS
 62
     5
100
AcDbCircle
 10
24.78099999999999
 20
9.906
 30
0.0
 40
0.435
  0
LINE
  5
C56
330
1E
100
AcDbEntity
  8
0
  6
CONTINUOUS
 62
     5
100
AcDbLine
 10
24.78099999999999
 20
9.382999999999999
 30
0.0
 11
24.78099999999999
 21
10.429
 31
0.0
  0
TEXT
  5
C57
330
1E
100
AcDbEntity
  8
0
 62
     5
100
AcDbText
 10
25.33664025
 20
10.128125
 30
0.0
 40
0.2125
  1
GB
 41
0.825
 72
     4
 11
25.482734
 21
10.234375
 31
0.0
100
AcDbText
  0
LINE
  5
C58
330
1E
100
AcDbEntity
  8
0
  6
CONTINUOUS
 62
     5
100
AcDbLine
 10
24.78099999999999
 20
3.024999999999999
 30
0.0
 11
24.78099999999999
 21
4.474999999999998
 31
0.0
  0
CIRCLE
  5
C59
330
1E
100
AcDbEntity
  8
0
  6
CONTINUOUS
 62
     5
100
AcDbCircle
 10
24.78099999999999
 20
3.75
 30
0.0
 40
0.412
  0
CIRCLE
  5
C5A
330
1E
100
AcDbEntity
  8
0
  6
CONTINUOUS
 62
     5
100
AcDbCircle
 10
24.78099999999999
 20
3.75
 30
0.0
 40
0.373
  0
ARC
  5
C5B
330
1E
100
AcDbEntity
  8
0
  6
CONTINUOUS
 62
     5
100
AcDbCircle
 10
24.78099999999999
 20
3.75
 30
0.0
 40
0.4020000000000001
100
AcDbArc
 50
85.00000100000002
 51
4.999999999999999
  0
CIRCLE
  5
C5C
330
1E
100
AcDbEntity
  8
0
  6
CONTINUOUS
 62
     5
100
AcDbCircle
 10
24.78099999999999
 20
3.75
 30
0.0
 40
0.3439999999999999
  0
CIRCLE
  5
C5D
330
1E
100
AcDbEntity
  8
0
  6
CONTINUOUS
 62
     5
100
AcDbCircle
 10
24.78099999999999
 20
3.75
 30
0.0
 40
0.604
  0
LINE
  5
C5E
330
1E
100
AcDbEntity
  8
0
  6
CONTINUOUS
 62
     5
100
AcDbLine
 10
24.05599999999999
 20
3.75
 30
0.0
 11
25.50499999999999
 21
3.75
 31
0.0
  0
TEXT
  5
C5F
330
1E
100
AcDbEntity
  8
0
 62
     5
100
AcDbText
 10
25.3118625
 20
3.047370999999998
 30
0.0
 40
0.2125
  1
A
 41
0.825
 72
     4
 11
25.3703
 21
3.153620999999998
 31
0.0
100
AcDbText
  0
LINE
  5
C60
330
1E
100
AcDbEntity
  8
0
  6
CONTINUOUS
 62
     5
100
AcDbLine
 10
24.05599999999999
 20
5.25
 30
0.0
 11
25.50499999999999
 21
5.25
 31
0.0
  0
CIRCLE
  5
C61
330
1E
100
AcDbEntity
  8
0
  6
CONTINUOUS
 62
     5
100
AcDbCircle
 10
24.78099999999999
 20
5.25
 30
0.0
 40
0.604
  0
CIRCLE
  5
C62
330
1E
100
AcDbEntity
  8
0
  6
CONTINUOUS
 62
     5
100
AcDbCircle
 10
24.78099999999999
 20
5.25
 30
0.0
 40
0.412
  0
LINE
  5
C63
330
1E
100
AcDbEntity
  8
0
  6
CONTINUOUS
 62
     5
100
AcDbLine
 10
24.78099999999999
 20
4.525
 30
0.0
 11
24.78099999999999
 21
5.974999999999998
 31
0.0
  0
CIRCLE
  5
C64
330
1E
100
AcDbEntity
  8
0
  6
CONTINUOUS
 62
     5
100
AcDbCircle
 10
24.78099999999999
 20
5.25
 30
0.0
 40
0.373
  0
CIRCLE
  5
C65
330
1E
100
AcDbEntity
  8
0
  6
CONTINUOUS
 62
     5
100
AcDbCircle
 10
24.78099999999999
 20
5.25
 30
0.0
 40
0.3439999999999999
  0
ARC
  5
C66
330
1E
100
AcDbEntity
  8
0
  6
CONTINUOUS
 62
     5
100
AcDbCircle
 10
24.78099999999999
 20
5.25
 30
0.0
 40
0.4020000000000001
100
AcDbArc
 50
85.00000100000002
 51
4.999999999999999
  0
TEXT
  5
C67
330
1E
100
AcDbEntity
  8
0
 62
     5
100
AcDbText
 10
25.3118625
 20
4.576980999999999
 30
0.0
 40
0.2125
  1
B
 41
0.825
 72
     4
 11
25.3703
 21
4.683231
 31
0.0
100
AcDbText
  0
LINE
  5
C68
330
1E
100
AcDbEntity
  8
0
  6
CONTINUOUS
 62
     5
100
AcDbLine
 10
24.258
 20
9.906
 30
0.0
 11
25.303
 21
9.906
 31
0.0
  0
CIRCLE
  5
C69
330
1E
100
AcDbEntity
  8
0
  6
CONTINUOUS
 62
     5
100
AcDbCircle
 10
24.78099999999999
 20
9.906
 30
0.0
 40
0.23
  0
CIRCLE
  5
C6A
330
1E
100
AcDbEntity
  8
0
  6
CONTINUOUS
 62
     5
100
AcDbCircle
 10
24.78099999999999
 20
9.906
 30
0.0
 40
0.259
  0
CIRCLE
  5
C6B
330
1E
100
AcDbEntity
  8
0
  6
CONTINUOUS
 62
     5
100
AcDbCircle
 10
24.78099999999999
 20
9.906
 30
0.0
 40
0.14
  0
ARC
  5
C6C
330
1E
100
AcDbEntity
  8
0
  6
CONTINUOUS
 62
     5
100
AcDbCircle
 10
24.78099999999999
 20
9.906
 30
0.0
 40
0.164
100
AcDbArc
 50
85.00000100000002
 51
4.999999999999999
  0
LINE
  5
C6D
330
1E
100
AcDbEntity
  8
0
  6
CONTINUOUS
 62
     5
100
AcDbLine
 10
24.78099999999999
 20
13.503
 30
0.0
 11
24.78099999999999
 21
13.841
 31
0.0
  0
CIRCLE
  5
C6E
330
1E
100
AcDbEntity
  8
0
  6
CONTINUOUS
 62
     5
100
AcDbCircle
 10
24.78099999999999
 20
13.672
 30
0.0
 40
0.14
  0
LINE
  5
C6F
330
1E
100
AcDbEntity
  8
0
  6
CONTINUOUS
 62
     5
100
AcDbLine
 10
24.14
 20
13.467
 30
0.0
 11
24.14
 21
13.65499999999999
 31
0.0
  0
CIRCLE
  5
C70
330
1E
100
AcDbEntity
  8
0
  6
CONTINUOUS
 62
     5
100
AcDbCircle
 10
24.14
 20
13.561
 30
0.0
 40
0.078
  0
LINE
  5
C71
330
1E
100
AcDbEntity
  8
0
  6
CONTINUOUS
 62
     5
100
AcDbLine
 10
24.14099999999999
 20
13.15199999999999
 30
0.0
 11
24.14099999999999
 21
13.38
 31
0.0
  0
CIRCLE
  5
C72
330
1E
100
AcDbEntity
  8
0
  6
CONTINUOUS
 62
     5
100
AcDbCircle
 10
24.14099999999999
 20
13.266
 30
0.0
 40
0.075
  0
ARC
  5
C73
330
1E
100
AcDbEntity
  8
0
  6
CONTINUOUS
 62
     5
100
AcDbCircle
 10
24.14099999999999
 20
13.266
 30
0.0
 40
0.087
100
AcDbArc
 50
85.00000099999999
 51
5.0
  0
LINE
  5
C74
330
1E
100
AcDbEntity
  8
0
  6
CONTINUOUS
 62
     5
100
AcDbLine
 10
24.02699999999999
 20
13.266
 30
0.0
 11
24.255
 21
13.266
 31
0.0
  0
CIRCLE
  5
C75
330
1E
100
AcDbEntity
  8
0
  6
CONTINUOUS
 62
     5
100
AcDbCircle
 10
24.14099999999999
 20
13.266
 30
0.0
 40
0.095
  0
LINE
  5
C76
330
1E
100
AcDbEntity
  8
0
  6
CONTINUOUS
 62
     5
100
AcDbLine
 10
25.42099999999999
 20
13.15199999999999
 30
0.0
 11
25.42099999999999
 21
13.38
 31
0.0
  0
CIRCLE
  5
C77
330
1E
100
AcDbEntity
  8
0
  6
CONTINUOUS
 62
     5
100
AcDbCircle
 10
25.42099999999999
 20
13.266
 30
0.0
 40
0.095
  0
CIRCLE
  5
C78
330
1E
100
AcDbEntity
  8
0
  6
CONTINUOUS
 62
     5
100
AcDbCircle
 10
25.42099999999999
 20
13.266
 30
0.0
 40
0.075
  0
ARC
  5
C79
330
1E
100
AcDbEntity
  8
0
  6
CONTINUOUS
 62
     5
100
AcDbCircle
 10
25.42099999999999
 20
13.266
 30
0.0
 40
0.087
100
AcDbArc
 50
85.00000099999999
 51
5.0
  0
LINE
  5
C7A
330
1E
100
AcDbEntity
  8
0
  6
CONTINUOUS
 62
     5
100
AcDbLine
 10
25.30699999999999
 20
13.266
 30
0.0
 11
25.535
 21
13.266
 31
0.0
  0
LINE
  5
C7B
330
1E
100
AcDbEntity
  8
0
  6
CONTINUOUS
 62
     5
100
AcDbLine
 10
25.283
 20
14.106
 30
0.0
 11
25.268
 21
14.123
 31
0.0
  0
LINE
  5
C7C
330
1E
100
AcDbEntity
  8
0
  6
CONTINUOUS
 62
     5
100
AcDbLine
 10
25.038
 20
14.016
 30
0.0
 11
25.338
 21
14.016
 31
0.0
  0
LINE
  5
C7D
330
1E
100
AcDbEntity
  8
0
  6
CONTINUOUS
 62
     5
100
AcDbLine
 10
25.268
 20
13.909
 30
0.0
 11
25.283
 21
13.92599999999999
 31
0.0
  0
LINE
  5
C7E
330
1E
100
AcDbEntity
  8
0
  6
CONTINUOUS
 62
     5
100
AcDbLine
 10
25.277
 20
14.85999999999999
 30
0.0
 11
25.50499999999999
 21
14.85999999999999
 31
0.0
  0
CIRCLE
  5
C7F
330
1E
100
AcDbEntity
  8
0
  6
CONTINUOUS
 62
     5
100
AcDbCircle
 10
24.17099999999999
 20
14.85999999999999
 30
0.0
 40
0.095
  0
LINE
  5
C80
330
1E
100
AcDbEntity
  8
0
  6
CONTINUOUS
 62
     5
100
AcDbLine
 10
24.057
 20
14.85999999999999
 30
0.0
 11
24.285
 21
14.85999999999999
 31
0.0
  0
LINE
  5
C81
330
1E
100
AcDbEntity
  8
0
  6
CONTINUOUS
 62
     5
100
AcDbLine
 10
24.20599999999998
 20
14.016
 30
0.0
 11
24.54299999999999
 21
14.016
 31
0.0
  0
CIRCLE
  5
C82
330
1E
100
AcDbEntity
  8
0
  6
CONTINUOUS
 62
     5
100
AcDbCircle
 10
24.375
 20
14.016
 30
0.0
 40
0.14
  0
LINE
  5
C83
330
1E
100
AcDbEntity
  8
0
  6
CONTINUOUS
 62
     5
100
AcDbLine
 10
24.047
 20
13.561
 30
0.0
 11
24.234
 21
13.561
 31
0.0
  0
LINE
  5
C84
330
1E
100
AcDbEntity
  8
0
  6
CONTINUOUS
 62
     5
100
AcDbLine
 10
24.17099999999999
 20
14.74599999999998
 30
0.0
 11
24.17099999999999
 21
14.974
 31
0.0
  0
CIRCLE
  5
C85
330
1E
100
AcDbEntity
  8
0
  6
CONTINUOUS
 62
     5
100
AcDbCircle
 10
24.17099999999999
 20
14.85999999999999
 30
0.0
 40
0.075
  0
ARC
  5
C86
330
1E
100
AcDbEntity
  8
0
  6
CONTINUOUS
 62
     5
100
AcDbCircle
 10
24.17099999999999
 20
14.85999999999999
 30
0.0
 40
0.087
100
AcDbArc
 50
85.00000099999999
 51
5.0
  0
CIRCLE
  5
C87
330
1E
100
AcDbEntity
  8
0
  6
CONTINUOUS
 62
     5
100
AcDbCircle
 10
24.78099999999999
 20
14.35999999999999
 30
0.0
 40
0.14
  0
LINE
  5
C88
330
1E
100
AcDbEntity
  8
0
  6
CONTINUOUS
 62
     5
100
AcDbLine
 10
24.78099999999999
 20
14.191
 30
0.0
 11
24.78099999999999
 21
14.529
 31
0.0
  0
LINE
  5
C89
330
1E
100
AcDbEntity
  8
0
  6
CONTINUOUS
 62
     5
100
AcDbLine
 10
24.612
 20
13.672
 30
0.0
 11
24.949
 21
13.672
 31
0.0
  0
LINE
  5
C8A
330
1E
100
AcDbEntity
  8
0
  6
CONTINUOUS
 62
     5
100
AcDbLine
 10
24.375
 20
13.847
 30
0.0
 11
24.375
 21
14.185
 31
0.0
  0
LINE
  5
C8B
330
1E
100
AcDbEntity
  8
0
  6
CONTINUOUS
 62
     5
100
AcDbLine
 10
25.187
 20
13.866
 30
0.0
 11
25.187
 21
14.16599999999998
 31
0.0
  0
LINE
  5
C8C
330
1E
100
AcDbEntity
  8
0
  6
CONTINUOUS
 62
     5
100
AcDbLine
 10
25.079
 20
13.946
 30
0.0
 11
25.09199999999999
 21
13.92599999999999
 31
0.0
  0
LINE
  5
C8D
330
1E
100
AcDbEntity
  8
0
  6
CONTINUOUS
 62
     5
100
AcDbLine
 10
25.209
 20
13.878
 30
0.0
 11
25.23
 21
13.884
 31
0.0
  0
LINE
  5
C8E
330
1E
100
AcDbEntity
  8
0
  6
CONTINUOUS
 62
     5
100
AcDbLine
 10
25.187
 20
13.87599999999999
 30
0.0
 11
25.209
 21
13.878
 31
0.0
  0
LINE
  5
C8F
330
1E
100
AcDbEntity
  8
0
  6
CONTINUOUS
 62
     5
100
AcDbLine
 10
25.166
 20
13.878
 30
0.0
 11
25.187
 21
13.87599999999999
 31
0.0
  0
LINE
  5
C90
330
1E
100
AcDbEntity
  8
0
  6
CONTINUOUS
 62
     5
100
AcDbLine
 10
25.14499999999999
 20
13.884
 30
0.0
 11
25.166
 21
13.878
 31
0.0
  0
LINE
  5
C91
330
1E
100
AcDbEntity
  8
0
  6
CONTINUOUS
 62
     5
100
AcDbLine
 10
25.125
 20
13.89499999999999
 30
0.0
 11
25.14499999999999
 21
13.884
 31
0.0
  0
LINE
  5
C92
330
1E
100
AcDbEntity
  8
0
  6
CONTINUOUS
 62
     5
100
AcDbLine
 10
25.23
 20
13.884
 30
0.0
 11
25.25
 21
13.89499999999999
 31
0.0
  0
LINE
  5
C93
330
1E
100
AcDbEntity
  8
0
  6
CONTINUOUS
 62
     5
100
AcDbLine
 10
25.25
 20
13.89499999999999
 30
0.0
 11
25.268
 21
13.909
 31
0.0
  0
LINE
  5
C94
330
1E
100
AcDbEntity
  8
0
  6
CONTINUOUS
 62
     5
100
AcDbLine
 10
25.09199999999999
 20
13.92599999999999
 30
0.0
 11
25.10699999999999
 21
13.909
 31
0.0
  0
LINE
  5
C95
330
1E
100
AcDbEntity
  8
0
  6
CONTINUOUS
 62
     5
100
AcDbLine
 10
25.10699999999999
 20
13.909
 30
0.0
 11
25.125
 21
13.89499999999999
 31
0.0
  0
LINE
  5
C96
330
1E
100
AcDbEntity
  8
0
  6
CONTINUOUS
 62
     5
100
AcDbLine
 10
25.23
 20
14.148
 30
0.0
 11
25.209
 21
14.15399999999999
 31
0.0
  0
LINE
  5
C97
330
1E
100
AcDbEntity
  8
0
  6
CONTINUOUS
 62
     5
100
AcDbLine
 10
25.166
 20
14.15399999999999
 30
0.0
 11
25.14499999999999
 21
14.148
 31
0.0
  0
LINE
  5
C98
330
1E
100
AcDbEntity
  8
0
  6
CONTINUOUS
 62
     5
100
AcDbLine
 10
25.187
 20
14.15599999999999
 30
0.0
 11
25.166
 21
14.15399999999999
 31
0.0
  0
LINE
  5
C99
330
1E
100
AcDbEntity
  8
0
  6
CONTINUOUS
 62
     5
100
AcDbLine
 10
25.209
 20
14.15399999999999
 30
0.0
 11
25.187
 21
14.15599999999999
 31
0.0
  0
LINE
  5
C9A
330
1E
100
AcDbEntity
  8
0
  6
CONTINUOUS
 62
     5
100
AcDbLine
 10
25.14499999999999
 20
14.148
 30
0.0
 11
25.125
 21
14.137
 31
0.0
  0
LINE
  5
C9B
330
1E
100
AcDbEntity
  8
0
  6
CONTINUOUS
 62
     5
100
AcDbLine
 10
25.25
 20
14.137
 30
0.0
 11
25.23
 21
14.148
 31
0.0
  0
LINE
  5
C9C
330
1E
100
AcDbEntity
  8
0
  6
CONTINUOUS
 62
     5
100
AcDbLine
 10
25.268
 20
14.123
 30
0.0
 11
25.25
 21
14.137
 31
0.0
  0
LINE
  5
C9D
330
1E
100
AcDbEntity
  8
0
  6
CONTINUOUS
 62
     5
100
AcDbLine
 10
25.07
 20
13.968
 30
0.0
 11
25.079
 21
13.946
 31
0.0
  0
LINE
  5
C9E
330
1E
100
AcDbEntity
  8
0
  6
CONTINUOUS
 62
     5
100
AcDbLine
 10
25.064
 20
13.992
 30
0.0
 11
25.07
 21
13.968
 31
0.0
  0
LINE
  5
C9F
330
1E
100
AcDbEntity
  8
0
  6
CONTINUOUS
 62
     5
100
AcDbLine
 10
25.062
 20
14.016
 30
0.0
 11
25.064
 21
13.992
 31
0.0
  0
LINE
  5
CA0
330
1E
100
AcDbEntity
  8
0
  6
CONTINUOUS
 62
     5
100
AcDbLine
 10
25.064
 20
14.03999999999999
 30
0.0
 11
25.062
 21
14.016
 31
0.0
  0
LINE
  5
CA1
330
1E
100
AcDbEntity
  8
0
  6
CONTINUOUS
 62
     5
100
AcDbLine
 10
25.07
 20
14.064
 30
0.0
 11
25.064
 21
14.03999999999999
 31
0.0
  0
LINE
  5
CA2
330
1E
100
AcDbEntity
  8
0
  6
CONTINUOUS
 62
     5
100
AcDbLine
 10
25.079
 20
14.08599999999998
 30
0.0
 11
25.07
 21
14.064
 31
0.0
  0
LINE
  5
CA3
330
1E
100
AcDbEntity
  8
0
  6
CONTINUOUS
 62
     5
100
AcDbLine
 10
25.09199999999999
 20
14.106
 30
0.0
 11
25.079
 21
14.08599999999998
 31
0.0
  0
LINE
  5
CA4
330
1E
100
AcDbEntity
  8
0
  6
CONTINUOUS
 62
     5
100
AcDbLine
 10
25.10699999999999
 20
14.123
 30
0.0
 11
25.09199999999999
 21
14.106
 31
0.0
  0
LINE
  5
CA5
330
1E
100
AcDbEntity
  8
0
  6
CONTINUOUS
 62
     5
100
AcDbLine
 10
25.125
 20
14.137
 30
0.0
 11
25.10699999999999
 21
14.123
 31
0.0
  0
LINE
  5
CA6
330
1E
100
AcDbEntity
  8
0
  6
CONTINUOUS
 62
     5
100
AcDbLine
 10
24.612
 20
14.35999999999999
 30
0.0
 11
24.949
 21
14.35999999999999
 31
0.0
  0
LINE
  5
CA7
330
1E
100
AcDbEntity
  8
0
  6
CONTINUOUS
 62
     5
100
AcDbLine
 10
25.283
 20
13.92599999999999
 30
0.0
 11
25.29599999999998
 21
13.946
 31
0.0
  0
LINE
  5
CA8
330
1E
100
AcDbEntity
  8
0
  6
CONTINUOUS
 62
     5
100
AcDbLine
 10
25.29599999999998
 20
14.08599999999998
 30
0.0
 11
25.283
 21
14.106
 31
0.0
  0
LINE
  5
CA9
330
1E
100
AcDbEntity
  8
0
  6
CONTINUOUS
 62
     5
100
AcDbLine
 10
25.30499999999999
 20
14.064
 30
0.0
 11
25.29599999999998
 21
14.08599999999998
 31
0.0
  0
LINE
  5
CAA
330
1E
100
AcDbEntity
  8
0
  6
CONTINUOUS
 62
     5
100
AcDbLine
 10
25.29599999999998
 20
13.946
 30
0.0
 11
25.30499999999999
 21
13.968
 31
0.0
  0
LINE
  5
CAB
330
1E
100
AcDbEntity
  8
0
  6
CONTINUOUS
 62
     5
100
AcDbLine
 10
25.31099999999998
 20
14.03999999999999
 30
0.0
 11
25.30499999999999
 21
14.064
 31
0.0
  0
LINE
  5
CAC
330
1E
100
AcDbEntity
  8
0
  6
CONTINUOUS
 62
     5
100
AcDbLine
 10
25.30499999999999
 20
13.968
 30
0.0
 11
25.31099999999998
 21
13.992
 31
0.0
  0
LINE
  5
CAD
330
1E
100
AcDbEntity
  8
0
  6
CONTINUOUS
 62
     5
100
AcDbLine
 10
25.312
 20
14.016
 30
0.0
 11
25.31099999999998
 21
14.03999999999999
 31
0.0
  0
LINE
  5
CAE
330
1E
100
AcDbEntity
  8
0
  6
CONTINUOUS
 62
     5
100
AcDbLine
 10
25.31099999999998
 20
13.992
 30
0.0
 11
25.312
 21
14.016
 31
0.0
  0
LINE
  5
CAF
330
1E
100
AcDbEntity
  8
0
  6
CONTINUOUS
 62
     5
100
AcDbLine
 10
25.39099999999999
 20
14.74599999999998
 30
0.0
 11
25.39099999999999
 21
14.974
 31
0.0
  0
CIRCLE
  5
CB0
330
1E
100
AcDbEntity
  8
0
  6
CONTINUOUS
 62
     5
100
AcDbCircle
 10
25.39099999999999
 20
14.85999999999999
 30
0.0
 40
0.095
  0
ARC
  5
CB1
330
1E
100
AcDbEntity
  8
0
  6
CONTINUOUS
 62
     5
100
AcDbCircle
 10
25.39099999999999
 20
14.85999999999999
 30
0.0
 40
0.087
100
AcDbArc
 50
85.00000099999999
 51
5.0
  0
CIRCLE
  5
CB2
330
1E
100
AcDbEntity
  8
0
  6
CONTINUOUS
 62
     5
100
AcDbCircle
 10
25.39099999999999
 20
14.85999999999999
 30
0.0
 40
0.075
  0
LINE
  5
CB3
330
1E
100
AcDbEntity
  8
0
  6
CONTINUOUS
 62
     5
100
AcDbLine
 10
24.258
 20
18.32799999999998
 30
0.0
 11
25.303
 21
18.32799999999998
 31
0.0
  0
CIRCLE
  5
CB4
330
1E
100
AcDbEntity
  8
0
  6
CONTINUOUS
 62
     5
100
AcDbCircle
 10
24.78099999999999
 20
18.32799999999998
 30
0.0
 40
0.435
  0
CIRCLE
  5
CB5
330
1E
100
AcDbEntity
  8
0
  6
CONTINUOUS
 62
     5
100
AcDbCircle
 10
24.78099999999999
 20
18.32799999999998
 30
0.0
 40
0.259
  0
CIRCLE
  5
CB6
330
1E
100
AcDbEntity
  8
0
  6
CONTINUOUS
 62
     5
100
AcDbCircle
 10
24.78099999999999
 20
18.32799999999998
 30
0.0
 40
0.23
  0
LINE
  5
CB7
330
1E
100
AcDbEntity
  8
0
  6
CONTINUOUS
 62
     5
100
AcDbLine
 10
24.78099999999999
 20
17.80499999999999
 30
0.0
 11
24.78099999999999
 21
18.85099999999998
 31
0.0
  0
ARC
  5
CB8
330
1E
100
AcDbEntity
  8
0
  6
CONTINUOUS
 62
     5
100
AcDbCircle
 10
24.78099999999999
 20
18.32799999999998
 30
0.0
 40
0.164
100
AcDbArc
 50
85.00000100000002
 51
4.999999999999999
  0
CIRCLE
  5
CB9
330
1E
100
AcDbEntity
  8
0
  6
CONTINUOUS
 62
     5
100
AcDbCircle
 10
24.78099999999999
 20
18.32799999999998
 30
0.0
 40
0.14
  0
LWPOLYLINE
  5
CBA
330
1E
100
AcDbEntity
  8
0
  6
CONTINUOUS
 62
     5
100
AcDbPolyline
 90
       20
 70
     0
 43
0.0
 10
25.48942699999999
 20
17.9125
 10
25.49474
 20
17.901875
 10
25.505365
 20
17.89125
 10
25.526615
 20
17.88593699999998
 10
25.55848999999999
 20
17.88593699999998
 10
25.57974
 20
17.896562
 10
25.595677
 20
17.91781199999998
 10
25.60630199999998
 20
17.944375
 10
25.611615
 20
17.97625
 10
25.611615
 20
18.013437
 10
25.60630199999998
 20
18.04531199999998
 10
25.595677
 20
18.066562
 10
25.57974
 20
18.087812
 10
25.55848999999999
 20
18.098437
 10
25.521302
 20
18.098437
 10
25.505365
 20
18.093125
 10
25.49474
 20
18.0825
 10
25.48411499999999
 20
18.06125
 10
25.48411499999999
 20
18.00281199999998
 10
25.53724
 20
18.00281199999998
  0
LWPOLYLINE
  5
CBB
330
1E
100
AcDbEntity
  8
0
  6
CONTINUOUS
 62
     5
100
AcDbPolyline
 90
        4
 70
     0
 43
0.0
 10
25.43098999999999
 20
18.098437
 10
25.372552
 20
17.88593699999998
 10
25.36192699999999
 20
17.88593699999998
 10
25.30349
 20
18.098437
  0
LINE
  5
CBC
330
1E
100
AcDbEntity
  8
0
  6
CONTINUOUS
 62
     5
100
AcDbLine
 10
25.40973999999999
 20
18.024062
 30
0.0
 11
25.32474
 21
18.024062
 31
0.0
  0
CIRCLE
  5
CBD
330
1E
100
AcDbEntity
  8
0
  6
CONTINUOUS
 62
     5
100
AcDbCircle
 10
23.719
 20
5.75
 30
0.0
 40
0.188
  0
CIRCLE
  5
CBE
330
1E
100
AcDbEntity
  8
0
  6
CONTINUOUS
 62
     5
100
AcDbCircle
 10
23.719
 20
5.75
 30
0.0
 40
0.156
  0
ARC
  5
CBF
330
1E
100
AcDbEntity
  8
0
  6
CONTINUOUS
 62
     5
100
AcDbCircle
 10
23.719
 20
5.75
 30
0.0
 40
0.183
100
AcDbArc
 50
85.00000099999999
 51
5.0
  0
LINE
  5
CC0
330
1E
100
AcDbEntity
  8
0
  6
CONTINUOUS
 62
     5
100
AcDbLine
 10
23.719
 20
5.525
 30
0.0
 11
23.719
 21
5.974999999999997
 31
0.0
  0
LINE
  5
CC1
330
1E
100
AcDbEntity
  8
0
  6
CONTINUOUS
 62
     5
100
AcDbLine
 10
23.493
 20
5.75
 30
0.0
 11
23.944
 21
5.75
 31
0.0
  0
CIRCLE
  5
CC2
330
1E
100
AcDbEntity
  8
0
  6
CONTINUOUS
 62
     5
100
AcDbCircle
 10
23.719
 20
2.5
 30
0.0
 40
0.188
  0
ARC
  5
CC3
330
1E
100
AcDbEntity
  8
0
  6
CONTINUOUS
 62
     5
100
AcDbCircle
 10
23.719
 20
2.5
 30
0.0
 40
0.183
100
AcDbArc
 50
85.00000099999999
 51
5.0
  0
LINE
  5
CC4
330
1E
100
AcDbEntity
  8
0
  6
CONTINUOUS
 62
     5
100
AcDbLine
 10
23.719
 20
2.274999999999999
 30
0.0
 11
23.719
 21
2.725
 31
0.0
  0
CIRCLE
  5
CC5
330
1E
100
AcDbEntity
  8
0
  6
CONTINUOUS
 62
     5
100
AcDbCircle
 10
23.719
 20
2.5
 30
0.0
 40
0.156
  0
LINE
  5
CC6
330
1E
100
AcDbEntity
  8
0
  6
CONTINUOUS
 62
     5
100
AcDbLine
 10
23.493
 20
2.5
 30
0.0
 11
23.944
 21
2.5
 31
0.0
  0
TEXT
  5
CEA
330
1E
100
AcDbEntity
  8
0
 62
     5
100
AcDbText
 10
27.46164025
 20
10.128125
 30
0.0
 40
0.2125
  1
GB
 41
0.825
 72
     4
 11
27.607734
 21
10.234375
 31
0.0
100
AcDbText
  0
LINE
  5
CEB
330
1E
100
AcDbEntity
  8
0
  6
CONTINUOUS
 62
     5
100
AcDbLine
 10
26.90599999999999
 20
9.382999999999999
 30
0.0
 11
26.90599999999999
 21
10.429
 31
0.0
  0
CIRCLE
  5
CEC
330
1E
100
AcDbEntity
  8
0
  6
CONTINUOUS
 62
     5
100
AcDbCircle
 10
26.90599999999999
 20
9.906
 30
0.0
 40
0.435
  0
CIRCLE
  5
CED
330
1E
100
AcDbEntity
  8
0
  6
CONTINUOUS
 62
     5
100
AcDbCircle
 10
26.90599999999999
 20
3.75
 30
0.0
 40
0.604
  0
CIRCLE
  5
CEE
330
1E
100
AcDbEntity
  8
0
  6
CONTINUOUS
 62
     5
100
AcDbCircle
 10
26.90599999999999
 20
3.75
 30
0.0
 40
0.3439999999999999
  0
ARC
  5
CEF
330
1E
100
AcDbEntity
  8
0
  6
CONTINUOUS
 62
     5
100
AcDbCircle
 10
26.90599999999999
 20
3.75
 30
0.0
 40
0.4020000000000001
100
AcDbArc
 50
85.00000100000002
 51
4.999999999999999
  0
CIRCLE
  5
CF0
330
1E
100
AcDbEntity
  8
0
  6
CONTINUOUS
 62
     5
100
AcDbCircle
 10
26.90599999999999
 20
3.75
 30
0.0
 40
0.373
  0
CIRCLE
  5
CF1
330
1E
100
AcDbEntity
  8
0
  6
CONTINUOUS
 62
     5
100
AcDbCircle
 10
26.90599999999999
 20
3.75
 30
0.0
 40
0.412
  0
LINE
  5
CF2
330
1E
100
AcDbEntity
  8
0
  6
CONTINUOUS
 62
     5
100
AcDbLine
 10
26.90599999999999
 20
3.024999999999999
 30
0.0
 11
26.90599999999999
 21
4.474999999999998
 31
0.0
  0
LINE
  5
CF3
330
1E
100
AcDbEntity
  8
0
  6
CONTINUOUS
 62
     5
100
AcDbLine
 10
26.181
 20
3.75
 30
0.0
 11
27.62999999999999
 21
3.75
 31
0.0
  0
TEXT
  5
CF4
330
1E
100
AcDbEntity
  8
0
 62
     5
100
AcDbText
 10
27.4368625
 20
3.047370999999998
 30
0.0
 40
0.2125
  1
A
 41
0.825
 72
     4
 11
27.4953
 21
3.153620999999998
 31
0.0
100
AcDbText
  0
LINE
  5
CF5
330
1E
100
AcDbEntity
  8
0
  6
CONTINUOUS
 62
     5
100
AcDbLine
 10
26.383
 20
9.906
 30
0.0
 11
27.428
 21
9.906
 31
0.0
  0
CIRCLE
  5
CF6
330
1E
100
AcDbEntity
  8
0
  6
CONTINUOUS
 62
     5
100
AcDbCircle
 10
26.90599999999999
 20
5.25
 30
0.0
 40
0.412
  0
CIRCLE
  5
CF7
330
1E
100
AcDbEntity
  8
0
  6
CONTINUOUS
 62
     5
100
AcDbCircle
 10
26.90599999999999
 20
5.25
 30
0.0
 40
0.604
  0
LINE
  5
CF8
330
1E
100
AcDbEntity
  8
0
  6
CONTINUOUS
 62
     5
100
AcDbLine
 10
26.181
 20
5.25
 30
0.0
 11
27.62999999999999
 21
5.25
 31
0.0
  0
ARC
  5
CF9
330
1E
100
AcDbEntity
  8
0
  6
CONTINUOUS
 62
     5
100
AcDbCircle
 10
26.90599999999999
 20
5.25
 30
0.0
 40
0.4020000000000001
100
AcDbArc
 50
85.00000100000002
 51
4.999999999999999
  0
CIRCLE
  5
CFA
330
1E
100
AcDbEntity
  8
0
  6
CONTINUOUS
 62
     5
100
AcDbCircle
 10
26.90599999999999
 20
5.25
 30
0.0
 40
0.3439999999999999
  0
CIRCLE
  5
CFB
330
1E
100
AcDbEntity
  8
0
  6
CONTINUOUS
 62
     5
100
AcDbCircle
 10
26.90599999999999
 20
5.25
 30
0.0
 40
0.373
  0
LINE
  5
CFC
330
1E
100
AcDbEntity
  8
0
  6
CONTINUOUS
 62
     5
100
AcDbLine
 10
26.90599999999999
 20
4.525
 30
0.0
 11
26.90599999999999
 21
5.974999999999998
 31
0.0
  0
ARC
  5
CFD
330
1E
100
AcDbEntity
  8
0
  6
CONTINUOUS
 62
     5
100
AcDbCircle
 10
26.90599999999999
 20
9.906
 30
0.0
 40
0.164
100
AcDbArc
 50
85.00000100000002
 51
4.999999999999999
  0
CIRCLE
  5
CFE
330
1E
100
AcDbEntity
  8
0
  6
CONTINUOUS
 62
     5
100
AcDbCircle
 10
26.90599999999999
 20
9.906
 30
0.0
 40
0.14
  0
CIRCLE
  5
CFF
330
1E
100
AcDbEntity
  8
0
  6
CONTINUOUS
 62
     5
100
AcDbCircle
 10
26.90599999999999
 20
9.906
 30
0.0
 40
0.259
  0
CIRCLE
  5
D00
330
1E
100
AcDbEntity
  8
0
  6
CONTINUOUS
 62
     5
100
AcDbCircle
 10
26.90599999999999
 20
9.906
 30
0.0
 40
0.23
  0
TEXT
  5
D01
330
1E
100
AcDbEntity
  8
0
 62
     5
100
AcDbText
 10
27.4368625
 20
4.576980999999999
 30
0.0
 40
0.2125
  1
B
 41
0.825
 72
     4
 11
27.4953
 21
4.683231
 31
0.0
100
AcDbText
  0
LINE
  5
D02
330
1E
100
AcDbEntity
  8
0
  6
CONTINUOUS
 62
     5
100
AcDbLine
 10
27.334
 20
14.15399999999999
 30
0.0
 11
27.312
 21
14.15599999999999
 31
0.0
  0
LINE
  5
D03
330
1E
100
AcDbEntity
  8
0
  6
CONTINUOUS
 62
     5
100
AcDbLine
 10
27.312
 20
13.87599999999999
 30
0.0
 11
27.334
 21
13.878
 31
0.0
  0
LINE
  5
D04
330
1E
100
AcDbEntity
  8
0
  6
CONTINUOUS
 62
     5
100
AcDbLine
 10
27.163
 20
14.016
 30
0.0
 11
27.463
 21
14.016
 31
0.0
  0
CIRCLE
  5
D05
330
1E
100
AcDbEntity
  8
0
  6
CONTINUOUS
 62
     5
100
AcDbCircle
 10
26.265
 20
13.561
 30
0.0
 40
0.078
  0
LINE
  5
D06
330
1E
100
AcDbEntity
  8
0
  6
CONTINUOUS
 62
     5
100
AcDbLine
 10
26.265
 20
13.467
 30
0.0
 11
26.265
 21
13.65499999999999
 31
0.0
  0
CIRCLE
  5
D07
330
1E
100
AcDbEntity
  8
0
  6
CONTINUOUS
 62
     5
100
AcDbCircle
 10
26.90599999999999
 20
13.672
 30
0.0
 40
0.14
  0
LINE
  5
D08
330
1E
100
AcDbEntity
  8
0
  6
CONTINUOUS
 62
     5
100
AcDbLine
 10
26.90599999999999
 20
13.503
 30
0.0
 11
26.90599999999999
 21
13.841
 31
0.0
  0
CIRCLE
  5
D09
330
1E
100
AcDbEntity
  8
0
  6
CONTINUOUS
 62
     5
100
AcDbCircle
 10
26.26599999999999
 20
13.266
 30
0.0
 40
0.095
  0
LINE
  5
D0A
330
1E
100
AcDbEntity
  8
0
  6
CONTINUOUS
 62
     5
100
AcDbLine
 10
26.15199999999999
 20
13.266
 30
0.0
 11
26.38
 21
13.266
 31
0.0
  0
ARC
  5
D0B
330
1E
100
AcDbEntity
  8
0
  6
CONTINUOUS
 62
     5
100
AcDbCircle
 10
26.26599999999999
 20
13.266
 30
0.0
 40
0.087
100
AcDbArc
 50
85.00000099999999
 51
5.0
  0
CIRCLE
  5
D0C
330
1E
100
AcDbEntity
  8
0
  6
CONTINUOUS
 62
     5
100
AcDbCircle
 10
26.26599999999999
 20
13.266
 30
0.0
 40
0.075
  0
LINE
  5
D0D
330
1E
100
AcDbEntity
  8
0
  6
CONTINUOUS
 62
     5
100
AcDbLine
 10
26.26599999999999
 20
13.15199999999999
 30
0.0
 11
26.26599999999999
 21
13.38
 31
0.0
  0
ARC
  5
D0E
330
1E
100
AcDbEntity
  8
0
  6
CONTINUOUS
 62
     5
100
AcDbCircle
 10
26.29599999999999
 20
14.85999999999999
 30
0.0
 40
0.087
100
AcDbArc
 50
85.00000099999999
 51
5.0
  0
CIRCLE
  5
D0F
330
1E
100
AcDbEntity
  8
0
  6
CONTINUOUS
 62
     5
100
AcDbCircle
 10
26.29599999999999
 20
14.85999999999999
 30
0.0
 40
0.075
  0
LINE
  5
D10
330
1E
100
AcDbEntity
  8
0
  6
CONTINUOUS
 62
     5
100
AcDbLine
 10
26.172
 20
13.561
 30
0.0
 11
26.359
 21
13.561
 31
0.0
  0
LINE
  5
D11
330
1E
100
AcDbEntity
  8
0
  6
CONTINUOUS
 62
     5
100
AcDbLine
 10
26.182
 20
14.85999999999999
 30
0.0
 11
26.41
 21
14.85999999999999
 31
0.0
  0
CIRCLE
  5
D12
330
1E
100
AcDbEntity
  8
0
  6
CONTINUOUS
 62
     5
100
AcDbCircle
 10
26.29599999999999
 20
14.85999999999999
 30
0.0
 40
0.095
  0
LINE
  5
D13
330
1E
100
AcDbEntity
  8
0
  6
CONTINUOUS
 62
     5
100
AcDbLine
 10
26.29599999999999
 20
14.74599999999998
 30
0.0
 11
26.29599999999999
 21
14.974
 31
0.0
  0
LINE
  5
D14
330
1E
100
AcDbEntity
  8
0
  6
CONTINUOUS
 62
     5
100
AcDbLine
 10
26.90599999999999
 20
14.191
 30
0.0
 11
26.90599999999999
 21
14.529
 31
0.0
  0
CIRCLE
  5
D15
330
1E
100
AcDbEntity
  8
0
  6
CONTINUOUS
 62
     5
100
AcDbCircle
 10
26.90599999999999
 20
14.35999999999999
 30
0.0
 40
0.14
  0
LINE
  5
D16
330
1E
100
AcDbEntity
  8
0
  6
CONTINUOUS
 62
     5
100
AcDbLine
 10
26.737
 20
13.672
 30
0.0
 11
27.074
 21
13.672
 31
0.0
  0
LINE
  5
D17
330
1E
100
AcDbEntity
  8
0
  6
CONTINUOUS
 62
     5
100
AcDbLine
 10
26.5
 20
13.847
 30
0.0
 11
26.5
 21
14.185
 31
0.0
  0
CIRCLE
  5
D18
330
1E
100
AcDbEntity
  8
0
  6
CONTINUOUS
 62
     5
100
AcDbCircle
 10
26.5
 20
14.016
 30
0.0
 40
0.14
  0
LINE
  5
D19
330
1E
100
AcDbEntity
  8
0
  6
CONTINUOUS
 62
     5
100
AcDbLine
 10
26.33099999999998
 20
14.016
 30
0.0
 11
26.668
 21
14.016
 31
0.0
  0
LINE
  5
D1A
330
1E
100
AcDbEntity
  8
0
  6
CONTINUOUS
 62
     5
100
AcDbLine
 10
27.204
 20
13.946
 30
0.0
 11
27.217
 21
13.92599999999999
 31
0.0
  0
LINE
  5
D1B
330
1E
100
AcDbEntity
  8
0
  6
CONTINUOUS
 62
     5
100
AcDbLine
 10
27.312
 20
13.866
 30
0.0
 11
27.312
 21
14.16599999999998
 31
0.0
  0
LINE
  5
D1C
330
1E
100
AcDbEntity
  8
0
  6
CONTINUOUS
 62
     5
100
AcDbLine
 10
27.232
 20
13.909
 30
0.0
 11
27.25
 21
13.89499999999999
 31
0.0
  0
LINE
  5
D1D
330
1E
100
AcDbEntity
  8
0
  6
CONTINUOUS
 62
     5
100
AcDbLine
 10
27.217
 20
13.92599999999999
 30
0.0
 11
27.232
 21
13.909
 31
0.0
  0
LINE
  5
D1E
330
1E
100
AcDbEntity
  8
0
  6
CONTINUOUS
 62
     5
100
AcDbLine
 10
27.25
 20
13.89499999999999
 30
0.0
 11
27.27
 21
13.884
 31
0.0
  0
LINE
  5
D1F
330
1E
100
AcDbEntity
  8
0
  6
CONTINUOUS
 62
     5
100
AcDbLine
 10
27.27
 20
13.884
 30
0.0
 11
27.291
 21
13.878
 31
0.0
  0
LINE
  5
D20
330
1E
100
AcDbEntity
  8
0
  6
CONTINUOUS
 62
     5
100
AcDbLine
 10
27.291
 20
13.878
 30
0.0
 11
27.312
 21
13.87599999999999
 31
0.0
  0
LINE
  5
D21
330
1E
100
AcDbEntity
  8
0
  6
CONTINUOUS
 62
     5
100
AcDbLine
 10
27.25
 20
14.137
 30
0.0
 11
27.232
 21
14.123
 31
0.0
  0
LINE
  5
D22
330
1E
100
AcDbEntity
  8
0
  6
CONTINUOUS
 62
     5
100
AcDbLine
 10
27.232
 20
14.123
 30
0.0
 11
27.217
 21
14.106
 31
0.0
  0
LINE
  5
D23
330
1E
100
AcDbEntity
  8
0
  6
CONTINUOUS
 62
     5
100
AcDbLine
 10
27.217
 20
14.106
 30
0.0
 11
27.204
 21
14.08599999999998
 31
0.0
  0
LINE
  5
D24
330
1E
100
AcDbEntity
  8
0
  6
CONTINUOUS
 62
     5
100
AcDbLine
 10
27.204
 20
14.08599999999998
 30
0.0
 11
27.195
 21
14.064
 31
0.0
  0
LINE
  5
D25
330
1E
100
AcDbEntity
  8
0
  6
CONTINUOUS
 62
     5
100
AcDbLine
 10
27.195
 20
14.064
 30
0.0
 11
27.189
 21
14.03999999999999
 31
0.0
  0
LINE
  5
D26
330
1E
100
AcDbEntity
  8
0
  6
CONTINUOUS
 62
     5
100
AcDbLine
 10
27.189
 20
14.03999999999999
 30
0.0
 11
27.187
 21
14.016
 31
0.0
  0
LINE
  5
D27
330
1E
100
AcDbEntity
  8
0
  6
CONTINUOUS
 62
     5
100
AcDbLine
 10
27.187
 20
14.016
 30
0.0
 11
27.189
 21
13.992
 31
0.0
  0
LINE
  5
D28
330
1E
100
AcDbEntity
  8
0
  6
CONTINUOUS
 62
     5
100
AcDbLine
 10
27.189
 20
13.992
 30
0.0
 11
27.195
 21
13.968
 31
0.0
  0
LINE
  5
D29
330
1E
100
AcDbEntity
  8
0
  6
CONTINUOUS
 62
     5
100
AcDbLine
 10
27.195
 20
13.968
 30
0.0
 11
27.204
 21
13.946
 31
0.0
  0
LINE
  5
D2A
330
1E
100
AcDbEntity
  8
0
  6
CONTINUOUS
 62
     5
100
AcDbLine
 10
27.27
 20
14.148
 30
0.0
 11
27.25
 21
14.137
 31
0.0
  0
LINE
  5
D2B
330
1E
100
AcDbEntity
  8
0
  6
CONTINUOUS
 62
     5
100
AcDbLine
 10
27.312
 20
14.15599999999999
 30
0.0
 11
27.291
 21
14.15399999999999
 31
0.0
  0
LINE
  5
D2C
330
1E
100
AcDbEntity
  8
0
  6
CONTINUOUS
 62
     5
100
AcDbLine
 10
27.291
 20
14.15399999999999
 30
0.0
 11
27.27
 21
14.148
 31
0.0
  0
LINE
  5
D2D
330
1E
100
AcDbEntity
  8
0
  6
CONTINUOUS
 62
     5
100
AcDbLine
 10
26.737
 20
14.35999999999999
 30
0.0
 11
27.074
 21
14.35999999999999
 31
0.0
  0
LINE
  5
D2E
330
1E
100
AcDbEntity
  8
0
  6
CONTINUOUS
 62
     5
100
AcDbLine
 10
27.43199999999999
 20
13.266
 30
0.0
 11
27.66
 21
13.266
 31
0.0
  0
ARC
  5
D2F
330
1E
100
AcDbEntity
  8
0
  6
CONTINUOUS
 62
     5
100
AcDbCircle
 10
27.54599999999999
 20
13.266
 30
0.0
 40
0.087
100
AcDbArc
 50
85.00000099999999
 51
5.0
  0
CIRCLE
  5
D30
330
1E
100
AcDbEntity
  8
0
  6
CONTINUOUS
 62
     5
100
AcDbCircle
 10
27.54599999999999
 20
13.266
 30
0.0
 40
0.075
  0
CIRCLE
  5
D31
330
1E
100
AcDbEntity
  8
0
  6
CONTINUOUS
 62
     5
100
AcDbCircle
 10
27.54599999999999
 20
13.266
 30
0.0
 40
0.095
  0
LINE
  5
D32
330
1E
100
AcDbEntity
  8
0
  6
CONTINUOUS
 62
     5
100
AcDbLine
 10
27.54599999999999
 20
13.15199999999999
 30
0.0
 11
27.54599999999999
 21
13.38
 31
0.0
  0
LINE
  5
D33
330
1E
100
AcDbEntity
  8
0
  6
CONTINUOUS
 62
     5
100
AcDbLine
 10
27.408
 20
13.92599999999999
 30
0.0
 11
27.42099999999998
 21
13.946
 31
0.0
  0
LINE
  5
D34
330
1E
100
AcDbEntity
  8
0
  6
CONTINUOUS
 62
     5
100
AcDbLine
 10
27.375
 20
13.89499999999999
 30
0.0
 11
27.393
 21
13.909
 31
0.0
  0
LINE
  5
D35
330
1E
100
AcDbEntity
  8
0
  6
CONTINUOUS
 62
     5
100
AcDbLine
 10
27.355
 20
13.884
 30
0.0
 11
27.375
 21
13.89499999999999
 31
0.0
  0
LINE
  5
D36
330
1E
100
AcDbEntity
  8
0
  6
CONTINUOUS
 62
     5
100
AcDbLine
 10
27.334
 20
13.878
 30
0.0
 11
27.355
 21
13.884
 31
0.0
  0
LINE
  5
D37
330
1E
100
AcDbEntity
  8
0
  6
CONTINUOUS
 62
     5
100
AcDbLine
 10
27.393
 20
13.909
 30
0.0
 11
27.408
 21
13.92599999999999
 31
0.0
  0
LINE
  5
D38
330
1E
100
AcDbEntity
  8
0
  6
CONTINUOUS
 62
     5
100
AcDbLine
 10
27.43599999999998
 20
13.992
 30
0.0
 11
27.437
 21
14.016
 31
0.0
  0
LINE
  5
D39
330
1E
100
AcDbEntity
  8
0
  6
CONTINUOUS
 62
     5
100
AcDbLine
 10
27.437
 20
14.016
 30
0.0
 11
27.43599999999998
 21
14.03999999999999
 31
0.0
  0
LINE
  5
D3A
330
1E
100
AcDbEntity
  8
0
  6
CONTINUOUS
 62
     5
100
AcDbLine
 10
27.43
 20
13.968
 30
0.0
 11
27.43599999999998
 21
13.992
 31
0.0
  0
LINE
  5
D3B
330
1E
100
AcDbEntity
  8
0
  6
CONTINUOUS
 62
     5
100
AcDbLine
 10
27.43599999999998
 20
14.03999999999999
 30
0.0
 11
27.43
 21
14.064
 31
0.0
  0
LINE
  5
D3C
330
1E
100
AcDbEntity
  8
0
  6
CONTINUOUS
 62
     5
100
AcDbLine
 10
27.42099999999998
 20
13.946
 30
0.0
 11
27.43
 21
13.968
 31
0.0
  0
LINE
  5
D3D
330
1E
100
AcDbEntity
  8
0
  6
CONTINUOUS
 62
     5
100
AcDbLine
 10
27.43
 20
14.064
 30
0.0
 11
27.42099999999998
 21
14.08599999999998
 31
0.0
  0
LINE
  5
D3E
330
1E
100
AcDbEntity
  8
0
  6
CONTINUOUS
 62
     5
100
AcDbLine
 10
27.42099999999998
 20
14.08599999999998
 30
0.0
 11
27.408
 21
14.106
 31
0.0
  0
LINE
  5
D3F
330
1E
100
AcDbEntity
  8
0
  6
CONTINUOUS
 62
     5
100
AcDbLine
 10
27.393
 20
14.123
 30
0.0
 11
27.375
 21
14.137
 31
0.0
  0
LINE
  5
D40
330
1E
100
AcDbEntity
  8
0
  6
CONTINUOUS
 62
     5
100
AcDbLine
 10
27.375
 20
14.137
 30
0.0
 11
27.355
 21
14.148
 31
0.0
  0
LINE
  5
D41
330
1E
100
AcDbEntity
  8
0
  6
CONTINUOUS
 62
     5
100
AcDbLine
 10
27.355
 20
14.148
 30
0.0
 11
27.334
 21
14.15399999999999
 31
0.0
  0
LINE
  5
D42
330
1E
100
AcDbEntity
  8
0
  6
CONTINUOUS
 62
     5
100
AcDbLine
 10
27.408
 20
14.106
 30
0.0
 11
27.393
 21
14.123
 31
0.0
  0
CIRCLE
  5
D43
330
1E
100
AcDbEntity
  8
0
  6
CONTINUOUS
 62
     5
100
AcDbCircle
 10
27.51599999999999
 20
14.85999999999999
 30
0.0
 40
0.075
  0
ARC
  5
D44
330
1E
100
AcDbEntity
  8
0
  6
CONTINUOUS
 62
     5
100
AcDbCircle
 10
27.51599999999999
 20
14.85999999999999
 30
0.0
 40
0.087
100
AcDbArc
 50
85.00000099999999
 51
5.0
  0
CIRCLE
  5
D45
330
1E
100
AcDbEntity
  8
0
  6
CONTINUOUS
 62
     5
100
AcDbCircle
 10
27.51599999999999
 20
14.85999999999999
 30
0.0
 40
0.095
  0
LINE
  5
D46
330
1E
100
AcDbEntity
  8
0
  6
CONTINUOUS
 62
     5
100
AcDbLine
 10
27.402
 20
14.85999999999999
 30
0.0
 11
27.62999999999999
 21
14.85999999999999
 31
0.0
  0
LINE
  5
D47
330
1E
100
AcDbEntity
  8
0
  6
CONTINUOUS
 62
     5
100
AcDbLine
 10
27.51599999999999
 20
14.74599999999998
 30
0.0
 11
27.51599999999999
 21
14.974
 31
0.0
  0
CIRCLE
  5
D48
330
1E
100
AcDbEntity
  8
0
  6
CONTINUOUS
 62
     5
100
AcDbCircle
 10
26.90599999999999
 20
18.32799999999998
 30
0.0
 40
0.435
  0
LINE
  5
D49
330
1E
100
AcDbEntity
  8
0
  6
CONTINUOUS
 62
     5
100
AcDbLine
 10
26.383
 20
18.32799999999998
 30
0.0
 11
27.428
 21
18.32799999999998
 31
0.0
  0
CIRCLE
  5
D4A
330
1E
100
AcDbEntity
  8
0
  6
CONTINUOUS
 62
     5
100
AcDbCircle
 10
26.90599999999999
 20
18.32799999999998
 30
0.0
 40
0.14
  0
ARC
  5
D4B
330
1E
100
AcDbEntity
  8
0
  6
CONTINUOUS
 62
     5
100
AcDbCircle
 10
26.90599999999999
 20
18.32799999999998
 30
0.0
 40
0.164
100
AcDbArc
 50
85.00000100000002
 51
4.999999999999999
  0
LINE
  5
D4C
330
1E
100
AcDbEntity
  8
0
  6
CONTINUOUS
 62
     5
100
AcDbLine
 10
26.90599999999999
 20
17.80499999999999
 30
0.0
 11
26.90599999999999
 21
18.85099999999998
 31
0.0
  0
CIRCLE
  5
D4D
330
1E
100
AcDbEntity
  8
0
  6
CONTINUOUS
 62
     5
100
AcDbCircle
 10
26.90599999999999
 20
18.32799999999998
 30
0.0
 40
0.23
  0
CIRCLE
  5
D4E
330
1E
100
AcDbEntity
  8
0
  6
CONTINUOUS
 62
     5
100
AcDbCircle
 10
26.90599999999999
 20
18.32799999999998
 30
0.0
 40
0.259
  0
LWPOLYLINE
  5
D4F
330
1E
100
AcDbEntity
  8
0
  6
CONTINUOUS
 62
     5
100
AcDbPolyline
 90
        4
 70
     0
 43
0.0
 10
27.55598999999999
 20
18.098437
 10
27.497552
 20
17.88593699999998
 10
27.48692699999999
 20
17.88593699999998
 10
27.42849
 20
18.098437
  0
LWPOLYLINE
  5
D50
330
1E
100
AcDbEntity
  8
0
  6
CONTINUOUS
 62
     5
100
AcDbPolyline
 90
       20
 70
     0
 43
0.0
 10
27.61442699999999
 20
17.9125
 10
27.61974
 20
17.901875
 10
27.630365
 20
17.89125
 10
27.651615
 20
17.88593699999998
 10
27.68348999999999
 20
17.88593699999998
 10
27.70474
 20
17.896562
 10
27.720677
 20
17.91781199999998
 10
27.73130199999998
 20
17.944375
 10
27.736615
 20
17.97625
 10
27.736615
 20
18.013437
 10
27.73130199999998
 20
18.04531199999998
 10
27.720677
 20
18.066562
 10
27.70474
 20
18.087812
 10
27.68348999999999
 20
18.098437
 10
27.646302
 20
18.098437
 10
27.630365
 20
18.093125
 10
27.61974
 20
18.0825
 10
27.60911499999999
 20
18.06125
 10
27.60911499999999
 20
18.00281199999998
 10
27.66224
 20
18.00281199999998
  0
LINE
  5
D51
330
1E
100
AcDbEntity
  8
0
  6
CONTINUOUS
 62
     5
100
AcDbLine
 10
27.53473999999999
 20
18.024062
 30
0.0
 11
27.44974
 21
18.024062
 31
0.0
  0
CIRCLE
  5
D75
330
1E
100
AcDbEntity
  8
0
  6
CONTINUOUS
 62
     5
100
AcDbCircle
 10
29.03099999999999
 20
9.906
 30
0.0
 40
0.435
  0
LINE
  5
D76
330
1E
100
AcDbEntity
  8
0
  6
CONTINUOUS
 62
     5
100
AcDbLine
 10
29.03099999999999
 20
9.382999999999999
 30
0.0
 11
29.03099999999999
 21
10.429
 31
0.0
  0
TEXT
  5
D77
330
1E
100
AcDbEntity
  8
0
 62
     5
100
AcDbText
 10
29.58664025
 20
10.128125
 30
0.0
 40
0.2125
  1
GB
 41
0.825
 72
     4
 11
29.732734
 21
10.234375
 31
0.0
100
AcDbText
  0
LINE
  5
D78
330
1E
100
AcDbEntity
  8
0
  6
CONTINUOUS
 62
     5
100
AcDbLine
 10
29.03099999999999
 20
3.024999999999999
 30
0.0
 11
29.03099999999999
 21
4.474999999999998
 31
0.0
  0
CIRCLE
  5
D79
330
1E
100
AcDbEntity
  8
0
  6
CONTINUOUS
 62
     5
100
AcDbCircle
 10
29.03099999999999
 20
3.75
 30
0.0
 40
0.412
  0
CIRCLE
  5
D7A
330
1E
100
AcDbEntity
  8
0
  6
CONTINUOUS
 62
     5
100
AcDbCircle
 10
29.03099999999999
 20
3.75
 30
0.0
 40
0.373
  0
ARC
  5
D7B
330
1E
100
AcDbEntity
  8
0
  6
CONTINUOUS
 62
     5
100
AcDbCircle
 10
29.03099999999999
 20
3.75
 30
0.0
 40
0.4020000000000001
100
AcDbArc
 50
85.00000100000002
 51
4.999999999999999
  0
CIRCLE
  5
D7C
330
1E
100
AcDbEntity
  8
0
  6
CONTINUOUS
 62
     5
100
AcDbCircle
 10
29.03099999999999
 20
3.75
 30
0.0
 40
0.3439999999999999
  0
CIRCLE
  5
D7D
330
1E
100
AcDbEntity
  8
0
  6
CONTINUOUS
 62
     5
100
AcDbCircle
 10
29.03099999999999
 20
3.75
 30
0.0
 40
0.604
  0
LINE
  5
D7E
330
1E
100
AcDbEntity
  8
0
  6
CONTINUOUS
 62
     5
100
AcDbLine
 10
28.306
 20
3.75
 30
0.0
 11
29.75499999999999
 21
3.75
 31
0.0
  0
TEXT
  5
D7F
330
1E
100
AcDbEntity
  8
0
 62
     5
100
AcDbText
 10
29.5618625
 20
3.047370999999998
 30
0.0
 40
0.2125
  1
A
 41
0.825
 72
     4
 11
29.6203
 21
3.153620999999998
 31
0.0
100
AcDbText
  0
CIRCLE
  5
D80
330
1E
100
AcDbEntity
  8
0
  6
CONTINUOUS
 62
     5
100
AcDbCircle
 10
29.03099999999999
 20
5.25
 30
0.0
 40
0.373
  0
CIRCLE
  5
D81
330
1E
100
AcDbEntity
  8
0
  6
CONTINUOUS
 62
     5
100
AcDbCircle
 10
29.03099999999999
 20
5.25
 30
0.0
 40
0.3439999999999999
  0
ARC
  5
D82
330
1E
100
AcDbEntity
  8
0
  6
CONTINUOUS
 62
     5
100
AcDbCircle
 10
29.03099999999999
 20
5.25
 30
0.0
 40
0.4020000000000001
100
AcDbArc
 50
85.00000100000002
 51
4.999999999999999
  0
LINE
  5
D83
330
1E
100
AcDbEntity
  8
0
  6
CONTINUOUS
 62
     5
100
AcDbLine
 10
28.306
 20
5.25
 30
0.0
 11
29.75499999999999
 21
5.25
 31
0.0
  0
CIRCLE
  5
D84
330
1E
100
AcDbEntity
  8
0
  6
CONTINUOUS
 62
     5
100
AcDbCircle
 10
29.03099999999999
 20
5.25
 30
0.0
 40
0.604
  0
CIRCLE
  5
D85
330
1E
100
AcDbEntity
  8
0
  6
CONTINUOUS
 62
     5
100
AcDbCircle
 10
29.03099999999999
 20
5.25
 30
0.0
 40
0.412
  0
LINE
  5
D86
330
1E
100
AcDbEntity
  8
0
  6
CONTINUOUS
 62
     5
100
AcDbLine
 10
29.03099999999999
 20
4.525
 30
0.0
 11
29.03099999999999
 21
5.974999999999998
 31
0.0
  0
TEXT
  5
D87
330
1E
100
AcDbEntity
  8
0
 62
     5
100
AcDbText
 10
29.5618625
 20
4.576980999999999
 30
0.0
 40
0.2125
  1
B
 41
0.825
 72
     4
 11
29.6203
 21
4.683231
 31
0.0
100
AcDbText
  0
LINE
  5
D88
330
1E
100
AcDbEntity
  8
0
  6
CONTINUOUS
 62
     5
100
AcDbLine
 10
28.50799999999999
 20
9.906
 30
0.0
 11
29.553
 21
9.906
 31
0.0
  0
CIRCLE
  5
D89
330
1E
100
AcDbEntity
  8
0
  6
CONTINUOUS
 62
     5
100
AcDbCircle
 10
29.03099999999999
 20
9.906
 30
0.0
 40
0.23
  0
CIRCLE
  5
D8A
330
1E
100
AcDbEntity
  8
0
  6
CONTINUOUS
 62
     5
100
AcDbCircle
 10
29.03099999999999
 20
9.906
 30
0.0
 40
0.259
  0
CIRCLE
  5
D8B
330
1E
100
AcDbEntity
  8
0
  6
CONTINUOUS
 62
     5
100
AcDbCircle
 10
29.03099999999999
 20
9.906
 30
0.0
 40
0.14
  0
ARC
  5
D8C
330
1E
100
AcDbEntity
  8
0
  6
CONTINUOUS
 62
     5
100
AcDbCircle
 10
29.03099999999999
 20
9.906
 30
0.0
 40
0.164
100
AcDbArc
 50
85.00000100000002
 51
4.999999999999999
  0
LINE
  5
D8D
330
1E
100
AcDbEntity
  8
0
  6
CONTINUOUS
 62
     5
100
AcDbLine
 10
29.03099999999999
 20
13.503
 30
0.0
 11
29.03099999999999
 21
13.841
 31
0.0
  0
CIRCLE
  5
D8E
330
1E
100
AcDbEntity
  8
0
  6
CONTINUOUS
 62
     5
100
AcDbCircle
 10
29.03099999999999
 20
13.672
 30
0.0
 40
0.14
  0
LINE
  5
D8F
330
1E
100
AcDbEntity
  8
0
  6
CONTINUOUS
 62
     5
100
AcDbLine
 10
28.39
 20
13.467
 30
0.0
 11
28.39
 21
13.65499999999999
 31
0.0
  0
CIRCLE
  5
D90
330
1E
100
AcDbEntity
  8
0
  6
CONTINUOUS
 62
     5
100
AcDbCircle
 10
28.39
 20
13.561
 30
0.0
 40
0.078
  0
CIRCLE
  5
D91
330
1E
100
AcDbEntity
  8
0
  6
CONTINUOUS
 62
     5
100
AcDbCircle
 10
28.39099999999999
 20
13.266
 30
0.0
 40
0.075
  0
ARC
  5
D92
330
1E
100
AcDbEntity
  8
0
  6
CONTINUOUS
 62
     5
100
AcDbCircle
 10
28.39099999999999
 20
13.266
 30
0.0
 40
0.087
100
AcDbArc
 50
85.00000099999999
 51
5.0
  0
LINE
  5
D93
330
1E
100
AcDbEntity
  8
0
  6
CONTINUOUS
 62
     5
100
AcDbLine
 10
28.27699999999999
 20
13.266
 30
0.0
 11
28.505
 21
13.266
 31
0.0
  0
CIRCLE
  5
D94
330
1E
100
AcDbEntity
  8
0
  6
CONTINUOUS
 62
     5
100
AcDbCircle
 10
28.39099999999999
 20
13.266
 30
0.0
 40
0.095
  0
LINE
  5
D95
330
1E
100
AcDbEntity
  8
0
  6
CONTINUOUS
 62
     5
100
AcDbLine
 10
28.39099999999999
 20
13.15199999999999
 30
0.0
 11
28.39099999999999
 21
13.38
 31
0.0
  0
CIRCLE
  5
D96
330
1E
100
AcDbEntity
  8
0
  6
CONTINUOUS
 62
     5
100
AcDbCircle
 10
29.67099999999998
 20
13.266
 30
0.0
 40
0.095
  0
CIRCLE
  5
D97
330
1E
100
AcDbEntity
  8
0
  6
CONTINUOUS
 62
     5
100
AcDbCircle
 10
29.67099999999998
 20
13.266
 30
0.0
 40
0.075
  0
ARC
  5
D98
330
1E
100
AcDbEntity
  8
0
  6
CONTINUOUS
 62
     5
100
AcDbCircle
 10
29.67099999999998
 20
13.266
 30
0.0
 40
0.087
100
AcDbArc
 50
85.00000099999999
 51
5.0
  0
LINE
  5
D99
330
1E
100
AcDbEntity
  8
0
  6
CONTINUOUS
 62
     5
100
AcDbLine
 10
29.55699999999999
 20
13.266
 30
0.0
 11
29.785
 21
13.266
 31
0.0
  0
LINE
  5
D9A
330
1E
100
AcDbEntity
  8
0
  6
CONTINUOUS
 62
     5
100
AcDbLine
 10
29.67099999999998
 20
13.15199999999999
 30
0.0
 11
29.67099999999998
 21
13.38
 31
0.0
  0
LINE
  5
D9B
330
1E
100
AcDbEntity
  8
0
  6
CONTINUOUS
 62
     5
100
AcDbLine
 10
29.357
 20
14.123
 30
0.0
 11
29.342
 21
14.106
 31
0.0
  0
LINE
  5
D9C
330
1E
100
AcDbEntity
  8
0
  6
CONTINUOUS
 62
     5
100
AcDbLine
 10
29.342
 20
13.92599999999999
 30
0.0
 11
29.357
 21
13.909
 31
0.0
  0
LINE
  5
D9D
330
1E
100
AcDbEntity
  8
0
  6
CONTINUOUS
 62
     5
100
AcDbLine
 10
29.288
 20
14.016
 30
0.0
 11
29.588
 21
14.016
 31
0.0
  0
CIRCLE
  5
D9E
330
1E
100
AcDbEntity
  8
0
  6
CONTINUOUS
 62
     5
100
AcDbCircle
 10
28.42099999999999
 20
14.85999999999999
 30
0.0
 40
0.095
  0
LINE
  5
D9F
330
1E
100
AcDbEntity
  8
0
  6
CONTINUOUS
 62
     5
100
AcDbLine
 10
28.307
 20
14.85999999999999
 30
0.0
 11
28.535
 21
14.85999999999999
 31
0.0
  0
LINE
  5
DA0
330
1E
100
AcDbEntity
  8
0
  6
CONTINUOUS
 62
     5
100
AcDbLine
 10
28.297
 20
13.561
 30
0.0
 11
28.484
 21
13.561
 31
0.0
  0
CIRCLE
  5
DA1
330
1E
100
AcDbEntity
  8
0
  6
CONTINUOUS
 62
     5
100
AcDbCircle
 10
29.03099999999999
 20
14.35999999999999
 30
0.0
 40
0.14
  0
LINE
  5
DA2
330
1E
100
AcDbEntity
  8
0
  6
CONTINUOUS
 62
     5
100
AcDbLine
 10
29.03099999999999
 20
14.191
 30
0.0
 11
29.03099999999999
 21
14.529
 31
0.0
  0
CIRCLE
  5
DA3
330
1E
100
AcDbEntity
  8
0
  6
CONTINUOUS
 62
     5
100
AcDbCircle
 10
28.625
 20
14.016
 30
0.0
 40
0.14
  0
LINE
  5
DA4
330
1E
100
AcDbEntity
  8
0
  6
CONTINUOUS
 62
     5
100
AcDbLine
 10
28.625
 20
13.847
 30
0.0
 11
28.625
 21
14.185
 31
0.0
  0
LINE
  5
DA5
330
1E
100
AcDbEntity
  8
0
  6
CONTINUOUS
 62
     5
100
AcDbLine
 10
28.45599999999999
 20
14.016
 30
0.0
 11
28.793
 21
14.016
 31
0.0
  0
LINE
  5
DA6
330
1E
100
AcDbEntity
  8
0
  6
CONTINUOUS
 62
     5
100
AcDbLine
 10
29.329
 20
13.946
 30
0.0
 11
29.342
 21
13.92599999999999
 31
0.0
  0
LINE
  5
DA7
330
1E
100
AcDbEntity
  8
0
  6
CONTINUOUS
 62
     5
100
AcDbLine
 10
28.862
 20
13.672
 30
0.0
 11
29.199
 21
13.672
 31
0.0
  0
LINE
  5
DA8
330
1E
100
AcDbEntity
  8
0
  6
CONTINUOUS
 62
     5
100
AcDbLine
 10
29.32
 20
13.968
 30
0.0
 11
29.329
 21
13.946
 31
0.0
  0
LINE
  5
DA9
330
1E
100
AcDbEntity
  8
0
  6
CONTINUOUS
 62
     5
100
AcDbLine
 10
29.314
 20
13.992
 30
0.0
 11
29.32
 21
13.968
 31
0.0
  0
LINE
  5
DAA
330
1E
100
AcDbEntity
  8
0
  6
CONTINUOUS
 62
     5
100
AcDbLine
 10
29.312
 20
14.016
 30
0.0
 11
29.314
 21
13.992
 31
0.0
  0
LINE
  5
DAB
330
1E
100
AcDbEntity
  8
0
  6
CONTINUOUS
 62
     5
100
AcDbLine
 10
29.314
 20
14.03999999999999
 30
0.0
 11
29.312
 21
14.016
 31
0.0
  0
LINE
  5
DAC
330
1E
100
AcDbEntity
  8
0
  6
CONTINUOUS
 62
     5
100
AcDbLine
 10
29.32
 20
14.064
 30
0.0
 11
29.314
 21
14.03999999999999
 31
0.0
  0
LINE
  5
DAD
330
1E
100
AcDbEntity
  8
0
  6
CONTINUOUS
 62
     5
100
AcDbLine
 10
29.329
 20
14.08599999999998
 30
0.0
 11
29.32
 21
14.064
 31
0.0
  0
LINE
  5
DAE
330
1E
100
AcDbEntity
  8
0
  6
CONTINUOUS
 62
     5
100
AcDbLine
 10
29.342
 20
14.106
 30
0.0
 11
29.329
 21
14.08599999999998
 31
0.0
  0
LINE
  5
DAF
330
1E
100
AcDbEntity
  8
0
  6
CONTINUOUS
 62
     5
100
AcDbLine
 10
28.42099999999999
 20
14.74599999999998
 30
0.0
 11
28.42099999999999
 21
14.974
 31
0.0
  0
CIRCLE
  5
DB0
330
1E
100
AcDbEntity
  8
0
  6
CONTINUOUS
 62
     5
100
AcDbCircle
 10
28.42099999999999
 20
14.85999999999999
 30
0.0
 40
0.075
  0
ARC
  5
DB1
330
1E
100
AcDbEntity
  8
0
  6
CONTINUOUS
 62
     5
100
AcDbCircle
 10
28.42099999999999
 20
14.85999999999999
 30
0.0
 40
0.087
100
AcDbArc
 50
85.00000099999999
 51
5.0
  0
LINE
  5
DB2
330
1E
100
AcDbEntity
  8
0
  6
CONTINUOUS
 62
     5
100
AcDbLine
 10
28.862
 20
14.35999999999999
 30
0.0
 11
29.199
 21
14.35999999999999
 31
0.0
  0
LINE
  5
DB3
330
1E
100
AcDbEntity
  8
0
  6
CONTINUOUS
 62
     5
100
AcDbLine
 10
29.533
 20
13.92599999999999
 30
0.0
 11
29.54599999999998
 21
13.946
 31
0.0
  0
LINE
  5
DB4
330
1E
100
AcDbEntity
  8
0
  6
CONTINUOUS
 62
     5
100
AcDbLine
 10
29.437
 20
13.866
 30
0.0
 11
29.437
 21
14.16599999999998
 31
0.0
  0
LINE
  5
DB5
330
1E
100
AcDbEntity
  8
0
  6
CONTINUOUS
 62
     5
100
AcDbLine
 10
29.518
 20
13.909
 30
0.0
 11
29.533
 21
13.92599999999999
 31
0.0
  0
LINE
  5
DB6
330
1E
100
AcDbEntity
  8
0
  6
CONTINUOUS
 62
     5
100
AcDbLine
 10
29.45899999999999
 20
13.878
 30
0.0
 11
29.48
 21
13.884
 31
0.0
  0
LINE
  5
DB7
330
1E
100
AcDbEntity
  8
0
  6
CONTINUOUS
 62
     5
100
AcDbLine
 10
29.48
 20
13.884
 30
0.0
 11
29.5
 21
13.89499999999999
 31
0.0
  0
LINE
  5
DB8
330
1E
100
AcDbEntity
  8
0
  6
CONTINUOUS
 62
     5
100
AcDbLine
 10
29.5
 20
13.89499999999999
 30
0.0
 11
29.518
 21
13.909
 31
0.0
  0
LINE
  5
DB9
330
1E
100
AcDbEntity
  8
0
  6
CONTINUOUS
 62
     5
100
AcDbLine
 10
29.416
 20
13.878
 30
0.0
 11
29.437
 21
13.87599999999999
 31
0.0
  0
LINE
  5
DBA
330
1E
100
AcDbEntity
  8
0
  6
CONTINUOUS
 62
     5
100
AcDbLine
 10
29.395
 20
13.884
 30
0.0
 11
29.416
 21
13.878
 31
0.0
  0
LINE
  5
DBB
330
1E
100
AcDbEntity
  8
0
  6
CONTINUOUS
 62
     5
100
AcDbLine
 10
29.375
 20
13.89499999999999
 30
0.0
 11
29.395
 21
13.884
 31
0.0
  0
LINE
  5
DBC
330
1E
100
AcDbEntity
  8
0
  6
CONTINUOUS
 62
     5
100
AcDbLine
 10
29.357
 20
13.909
 30
0.0
 11
29.375
 21
13.89499999999999
 31
0.0
  0
LINE
  5
DBD
330
1E
100
AcDbEntity
  8
0
  6
CONTINUOUS
 62
     5
100
AcDbLine
 10
29.437
 20
13.87599999999999
 30
0.0
 11
29.45899999999999
 21
13.878
 31
0.0
  0
LINE
  5
DBE
330
1E
100
AcDbEntity
  8
0
  6
CONTINUOUS
 62
     5
100
AcDbLine
 10
29.533
 20
14.106
 30
0.0
 11
29.518
 21
14.123
 31
0.0
  0
LINE
  5
DBF
330
1E
100
AcDbEntity
  8
0
  6
CONTINUOUS
 62
     5
100
AcDbLine
 10
29.48
 20
14.148
 30
0.0
 11
29.45899999999999
 21
14.15399999999999
 31
0.0
  0
LINE
  5
DC0
330
1E
100
AcDbEntity
  8
0
  6
CONTINUOUS
 62
     5
100
AcDbLine
 10
29.5
 20
14.137
 30
0.0
 11
29.48
 21
14.148
 31
0.0
  0
LINE
  5
DC1
330
1E
100
AcDbEntity
  8
0
  6
CONTINUOUS
 62
     5
100
AcDbLine
 10
29.518
 20
14.123
 30
0.0
 11
29.5
 21
14.137
 31
0.0
  0
LINE
  5
DC2
330
1E
100
AcDbEntity
  8
0
  6
CONTINUOUS
 62
     5
100
AcDbLine
 10
29.54599999999998
 20
14.08599999999998
 30
0.0
 11
29.533
 21
14.106
 31
0.0
  0
LINE
  5
DC3
330
1E
100
AcDbEntity
  8
0
  6
CONTINUOUS
 62
     5
100
AcDbLine
 10
29.555
 20
14.064
 30
0.0
 11
29.54599999999998
 21
14.08599999999998
 31
0.0
  0
LINE
  5
DC4
330
1E
100
AcDbEntity
  8
0
  6
CONTINUOUS
 62
     5
100
AcDbLine
 10
29.54599999999998
 20
13.946
 30
0.0
 11
29.555
 21
13.968
 31
0.0
  0
LINE
  5
DC5
330
1E
100
AcDbEntity
  8
0
  6
CONTINUOUS
 62
     5
100
AcDbLine
 10
29.56099999999998
 20
14.03999999999999
 30
0.0
 11
29.555
 21
14.064
 31
0.0
  0
LINE
  5
DC6
330
1E
100
AcDbEntity
  8
0
  6
CONTINUOUS
 62
     5
100
AcDbLine
 10
29.555
 20
13.968
 30
0.0
 11
29.56099999999998
 21
13.992
 31
0.0
  0
LINE
  5
DC7
330
1E
100
AcDbEntity
  8
0
  6
CONTINUOUS
 62
     5
100
AcDbLine
 10
29.562
 20
14.016
 30
0.0
 11
29.56099999999998
 21
14.03999999999999
 31
0.0
  0
LINE
  5
DC8
330
1E
100
AcDbEntity
  8
0
  6
CONTINUOUS
 62
     5
100
AcDbLine
 10
29.56099999999998
 20
13.992
 30
0.0
 11
29.562
 21
14.016
 31
0.0
  0
LINE
  5
DC9
330
1E
100
AcDbEntity
  8
0
  6
CONTINUOUS
 62
     5
100
AcDbLine
 10
29.416
 20
14.15399999999999
 30
0.0
 11
29.395
 21
14.148
 31
0.0
  0
LINE
  5
DCA
330
1E
100
AcDbEntity
  8
0
  6
CONTINUOUS
 62
     5
100
AcDbLine
 10
29.437
 20
14.15599999999999
 30
0.0
 11
29.416
 21
14.15399999999999
 31
0.0
  0
LINE
  5
DCB
330
1E
100
AcDbEntity
  8
0
  6
CONTINUOUS
 62
     5
100
AcDbLine
 10
29.395
 20
14.148
 30
0.0
 11
29.375
 21
14.137
 31
0.0
  0
LINE
  5
DCC
330
1E
100
AcDbEntity
  8
0
  6
CONTINUOUS
 62
     5
100
AcDbLine
 10
29.375
 20
14.137
 30
0.0
 11
29.357
 21
14.123
 31
0.0
  0
LINE
  5
DCD
330
1E
100
AcDbEntity
  8
0
  6
CONTINUOUS
 62
     5
100
AcDbLine
 10
29.45899999999999
 20
14.15399999999999
 30
0.0
 11
29.437
 21
14.15599999999999
 31
0.0
  0
LINE
  5
DCE
330
1E
100
AcDbEntity
  8
0
  6
CONTINUOUS
 62
     5
100
AcDbLine
 10
29.527
 20
14.85999999999999
 30
0.0
 11
29.75499999999999
 21
14.85999999999999
 31
0.0
  0
CIRCLE
  5
DCF
330
1E
100
AcDbEntity
  8
0
  6
CONTINUOUS
 62
     5
100
AcDbCircle
 10
29.64099999999999
 20
14.85999999999999
 30
0.0
 40
0.095
  0
ARC
  5
DD0
330
1E
100
AcDbEntity
  8
0
  6
CONTINUOUS
 62
     5
100
AcDbCircle
 10
29.64099999999999
 20
14.85999999999999
 30
0.0
 40
0.087
100
AcDbArc
 50
85.00000099999999
 51
5.0
  0
CIRCLE
  5
DD1
330
1E
100
AcDbEntity
  8
0
  6
CONTINUOUS
 62
     5
100
AcDbCircle
 10
29.64099999999999
 20
14.85999999999999
 30
0.0
 40
0.075
  0
LINE
  5
DD2
330
1E
100
AcDbEntity
  8
0
  6
CONTINUOUS
 62
     5
100
AcDbLine
 10
29.64099999999999
 20
14.74599999999998
 30
0.0
 11
29.64099999999999
 21
14.974
 31
0.0
  0
LINE
  5
DD3
330
1E
100
AcDbEntity
  8
0
  6
CONTINUOUS
 62
     5
100
AcDbLine
 10
28.50799999999999
 20
18.32799999999998
 30
0.0
 11
29.553
 21
18.32799999999998
 31
0.0
  0
CIRCLE
  5
DD4
330
1E
100
AcDbEntity
  8
0
  6
CONTINUOUS
 62
     5
100
AcDbCircle
 10
29.03099999999999
 20
18.32799999999998
 30
0.0
 40
0.435
  0
CIRCLE
  5
DD5
330
1E
100
AcDbEntity
  8
0
  6
CONTINUOUS
 62
     5
100
AcDbCircle
 10
29.03099999999999
 20
18.32799999999998
 30
0.0
 40
0.259
  0
CIRCLE
  5
DD6
330
1E
100
AcDbEntity
  8
0
  6
CONTINUOUS
 62
     5
100
AcDbCircle
 10
29.03099999999999
 20
18.32799999999998
 30
0.0
 40
0.23
  0
LINE
  5
DD7
330
1E
100
AcDbEntity
  8
0
  6
CONTINUOUS
 62
     5
100
AcDbLine
 10
29.03099999999999
 20
17.80499999999999
 30
0.0
 11
29.03099999999999
 21
18.85099999999998
 31
0.0
  0
ARC
  5
DD8
330
1E
100
AcDbEntity
  8
0
  6
CONTINUOUS
 62
     5
100
AcDbCircle
 10
29.03099999999999
 20
18.32799999999998
 30
0.0
 40
0.164
100
AcDbArc
 50
85.00000100000002
 51
4.999999999999999
  0
CIRCLE
  5
DD9
330
1E
100
AcDbEntity
  8
0
  6
CONTINUOUS
 62
     5
100
AcDbCircle
 10
29.03099999999999
 20
18.32799999999998
 30
0.0
 40
0.14
  0
LWPOLYLINE
  5
DDA
330
1E
100
AcDbEntity
  8
0
  6
CONTINUOUS
 62
     5
100
AcDbPolyline
 90
       20
 70
     0
 43
0.0
 10
29.73942699999999
 20
17.9125
 10
29.74474
 20
17.901875
 10
29.755365
 20
17.89125
 10
29.77661499999999
 20
17.88593699999998
 10
29.80848999999999
 20
17.88593699999998
 10
29.82974
 20
17.896562
 10
29.84567699999999
 20
17.91781199999998
 10
29.85630199999999
 20
17.944375
 10
29.861615
 20
17.97625
 10
29.861615
 20
18.013437
 10
29.85630199999999
 20
18.04531199999998
 10
29.84567699999999
 20
18.066562
 10
29.82974
 20
18.087812
 10
29.80848999999999
 20
18.098437
 10
29.77130199999999
 20
18.098437
 10
29.755365
 20
18.093125
 10
29.74474
 20
18.0825
 10
29.73411499999999
 20
18.06125
 10
29.73411499999999
 20
18.00281199999998
 10
29.78724
 20
18.00281199999998
  0
LWPOLYLINE
  5
DDB
330
1E
100
AcDbEntity
  8
0
  6
CONTINUOUS
 62
     5
100
AcDbPolyline
 90
        4
 70
     0
 43
0.0
 10
29.68098999999999
 20
18.098437
 10
29.62255199999999
 20
17.88593699999998
 10
29.61192699999999
 20
17.88593699999998
 10
29.55349
 20
18.098437
  0
LINE
  5
DDC
330
1E
100
AcDbEntity
  8
0
  6
CONTINUOUS
 62
     5
100
AcDbLine
 10
29.65973999999999
 20
18.024062
 30
0.0
 11
29.57473999999999
 21
18.024062
 31
0.0
  0
TEXT
  5
E00
330
1E
100
AcDbEntity
  8
0
 62
     5
100
AcDbText
 10
31.71164025
 20
10.128125
 30
0.0
 40
0.2125
  1
GB
 41
0.825
 72
     4
 11
31.857734
 21
10.234375
 31
0.0
100
AcDbText
  0
LINE
  5
E01
330
1E
100
AcDbEntity
  8
0
  6
CONTINUOUS
 62
     5
100
AcDbLine
 10
31.15599999999999
 20
9.382999999999999
 30
0.0
 11
31.15599999999999
 21
10.429
 31
0.0
  0
CIRCLE
  5
E02
330
1E
100
AcDbEntity
  8
0
  6
CONTINUOUS
 62
     5
100
AcDbCircle
 10
31.15599999999999
 20
9.906
 30
0.0
 40
0.435
  0
CIRCLE
  5
E03
330
1E
100
AcDbEntity
  8
0
  6
CONTINUOUS
 62
     5
100
AcDbCircle
 10
31.15599999999999
 20
9.906
 30
0.0
 40
0.259
  0
CIRCLE
  5
E04
330
1E
100
AcDbEntity
  8
0
  6
CONTINUOUS
 62
     5
100
AcDbCircle
 10
31.15599999999999
 20
9.906
 30
0.0
 40
0.23
  0
LINE
  5
E05
330
1E
100
AcDbEntity
  8
0
  6
CONTINUOUS
 62
     5
100
AcDbLine
 10
30.63299999999999
 20
9.906
 30
0.0
 11
31.678
 21
9.906
 31
0.0
  0
CIRCLE
  5
E06
330
1E
100
AcDbEntity
  8
0
  6
CONTINUOUS
 62
     5
100
AcDbCircle
 10
31.15599999999999
 20
5.25
 30
0.0
 40
0.412
  0
CIRCLE
  5
E07
330
1E
100
AcDbEntity
  8
0
  6
CONTINUOUS
 62
     5
100
AcDbCircle
 10
31.15599999999999
 20
5.25
 30
0.0
 40
0.604
  0
LINE
  5
E08
330
1E
100
AcDbEntity
  8
0
  6
CONTINUOUS
 62
     5
100
AcDbLine
 10
30.43099999999999
 20
5.25
 30
0.0
 11
31.87999999999999
 21
5.25
 31
0.0
  0
ARC
  5
E09
330
1E
100
AcDbEntity
  8
0
  6
CONTINUOUS
 62
     5
100
AcDbCircle
 10
31.15599999999999
 20
5.25
 30
0.0
 40
0.4020000000000001
100
AcDbArc
 50
85.00000100000002
 51
4.999999999999999
  0
CIRCLE
  5
E0A
330
1E
100
AcDbEntity
  8
0
  6
CONTINUOUS
 62
     5
100
AcDbCircle
 10
31.15599999999999
 20
5.25
 30
0.0
 40
0.3439999999999999
  0
CIRCLE
  5
E0B
330
1E
100
AcDbEntity
  8
0
  6
CONTINUOUS
 62
     5
100
AcDbCircle
 10
31.15599999999999
 20
5.25
 30
0.0
 40
0.373
  0
LINE
  5
E0C
330
1E
100
AcDbEntity
  8
0
  6
CONTINUOUS
 62
     5
100
AcDbLine
 10
30.43099999999999
 20
3.75
 30
0.0
 11
31.87999999999999
 21
3.75
 31
0.0
  0
CIRCLE
  5
E0D
330
1E
100
AcDbEntity
  8
0
  6
CONTINUOUS
 62
     5
100
AcDbCircle
 10
31.15599999999999
 20
3.75
 30
0.0
 40
0.604
  0
CIRCLE
  5
E0E
330
1E
100
AcDbEntity
  8
0
  6
CONTINUOUS
 62
     5
100
AcDbCircle
 10
31.15599999999999
 20
3.75
 30
0.0
 40
0.3439999999999999
  0
ARC
  5
E0F
330
1E
100
AcDbEntity
  8
0
  6
CONTINUOUS
 62
     5
100
AcDbCircle
 10
31.15599999999999
 20
3.75
 30
0.0
 40
0.4020000000000001
100
AcDbArc
 50
85.00000100000002
 51
4.999999999999999
  0
CIRCLE
  5
E10
330
1E
100
AcDbEntity
  8
0
  6
CONTINUOUS
 62
     5
100
AcDbCircle
 10
31.15599999999999
 20
3.75
 30
0.0
 40
0.373
  0
CIRCLE
  5
E11
330
1E
100
AcDbEntity
  8
0
  6
CONTINUOUS
 62
     5
100
AcDbCircle
 10
31.15599999999999
 20
3.75
 30
0.0
 40
0.412
  0
LINE
  5
E12
330
1E
100
AcDbEntity
  8
0
  6
CONTINUOUS
 62
     5
100
AcDbLine
 10
31.15599999999999
 20
3.024999999999999
 30
0.0
 11
31.15599999999999
 21
4.474999999999998
 31
0.0
  0
LINE
  5
E13
330
1E
100
AcDbEntity
  8
0
  6
CONTINUOUS
 62
     5
100
AcDbLine
 10
31.15599999999999
 20
4.525
 30
0.0
 11
31.15599999999999
 21
5.974999999999998
 31
0.0
  0
ARC
  5
E14
330
1E
100
AcDbEntity
  8
0
  6
CONTINUOUS
 62
     5
100
AcDbCircle
 10
31.15599999999999
 20
9.906
 30
0.0
 40
0.164
100
AcDbArc
 50
85.00000100000002
 51
4.999999999999999
  0
CIRCLE
  5
E15
330
1E
100
AcDbEntity
  8
0
  6
CONTINUOUS
 62
     5
100
AcDbCircle
 10
31.15599999999999
 20
9.906
 30
0.0
 40
0.14
  0
TEXT
  5
E16
330
1E
100
AcDbEntity
  8
0
 62
     5
100
AcDbText
 10
31.6868625
 20
3.047370999999998
 30
0.0
 40
0.2125
  1
A
 41
0.825
 72
     4
 11
31.7453
 21
3.153620999999998
 31
0.0
100
AcDbText
  0
TEXT
  5
E17
330
1E
100
AcDbEntity
  8
0
 62
     5
100
AcDbText
 10
31.6868625
 20
4.576980999999999
 30
0.0
 40
0.2125
  1
B
 41
0.825
 72
     4
 11
31.7453
 21
4.683231
 31
0.0
100
AcDbText
  0
CIRCLE
  5
E18
330
1E
100
AcDbEntity
  8
0
  6
CONTINUOUS
 62
     5
100
AcDbCircle
 10
31.15599999999999
 20
18.32799999999998
 30
0.0
 40
0.23
  0
CIRCLE
  5
E19
330
1E
100
AcDbEntity
  8
0
  6
CONTINUOUS
 62
     5
100
AcDbCircle
 10
31.15599999999999
 20
18.32799999999998
 30
0.0
 40
0.259
  0
CIRCLE
  5
E1A
330
1E
100
AcDbEntity
  8
0
  6
CONTINUOUS
 62
     5
100
AcDbCircle
 10
31.15599999999999
 20
18.32799999999998
 30
0.0
 40
0.435
  0
LINE
  5
E1B
330
1E
100
AcDbEntity
  8
0
  6
CONTINUOUS
 62
     5
100
AcDbLine
 10
30.63299999999999
 20
18.32799999999998
 30
0.0
 11
31.678
 21
18.32799999999998
 31
0.0
  0
CIRCLE
  5
E1C
330
1E
100
AcDbEntity
  8
0
  6
CONTINUOUS
 62
     5
100
AcDbCircle
 10
30.515
 20
13.561
 30
0.0
 40
0.078
  0
LINE
  5
E1D
330
1E
100
AcDbEntity
  8
0
  6
CONTINUOUS
 62
     5
100
AcDbLine
 10
30.515
 20
13.467
 30
0.0
 11
30.515
 21
13.65499999999999
 31
0.0
  0
CIRCLE
  5
E1E
330
1E
100
AcDbEntity
  8
0
  6
CONTINUOUS
 62
     5
100
AcDbCircle
 10
31.15599999999999
 20
13.672
 30
0.0
 40
0.14
  0
LINE
  5
E1F
330
1E
100
AcDbEntity
  8
0
  6
CONTINUOUS
 62
     5
100
AcDbLine
 10
31.15599999999999
 20
13.503
 30
0.0
 11
31.15599999999999
 21
13.841
 31
0.0
  0
LINE
  5
E20
330
1E
100
AcDbEntity
  8
0
  6
CONTINUOUS
 62
     5
100
AcDbLine
 10
30.40199999999999
 20
13.266
 30
0.0
 11
30.63
 21
13.266
 31
0.0
  0
LINE
  5
E21
330
1E
100
AcDbEntity
  8
0
  6
CONTINUOUS
 62
     5
100
AcDbLine
 10
30.51599999999999
 20
13.15199999999999
 30
0.0
 11
30.51599999999999
 21
13.38
 31
0.0
  0
CIRCLE
  5
E22
330
1E
100
AcDbEntity
  8
0
  6
CONTINUOUS
 62
     5
100
AcDbCircle
 10
30.51599999999999
 20
13.266
 30
0.0
 40
0.095
  0
ARC
  5
E23
330
1E
100
AcDbEntity
  8
0
  6
CONTINUOUS
 62
     5
100
AcDbCircle
 10
30.51599999999999
 20
13.266
 30
0.0
 40
0.087
100
AcDbArc
 50
85.00000099999999
 51
5.0
  0
CIRCLE
  5
E24
330
1E
100
AcDbEntity
  8
0
  6
CONTINUOUS
 62
     5
100
AcDbCircle
 10
30.51599999999999
 20
13.266
 30
0.0
 40
0.075
  0
LINE
  5
E25
330
1E
100
AcDbEntity
  8
0
  6
CONTINUOUS
 62
     5
100
AcDbLine
 10
31.15599999999999
 20
14.191
 30
0.0
 11
31.15599999999999
 21
14.529
 31
0.0
  0
CIRCLE
  5
E26
330
1E
100
AcDbEntity
  8
0
  6
CONTINUOUS
 62
     5
100
AcDbCircle
 10
31.15599999999999
 20
14.35999999999999
 30
0.0
 40
0.14
  0
LINE
  5
E27
330
1E
100
AcDbEntity
  8
0
  6
CONTINUOUS
 62
     5
100
AcDbLine
 10
30.58099999999999
 20
14.016
 30
0.0
 11
30.918
 21
14.016
 31
0.0
  0
CIRCLE
  5
E28
330
1E
100
AcDbEntity
  8
0
  6
CONTINUOUS
 62
     5
100
AcDbCircle
 10
30.75
 20
14.016
 30
0.0
 40
0.14
  0
LINE
  5
E29
330
1E
100
AcDbEntity
  8
0
  6
CONTINUOUS
 62
     5
100
AcDbLine
 10
30.75
 20
13.847
 30
0.0
 11
30.75
 21
14.185
 31
0.0
  0
LINE
  5
E2A
330
1E
100
AcDbEntity
  8
0
  6
CONTINUOUS
 62
     5
100
AcDbLine
 10
30.422
 20
13.561
 30
0.0
 11
30.609
 21
13.561
 31
0.0
  0
LINE
  5
E2B
330
1E
100
AcDbEntity
  8
0
  6
CONTINUOUS
 62
     5
100
AcDbLine
 10
30.987
 20
13.672
 30
0.0
 11
31.324
 21
13.672
 31
0.0
  0
ARC
  5
E2C
330
1E
100
AcDbEntity
  8
0
  6
CONTINUOUS
 62
     5
100
AcDbCircle
 10
30.54599999999999
 20
14.85999999999999
 30
0.0
 40
0.087
100
AcDbArc
 50
85.00000099999999
 51
5.0
  0
CIRCLE
  5
E2D
330
1E
100
AcDbEntity
  8
0
  6
CONTINUOUS
 62
     5
100
AcDbCircle
 10
30.54599999999999
 20
14.85999999999999
 30
0.0
 40
0.075
  0
LINE
  5
E2E
330
1E
100
AcDbEntity
  8
0
  6
CONTINUOUS
 62
     5
100
AcDbLine
 10
30.432
 20
14.85999999999999
 30
0.0
 11
30.66
 21
14.85999999999999
 31
0.0
  0
CIRCLE
  5
E2F
330
1E
100
AcDbEntity
  8
0
  6
CONTINUOUS
 62
     5
100
AcDbCircle
 10
30.54599999999999
 20
14.85999999999999
 30
0.0
 40
0.095
  0
LINE
  5
E30
330
1E
100
AcDbEntity
  8
0
  6
CONTINUOUS
 62
     5
100
AcDbLine
 10
30.54599999999999
 20
14.74599999999998
 30
0.0
 11
30.54599999999999
 21
14.974
 31
0.0
  0
LINE
  5
E31
330
1E
100
AcDbEntity
  8
0
  6
CONTINUOUS
 62
     5
100
AcDbLine
 10
30.987
 20
14.35999999999999
 30
0.0
 11
31.324
 21
14.35999999999999
 31
0.0
  0
CIRCLE
  5
E32
330
1E
100
AcDbEntity
  8
0
  6
CONTINUOUS
 62
     5
100
AcDbCircle
 10
31.15599999999999
 20
18.32799999999998
 30
0.0
 40
0.14
  0
ARC
  5
E33
330
1E
100
AcDbEntity
  8
0
  6
CONTINUOUS
 62
     5
100
AcDbCircle
 10
31.15599999999999
 20
18.32799999999998
 30
0.0
 40
0.164
100
AcDbArc
 50
85.00000100000002
 51
4.999999999999999
  0
LINE
  5
E34
330
1E
100
AcDbEntity
  8
0
  6
CONTINUOUS
 62
     5
100
AcDbLine
 10
31.15599999999999
 20
17.80499999999999
 30
0.0
 11
31.15599999999999
 21
18.85099999999998
 31
0.0
  0
LINE
  5
E35
330
1E
100
AcDbEntity
  8
0
  6
CONTINUOUS
 62
     5
100
AcDbLine
 10
31.68199999999999
 20
13.266
 30
0.0
 11
31.91
 21
13.266
 31
0.0
  0
ARC
  5
E36
330
1E
100
AcDbEntity
  8
0
  6
CONTINUOUS
 62
     5
100
AcDbCircle
 10
31.79599999999998
 20
13.266
 30
0.0
 40
0.087
100
AcDbArc
 50
85.00000099999999
 51
5.0
  0
CIRCLE
  5
E37
330
1E
100
AcDbEntity
  8
0
  6
CONTINUOUS
 62
     5
100
AcDbCircle
 10
31.79599999999998
 20
13.266
 30
0.0
 40
0.095
  0
LINE
  5
E38
330
1E
100
AcDbEntity
  8
0
  6
CONTINUOUS
 62
     5
100
AcDbLine
 10
31.79599999999998
 20
13.15199999999999
 30
0.0
 11
31.79599999999998
 21
13.38
 31
0.0
  0
CIRCLE
  5
E39
330
1E
100
AcDbEntity
  8
0
  6
CONTINUOUS
 62
     5
100
AcDbCircle
 10
31.79599999999998
 20
13.266
 30
0.0
 40
0.075
  0
LINE
  5
E3A
330
1E
100
AcDbEntity
  8
0
  6
CONTINUOUS
 62
     5
100
AcDbLine
 10
31.562
 20
13.866
 30
0.0
 11
31.562
 21
14.16599999999998
 31
0.0
  0
LINE
  5
E3B
330
1E
100
AcDbEntity
  8
0
  6
CONTINUOUS
 62
     5
100
AcDbLine
 10
31.658
 20
13.92599999999999
 30
0.0
 11
31.67099999999998
 21
13.946
 31
0.0
  0
LINE
  5
E3C
330
1E
100
AcDbEntity
  8
0
  6
CONTINUOUS
 62
     5
100
AcDbLine
 10
31.454
 20
13.946
 30
0.0
 11
31.467
 21
13.92599999999999
 31
0.0
  0
LINE
  5
E3D
330
1E
100
AcDbEntity
  8
0
  6
CONTINUOUS
 62
     5
100
AcDbLine
 10
31.625
 20
13.89499999999999
 30
0.0
 11
31.643
 21
13.909
 31
0.0
  0
LINE
  5
E3E
330
1E
100
AcDbEntity
  8
0
  6
CONTINUOUS
 62
     5
100
AcDbLine
 10
31.562
 20
13.87599999999999
 30
0.0
 11
31.584
 21
13.878
 31
0.0
  0
LINE
  5
E3F
330
1E
100
AcDbEntity
  8
0
  6
CONTINUOUS
 62
     5
100
AcDbLine
 10
31.482
 20
13.909
 30
0.0
 11
31.5
 21
13.89499999999999
 31
0.0
  0
LINE
  5
E40
330
1E
100
AcDbEntity
  8
0
  6
CONTINUOUS
 62
     5
100
AcDbLine
 10
31.5
 20
13.89499999999999
 30
0.0
 11
31.52
 21
13.884
 31
0.0
  0
LINE
  5
E41
330
1E
100
AcDbEntity
  8
0
  6
CONTINUOUS
 62
     5
100
AcDbLine
 10
31.52
 20
13.884
 30
0.0
 11
31.541
 21
13.878
 31
0.0
  0
LINE
  5
E42
330
1E
100
AcDbEntity
  8
0
  6
CONTINUOUS
 62
     5
100
AcDbLine
 10
31.541
 20
13.878
 30
0.0
 11
31.562
 21
13.87599999999999
 31
0.0
  0
LINE
  5
E43
330
1E
100
AcDbEntity
  8
0
  6
CONTINUOUS
 62
     5
100
AcDbLine
 10
31.605
 20
13.884
 30
0.0
 11
31.625
 21
13.89499999999999
 31
0.0
  0
LINE
  5
E44
330
1E
100
AcDbEntity
  8
0
  6
CONTINUOUS
 62
     5
100
AcDbLine
 10
31.584
 20
13.878
 30
0.0
 11
31.605
 21
13.884
 31
0.0
  0
LINE
  5
E45
330
1E
100
AcDbEntity
  8
0
  6
CONTINUOUS
 62
     5
100
AcDbLine
 10
31.467
 20
13.92599999999999
 30
0.0
 11
31.482
 21
13.909
 31
0.0
  0
LINE
  5
E46
330
1E
100
AcDbEntity
  8
0
  6
CONTINUOUS
 62
     5
100
AcDbLine
 10
31.643
 20
13.909
 30
0.0
 11
31.658
 21
13.92599999999999
 31
0.0
  0
LINE
  5
E47
330
1E
100
AcDbEntity
  8
0
  6
CONTINUOUS
 62
     5
100
AcDbLine
 10
31.643
 20
14.123
 30
0.0
 11
31.625
 21
14.137
 31
0.0
  0
LINE
  5
E48
330
1E
100
AcDbEntity
  8
0
  6
CONTINUOUS
 62
     5
100
AcDbLine
 10
31.413
 20
14.016
 30
0.0
 11
31.713
 21
14.016
 31
0.0
  0
LINE
  5
E49
330
1E
100
AcDbEntity
  8
0
  6
CONTINUOUS
 62
     5
100
AcDbLine
 10
31.584
 20
14.15399999999999
 30
0.0
 11
31.562
 21
14.15599999999999
 31
0.0
  0
LINE
  5
E4A
330
1E
100
AcDbEntity
  8
0
  6
CONTINUOUS
 62
     5
100
AcDbLine
 10
31.5
 20
14.137
 30
0.0
 11
31.482
 21
14.123
 31
0.0
  0
LINE
  5
E4B
330
1E
100
AcDbEntity
  8
0
  6
CONTINUOUS
 62
     5
100
AcDbLine
 10
31.52
 20
14.148
 30
0.0
 11
31.5
 21
14.137
 31
0.0
  0
LINE
  5
E4C
330
1E
100
AcDbEntity
  8
0
  6
CONTINUOUS
 62
     5
100
AcDbLine
 10
31.562
 20
14.15599999999999
 30
0.0
 11
31.541
 21
14.15399999999999
 31
0.0
  0
LINE
  5
E4D
330
1E
100
AcDbEntity
  8
0
  6
CONTINUOUS
 62
     5
100
AcDbLine
 10
31.541
 20
14.15399999999999
 30
0.0
 11
31.52
 21
14.148
 31
0.0
  0
LINE
  5
E4E
330
1E
100
AcDbEntity
  8
0
  6
CONTINUOUS
 62
     5
100
AcDbLine
 10
31.625
 20
14.137
 30
0.0
 11
31.605
 21
14.148
 31
0.0
  0
LINE
  5
E4F
330
1E
100
AcDbEntity
  8
0
  6
CONTINUOUS
 62
     5
100
AcDbLine
 10
31.605
 20
14.148
 30
0.0
 11
31.584
 21
14.15399999999999
 31
0.0
  0
LINE
  5
E50
330
1E
100
AcDbEntity
  8
0
  6
CONTINUOUS
 62
     5
100
AcDbLine
 10
31.467
 20
14.106
 30
0.0
 11
31.454
 21
14.08599999999998
 31
0.0
  0
LINE
  5
E51
330
1E
100
AcDbEntity
  8
0
  6
CONTINUOUS
 62
     5
100
AcDbLine
 10
31.454
 20
14.08599999999998
 30
0.0
 11
31.445
 21
14.064
 31
0.0
  0
LINE
  5
E52
330
1E
100
AcDbEntity
  8
0
  6
CONTINUOUS
 62
     5
100
AcDbLine
 10
31.445
 20
14.064
 30
0.0
 11
31.439
 21
14.03999999999999
 31
0.0
  0
LINE
  5
E53
330
1E
100
AcDbEntity
  8
0
  6
CONTINUOUS
 62
     5
100
AcDbLine
 10
31.439
 20
14.03999999999999
 30
0.0
 11
31.437
 21
14.016
 31
0.0
  0
LINE
  5
E54
330
1E
100
AcDbEntity
  8
0
  6
CONTINUOUS
 62
     5
100
AcDbLine
 10
31.437
 20
14.016
 30
0.0
 11
31.439
 21
13.992
 31
0.0
  0
LINE
  5
E55
330
1E
100
AcDbEntity
  8
0
  6
CONTINUOUS
 62
     5
100
AcDbLine
 10
31.439
 20
13.992
 30
0.0
 11
31.445
 21
13.968
 31
0.0
  0
LINE
  5
E56
330
1E
100
AcDbEntity
  8
0
  6
CONTINUOUS
 62
     5
100
AcDbLine
 10
31.445
 20
13.968
 30
0.0
 11
31.454
 21
13.946
 31
0.0
  0
LINE
  5
E57
330
1E
100
AcDbEntity
  8
0
  6
CONTINUOUS
 62
     5
100
AcDbLine
 10
31.482
 20
14.123
 30
0.0
 11
31.467
 21
14.106
 31
0.0
  0
LINE
  5
E58
330
1E
100
AcDbEntity
  8
0
  6
CONTINUOUS
 62
     5
100
AcDbLine
 10
31.68599999999998
 20
13.992
 30
0.0
 11
31.687
 21
14.016
 31
0.0
  0
LINE
  5
E59
330
1E
100
AcDbEntity
  8
0
  6
CONTINUOUS
 62
     5
100
AcDbLine
 10
31.687
 20
14.016
 30
0.0
 11
31.68599999999998
 21
14.03999999999999
 31
0.0
  0
LINE
  5
E5A
330
1E
100
AcDbEntity
  8
0
  6
CONTINUOUS
 62
     5
100
AcDbLine
 10
31.68
 20
13.968
 30
0.0
 11
31.68599999999998
 21
13.992
 31
0.0
  0
LINE
  5
E5B
330
1E
100
AcDbEntity
  8
0
  6
CONTINUOUS
 62
     5
100
AcDbLine
 10
31.68599999999998
 20
14.03999999999999
 30
0.0
 11
31.68
 21
14.064
 31
0.0
  0
LINE
  5
E5C
330
1E
100
AcDbEntity
  8
0
  6
CONTINUOUS
 62
     5
100
AcDbLine
 10
31.67099999999998
 20
13.946
 30
0.0
 11
31.68
 21
13.968
 31
0.0
  0
LINE
  5
E5D
330
1E
100
AcDbEntity
  8
0
  6
CONTINUOUS
 62
     5
100
AcDbLine
 10
31.68
 20
14.064
 30
0.0
 11
31.67099999999998
 21
14.08599999999998
 31
0.0
  0
LINE
  5
E5E
330
1E
100
AcDbEntity
  8
0
  6
CONTINUOUS
 62
     5
100
AcDbLine
 10
31.67099999999998
 20
14.08599999999998
 30
0.0
 11
31.658
 21
14.106
 31
0.0
  0
LINE
  5
E5F
330
1E
100
AcDbEntity
  8
0
  6
CONTINUOUS
 62
     5
100
AcDbLine
 10
31.658
 20
14.106
 30
0.0
 11
31.643
 21
14.123
 31
0.0
  0
LINE
  5
E60
330
1E
100
AcDbEntity
  8
0
  6
CONTINUOUS
 62
     5
100
AcDbLine
 10
31.76599999999999
 20
14.74599999999998
 30
0.0
 11
31.76599999999999
 21
14.974
 31
0.0
  0
CIRCLE
  5
E61
330
1E
100
AcDbEntity
  8
0
  6
CONTINUOUS
 62
     5
100
AcDbCircle
 10
31.76599999999999
 20
14.85999999999999
 30
0.0
 40
0.075
  0
ARC
  5
E62
330
1E
100
AcDbEntity
  8
0
  6
CONTINUOUS
 62
     5
100
AcDbCircle
 10
31.76599999999999
 20
14.85999999999999
 30
0.0
 40
0.087
100
AcDbArc
 50
85.00000099999999
 51
5.0
  0
CIRCLE
  5
E63
330
1E
100
AcDbEntity
  8
0
  6
CONTINUOUS
 62
     5
100
AcDbCircle
 10
31.76599999999999
 20
14.85999999999999
 30
0.0
 40
0.095
  0
LINE
  5
E64
330
1E
100
AcDbEntity
  8
0
  6
CONTINUOUS
 62
     5
100
AcDbLine
 10
31.652
 20
14.85999999999999
 30
0.0
 11
31.87999999999999
 21
14.85999999999999
 31
0.0
  0
LWPOLYLINE
  5
E65
330
1E
100
AcDbEntity
  8
0
  6
CONTINUOUS
 62
     5
100
AcDbPolyline
 90
       20
 70
     0
 43
0.0
 10
31.86442699999999
 20
17.9125
 10
31.86974
 20
17.901875
 10
31.880365
 20
17.89125
 10
31.901615
 20
17.88593699999998
 10
31.93348999999999
 20
17.88593699999998
 10
31.95474
 20
17.896562
 10
31.97067699999999
 20
17.91781199999998
 10
31.98130199999999
 20
17.944375
 10
31.986615
 20
17.97625
 10
31.986615
 20
18.013437
 10
31.98130199999999
 20
18.04531199999998
 10
31.97067699999999
 20
18.066562
 10
31.95474
 20
18.087812
 10
31.93348999999999
 20
18.098437
 10
31.89630199999999
 20
18.098437
 10
31.880365
 20
18.093125
 10
31.86974
 20
18.0825
 10
31.85911499999999
 20
18.06125
 10
31.85911499999999
 20
18.00281199999998
 10
31.91224
 20
18.00281199999998
  0
LWPOLYLINE
  5
E66
330
1E
100
AcDbEntity
  8
0
  6
CONTINUOUS
 62
     5
100
AcDbPolyline
 90
        4
 70
     0
 43
0.0
 10
31.80598999999999
 20
18.098437
 10
31.74755199999999
 20
17.88593699999998
 10
31.73692699999999
 20
17.88593699999998
 10
31.67849
 20
18.098437
  0
LINE
  5
E67
330
1E
100
AcDbEntity
  8
0
  6
CONTINUOUS
 62
     5
100
AcDbLine
 10
31.78473999999999
 20
18.024062
 30
0.0
 11
31.69973999999999
 21
18.024062
 31
0.0
  0
ENDSEC
  0
SECTION
  2
OBJECTS
  0
DICTIONARY
  5
C
330
0
100
AcDbDictionary
  3
ACAD_GROUP
350
D
  3
ACAD_LAYOUT
350
19
  3
ACAD_MLINESTYLE
350
16
  3
ACAD_PLOTSETTINGS
350
18
  3
ACAD_PLOTSTYLENAME
350
E
  3
ACDBHEADERROUNDTRIPXREC
350
E69
  0
DICTIONARY
  5
888
330
1E
100
AcDbDictionary
280
     1
  3
ACAD_LAYOUTSELFREF
360
E8A
  0
DICTIONARY
  5
886
330
1A
100
AcDbDictionary
280
     1
  3
ACAD_LAYOUTSELFREF
360
E89
  0
DICTIONARY
  5
D
102
{ACAD_REACTORS
330
C
102
}
330
C
100
AcDbDictionary
  0
DICTIONARY
  5
19
102
{ACAD_REACTORS
330
C
102
}
330
C
100
AcDbDictionary
  0
DICTIONARY
  5
16
102
{ACAD_REACTORS
330
C
102
}
330
C
100
AcDbDictionary
  3
STANDARD
350
17
  0
DICTIONARY
  5
18
102
{ACAD_REACTORS
330
C
102
}
330
C
100
AcDbDictionary
  0
ACDBDICTIONARYWDFLT
  5
E
102
{ACAD_REACTORS
330
C
102
}
330
C
100
AcDbDictionary
281
     1
  3
Normal
350
F
100
AcDbDictionaryWithDefault
340
F
  0
DICTIONARY
  5
E69
102
{ACAD_REACTORS
330
C
102
}
330
C
100
AcDbDictionary
  3
CEPSNTYPE
350
E73
  3
FINGERPRINTGUID
350
E74
  3
HYPERLINKBASE
350
E6C
  3
INSUNITS
350
E72
  3
LAYOUTDICT
350
E6E
  3
LWETCUNION
350
E71
  3
PLOTSETDICT
350
E6F
  3
PLOTSTYLNAMDICT
350
E70
  3
PSVPSCALE
350
E76
  3
PUCSBASE
350
E79
  3
PUCSORGBACK
350
E7F
  3
PUCSORGBOTTOM
350
E7B
  3
PUCSORGFRONT
350
E7E
  3
PUCSORGLEFT
350
E7C
  3
PUCSORGRIGHT
350
E7D
  3
PUCSORGTOP
350
E7A
  3
PUCSORTHOREF
350
E77
  3
PUCSORTHOVIEW
350
E78
  3
STYLESHEET
350
E6D
  3
TSTACKALIGN
350
E6A
  3
TSTACKSIZE
350
E6B
  3
UCSBASE
350
E82
  3
UCSORGBACK
350
E88
  3
UCSORGBOTTOM
350
E84
  3
UCSORGFRONT
350
E87
  3
UCSORGLEFT
350
E85
  3
UCSORGRIGHT
350
E86
  3
UCSORGTOP
350
E83
  3
UCSORTHOREF
350
E80
  3
UCSORTHOVIEW
350
E81
  3
VERSIONGUID
350
E75
  0
XRECORD
  5
E8A
102
{ACAD_REACTORS
330
888
102
}
330
888
100
AcDbXrecord
340
1E
  0
XRECORD
  5
E89
102
{ACAD_REACTORS
330
886
102
}
330
886
100
AcDbXrecord
340
1A
  0
MLINESTYLE
  5
17
102
{ACAD_REACTORS
330
16
102
}
330
16
100
AcDbMlineStyle
  2
STANDARD
 70
     0
  3

 62
   256
 51
90.0
 52
90.0
 71
     2
 49
0.5
 62
   256
  6
BYLAYER
 49
-0.5
 62
   256
  6
BYLAYER
  0
ACDBPLACEHOLDER
  5
F
102
{ACAD_REACTORS
330
E
102
}
330
E
100
AcDbPlaceHolder
280
     0
  0
XRECORD
  5
E73
102
{ACAD_REACTORS
330
E69
102
}
330
E69
100
AcDbXrecord
 90
        0
  0
XRECORD
  5
E74
102
{ACAD_REACTORS
330
E69
102
}
330
E69
100
AcDbXrecord
  1
{DA3A0ADF-A18E-4AE0-B415-5FCE138A8C56}
  0
XRECORD
  5
E6C
102
{ACAD_REACTORS
330
E69
102
}
330
E69
100
AcDbXrecord
  1

  0
XRECORD
  5
E72
102
{ACAD_REACTORS
330
E69
102
}
330
E69
100
AcDbXrecord
 90
        0
  0
XRECORD
  5
E6E
102
{ACAD_REACTORS
330
E69
102
}
330
E69
100
AcDbXrecord
340
19
  0
XRECORD
  5
E71
102
{ACAD_REACTORS
330
E69
102
}
330
E69
100
AcDbXrecord
 90
    10781
  0
XRECORD
  5
E6F
102
{ACAD_REACTORS
330
E69
102
}
330
E69
100
AcDbXrecord
340
18
  0
XRECORD
  5
E70
102
{ACAD_REACTORS
330
E69
102
}
330
E69
100
AcDbXrecord
340
E
  0
XRECORD
  5
E76
102
{ACAD_REACTORS
330
E69
102
}
330
E69
100
AcDbXrecord
 40
0.0
  0
XRECORD
  5
E79
102
{ACAD_REACTORS
330
E69
102
}
330
E69
100
AcDbXrecord
340
0
  0
XRECORD
  5
E7F
102
{ACAD_REACTORS
330
E69
102
}
330
E69
100
AcDbXrecord
 10
0.0
 20
0.0
 30
0.0
  0
XRECORD
  5
E7B
102
{ACAD_REACTORS
330
E69
102
}
330
E69
100
AcDbXrecord
 10
0.0
 20
0.0
 30
0.0
  0
XRECORD
  5
E7E
102
{ACAD_REACTORS
330
E69
102
}
330
E69
100
AcDbXrecord
 10
0.0
 20
0.0
 30
0.0
  0
XRECORD
  5
E7C
102
{ACAD_REACTORS
330
E69
102
}
330
E69
100
AcDbXrecord
 10
0.0
 20
0.0
 30
0.0
  0
XRECORD
  5
E7D
102
{ACAD_REACTORS
330
E69
102
}
330
E69
100
AcDbXrecord
 10
0.0
 20
0.0
 30
0.0
  0
XRECORD
  5
E7A
102
{ACAD_REACTORS
330
E69
102
}
330
E69
100
AcDbXrecord
 10
0.0
 20
0.0
 30
0.0
  0
XRECORD
  5
E77
102
{ACAD_REACTORS
330
E69
102
}
330
E69
100
AcDbXrecord
340
0
  0
XRECORD
  5
E78
102
{ACAD_REACTORS
330
E69
102
}
330
E69
100
AcDbXrecord
 70
     0
  0
XRECORD
  5
E6D
102
{ACAD_REACTORS
330
E69
102
}
330
E69
100
AcDbXrecord
  1

  0
XRECORD
  5
E6A
102
{ACAD_REACTORS
330
E69
102
}
330
E69
100
AcDbXrecord
 90
        1
  0
XRECORD
  5
E6B
102
{ACAD_REACTORS
330
E69
102
}
330
E69
100
AcDbXrecord
 90
       70
  0
XRECORD
  5
E82
102
{ACAD_REACTORS
330
E69
102
}
330
E69
100
AcDbXrecord
340
0
  0
XRECORD
  5
E88
102
{ACAD_REACTORS
330
E69
102
}
330
E69
100
AcDbXrecord
 10
0.0
 20
0.0
 30
0.0
  0
XRECORD
  5
E84
102
{ACAD_REACTORS
330
E69
102
}
330
E69
100
AcDbXrecord
 10
0.0
 20
0.0
 30
0.0
  0
XRECORD
  5
E87
102
{ACAD_REACTORS
330
E69
102
}
330
E69
100
AcDbXrecord
 10
0.0
 20
0.0
 30
0.0
  0
XRECORD
  5
E85
102
{ACAD_REACTORS
330
E69
102
}
330
E69
100
AcDbXrecord
 10
0.0
 20
0.0
 30
0.0
  0
XRECORD
  5
E86
102
{ACAD_REACTORS
330
E69
102
}
330
E69
100
AcDbXrecord
 10
0.0
 20
0.0
 30
0.0
  0
XRECORD
  5
E83
102
{ACAD_REACTORS
330
E69
102
}
330
E69
100
AcDbXrecord
 10
0.0
 20
0.0
 30
0.0
  0
XRECORD
  5
E80
102
{ACAD_REACTORS
330
E69
102
}
330
E69
100
AcDbXrecord
340
0
  0
XRECORD
  5
E81
102
{ACAD_REACTORS
330
E69
102
}
330
E69
100
AcDbXrecord
 70
     0
  0
XRECORD
  5
E75
102
{ACAD_REACTORS
330
E69
102
}
330
E69
100
AcDbXrecord
  1
{8AD5A87C-C205-418E-ACF6-62F4699DA3ED}
  0
ENDSEC
  0
EOF
