  0
SECTION
  2
HEADER
  9
$ACADVER
  1
AC1009
  9
$INSBASE
 10
0.0
 20
0.0
 30
0.0
  9
$EXTMIN
 10
-0.03025
 20
-5.03175
 30
0.0
  9
$EXTMAX
 10
19.28025
 20
5.039063
 30
0.0
  9
$LIMMIN
 10
0.0
 20
0.0
  9
$LIMMAX
 10
12.0
 20
9.0
  9
$ORTHOMODE
 70
     0
  9
$REGENMODE
 70
     1
  9
$FILLMODE
 70
     1
  9
$QTEXTMODE
 70
     0
  9
$MIRRTEXT
 70
     1
  9
$DRAGMODE
 70
     2
  9
$LTSCALE
 40
1.0
  9
$OSMODE
 70
     0
  9
$ATTMODE
 70
     1
  9
$TEXTSIZE
 40
0.2
  9
$TRACEWID
 40
0.05
  9
$TEXTSTYLE
  7
STANDARD
  9
$CLAYER
  8
DAMAN
  9
$CELTYPE
  6
BYLAYER
  9
$CECOLOR
 62
   256
  9
$DIMSCALE
 40
1.0
  9
$DIMASZ
 40
0.18
  9
$DIMEXO
 40
0.0625
  9
$DIMDLI
 40
0.38
  9
$DIMRND
 40
0.0
  9
$DIMDLE
 40
0.0
  9
$DIMEXE
 40
0.18
  9
$DIMTP
 40
0.0
  9
$DIMTM
 40
0.0
  9
$DIMTXT
 40
0.18
  9
$DIMCEN
 40
0.09
  9
$DIMTSZ
 40
0.0
  9
$DIMTOL
 70
     0
  9
$DIMLIM
 70
     0
  9
$DIMTIH
 70
     1
  9
$DIMTOH
 70
     1
  9
$DIMSE1
 70
     0
  9
$DIMSE2
 70
     0
  9
$DIMTAD
 70
     0
  9
$DIMZIN
 70
     0
  9
$DIMBLK
  1

  9
$DIMASO
 70
     1
  9
$DIMSHO
 70
     1
  9
$DIMPOST
  1

  9
$DIMAPOST
  1

  9
$DIMALT
 70
     0
  9
$DIMALTD
 70
     2
  9
$DIMALTF
 40
25.4
  9
$DIMLFAC
 40
1.0
  9
$DIMTOFL
 70
     0
  9
$DIMTVP
 40
0.0
  9
$DIMTIX
 70
     0
  9
$DIMSOXD
 70
     0
  9
$DIMSAH
 70
     0
  9
$DIMBLK1
  1

  9
$DIMBLK2
  1

  9
$DIMSTYLE
  2
*UNNAMED
  9
$DIMCLRD
 70
     0
  9
$DIMCLRE
 70
     0
  9
$DIMCLRT
 70
     0
  9
$DIMTFAC
 40
1.0
  9
$DIMGAP
 40
0.09
  9
$LUNITS
 70
     2
  9
$LUPREC
 70
     4
  9
$SKETCHINC
 40
0.1
  9
$FILLETRAD
 40
0.0
  9
$AUNITS
 70
     0
  9
$AUPREC
 70
     0
  9
$MENU
  1
tom
  9
$ELEVATION
 40
0.0
  9
$PELEVATION
 40
0.0
  9
$THICKNESS
 40
0.0
  9
$LIMCHECK
 70
     0
  9
$BLIPMODE
 70
     1
  9
$CHAMFERA
 40
0.0
  9
$CHAMFERB
 40
0.0
  9
$SKPOLY
 70
     0
  9
$TDCREATE
 40
2449804.985810555
  9
$TDUPDATE
 40
2449804.985810555
  9
$TDINDWG
 40
0.0000000000
  9
$TDUSRTIMER
 40
0.0000000000
  9
$USRTIMER
 70
     1
  9
$ANGBASE
 50
0.0
  9
$ANGDIR
 70
     0
  9
$PDMODE
 70
     0
  9
$PDSIZE
 40
0.0
  9
$PLINEWID
 40
0.0
  9
$COORDS
 70
     1
  9
$SPLFRAME
 70
     0
  9
$SPLINETYPE
 70
     6
  9
$SPLINESEGS
 70
     8
  9
$ATTDIA
 70
     0
  9
$ATTREQ
 70
     1
  9
$HANDLING
 70
     1
  9
$HANDSEED
  5
1AF
  9
$SURFTAB1
 70
     6
  9
$SURFTAB2
 70
     6
  9
$SURFTYPE
 70
     6
  9
$SURFU
 70
     6
  9
$SURFV
 70
     6
  9
$UCSNAME
  2

  9
$UCSORG
 10
0.0
 20
0.0
 30
0.0
  9
$UCSXDIR
 10
1.0
 20
0.0
 30
0.0
  9
$UCSYDIR
 10
0.0
 20
1.0
 30
0.0
  9
$PUCSNAME
  2

  9
$PUCSORG
 10
0.0
 20
0.0
 30
0.0
  9
$PUCSXDIR
 10
1.0
 20
0.0
 30
0.0
  9
$PUCSYDIR
 10
0.0
 20
1.0
 30
0.0
  9
$USERI1
 70
     0
  9
$USERI2
 70
     0
  9
$USERI3
 70
     0
  9
$USERI4
 70
     0
  9
$USERI5
 70
     0
  9
$USERR1
 40
0.0
  9
$USERR2
 40
0.0
  9
$USERR3
 40
0.0
  9
$USERR4
 40
0.0
  9
$USERR5
 40
0.0
  9
$WORLDVIEW
 70
     1
  9
$SHADEDGE
 70
     3
  9
$SHADEDIF
 70
    70
  9
$TILEMODE
 70
     1
  9
$MAXACTVP
 70
    16
  9
$PINSBASE
 10
0.0
 20
0.0
 30
0.0
  9
$PLIMCHECK
 70
     0
  9
$PEXTMIN
 10
1.000000E+20
 20
1.000000E+20
 30
1.000000E+20
  9
$PEXTMAX
 10
-1.000000E+20
 20
-1.000000E+20
 30
-1.000000E+20
  9
$PLIMMIN
 10
0.0
 20
0.0
  9
$PLIMMAX
 10
12.0
 20
9.0
  9
$UNITMODE
 70
     0
  9
$VISRETAIN
 70
     0
  9
$PLINEGEN
 70
     0
  9
$PSLTSCALE
 70
     1
  9
$TREEDEPTH
 70
  3020
  9
$DWGCODEPAGE
  3
ascii
  0
ENDSEC
  0
SECTION
  2
TABLES
  0
TABLE
  2
VPORT
 70
     2
  0
VPORT
  2
*ACTIVE
 70
     0
 10
0.0
 20
0.0
 11
1.0
 21
1.0
 12
9.625
 22
2.038265
 13
0.0
 23
0.0
 14
0.03125
 24
0.03125
 15
0.0
 25
0.0
 16
0.0
 26
0.0
 36
1.0
 17
0.0
 27
0.0
 37
0.0
 40
14.14003
 41
1.365662
 42
50.0
 43
0.0
 44
0.0
 50
0.0
 51
0.0
 71
     0
 72
   100
 73
     1
 74
     1
 75
     1
 76
     0
 77
     0
 78
     0
  0
ENDTAB
  0
TABLE
  2
LTYPE
 70
     6
  0
LTYPE
  2
CONTINUOUS
 70
    64
  3
Solid line
 72
    65
 73
     0
 40
0.0
  0
LTYPE
  2
HIDDEN
 70
    64
  3
__ __ __ __ __ __ __ __ __ __ __ __ __ __ __ __
 72
    65
 73
     2
 40
0.375
 49
0.25
 49
-0.125
  0
LTYPE
  2
CENTER
 70
    64
  3
____ _ ____ _ ____ _ ____ _ ____ _ ____ _ ____
 72
    65
 73
     4
 40
2.0
 49
1.25
 49
-0.25
 49
0.25
 49
-0.25
  0
LTYPE
  2
PHANTOM
 70
    64
  3
_____ _ _ _____ _ _ _____ _ _ _____ _ _ ____
 72
    65
 73
     6
 40
2.5
 49
1.25
 49
-0.25
 49
0.25
 49
-0.25
 49
0.25
 49
-0.25
  0
LTYPE
  2
DOT
 70
     0
  3
. . . . . . . . . . . . . . . . . . . . . . . .
 72
    65
 73
     2
 40
0.25
 49
0.0
 49
-0.25
  0
LTYPE
  2
DASHED
 70
     0
  3
__ __ __ __ __ __ __ __ __ __ __ __ __ __ __ __
 72
    65
 73
     2
 40
0.75
 49
0.5
 49
-0.25
  0
ENDTAB
  0
TABLE
  2
LAYER
 70
     6
  0
LAYER
  2
0
 70
    64
 62
     7
  6
CONTINUOUS
  0
LAYER
  2
DAMAN
 70
    64
 62
     5
  6
CONTINUOUS
  0
LAYER
  2
CSOLID
 70
     0
 62
     3
  6
CONTINUOUS
  0
LAYER
  2
CHIDDEN
 70
    64
 62
     3
  6
HIDDEN
  0
LAYER
  2
CCENTER
 70
     0
 62
     4
  6
CENTER
  0
LAYER
  2
PHANTOM
 70
     0
 62
     1
  6
PHANTOM
  0
ENDTAB
  0
TABLE
  2
STYLE
 70
     1
  0
STYLE
  2
STANDARD
 70
    64
 40
0.0
 41
1.0
 50
0.0
 71
     0
 42
0.2
  3
txt
  4

  0
ENDTAB
  0
TABLE
  2
VIEW
 70
     0
  0
ENDTAB
  0
TABLE
  2
UCS
 70
     0
  0
ENDTAB
  0
TABLE
  2
APPID
 70
     1
  0
APPID
  2
ACAD
 70
    64
  0
ENDTAB
  0
TABLE
  2
DIMSTYLE
 70
     0
  0
ENDTAB
  0
ENDSEC
  0
SECTION
  2
BLOCKS
  0
BLOCK
  8
0
  5
33
  2
350MKT
 70
     0
 10
0.0
 20
0.0
 30
0.0
  3
350MKT
  0
LINE
  8
DAMAN
  5
34
 10
0.6245
 20
-0.2495
 30
0.0
 11
0.6245
 21
3.2505
 31
0.0
  0
INSERT
  8
DAMAN
  5
35
  2
100CROSS
 10
0.312
 20
0.313
 30
0.0
 41
-0.34
 42
0.34
 50
270.0
 43
0.34
  0
POLYLINE
  8
DAMAN
  5
36
 66
     1
 10
0.0
 20
0.0
 30
0.0
 70
   129
  0
VERTEX
  8
DAMAN
  5
37
 10
0.0625
 20
0.456838
 30
0.0
  0
VERTEX
  8
DAMAN
  5
38
 10
0.0625
 20
0.168162
 30
0.0
  0
VERTEX
  8
DAMAN
  5
39
 10
0.3125
 20
0.023825
 30
0.0
  0
VERTEX
  8
DAMAN
  5
3A
 10
0.5625
 20
0.168162
 30
0.0
  0
VERTEX
  8
DAMAN
  5
3B
 10
0.5625
 20
0.456838
 30
0.0
  0
VERTEX
  8
DAMAN
  5
3C
 10
0.3125
 20
0.601175
 30
0.0
  0
SEQEND
  8
DAMAN
  5
3D
  0
CIRCLE
  8
DAMAN
  5
3E
 10
0.313
 20
0.313
 30
0.0
 40
0.249501
  0
LINE
  8
DAMAN
  5
3F
 10
-0.84325
 20
2.53175
 30
0.0
 11
-0.3745
 21
2.53175
 31
0.0
  0
LINE
  8
DAMAN
  5
40
 10
-0.3745
 20
2.84425
 30
0.0
 11
-0.84325
 21
2.84425
 31
0.0
  0
LINE
  8
DAMAN
  6
HIDDEN
  5
41
 10
-0.8745
 20
2.813
 30
0.0
 11
-0.3745
 21
2.813
 31
0.0
  0
LINE
  8
DAMAN
  6
HIDDEN
  5
42
 10
-0.3745
 20
2.563
 30
0.0
 11
-0.8745
 21
2.563
 31
0.0
  0
LINE
  8
DAMAN
  5
43
 10
0.1255
 20
2.688
 30
0.0
 11
-1.03075
 21
2.688
 31
0.0
  0
LINE
  8
DAMAN
  5
44
 10
-0.84325
 20
2.84425
 30
0.0
 11
-0.84325
 21
2.53175
 31
0.0
  0
LINE
  8
DAMAN
  5
45
 10
-0.84325
 20
2.84425
 30
0.0
 11
-0.8745
 21
2.813
 31
0.0
  0
LINE
  8
DAMAN
  5
46
 10
-0.8745
 20
2.563
 30
0.0
 11
-0.84325
 21
2.53175
 31
0.0
  0
LINE
  8
DAMAN
  5
47
 10
-0.8745
 20
2.813
 30
0.0
 11
-0.8745
 21
2.563
 31
0.0
  0
INSERT
  8
DAMAN
  5
48
  2
100CROSS
 10
0.312
 20
2.688
 30
0.0
 41
-0.34
 42
0.34
 50
270.0
 43
0.34
  0
POLYLINE
  8
DAMAN
  5
49
 66
     1
 10
0.0
 20
0.0
 30
0.0
 70
   129
  0
VERTEX
  8
DAMAN
  5
4A
 10
0.0625
 20
2.831838
 30
0.0
  0
VERTEX
  8
DAMAN
  5
4B
 10
0.0625
 20
2.543162
 30
0.0
  0
VERTEX
  8
DAMAN
  5
4C
 10
0.3125
 20
2.398825
 30
0.0
  0
VERTEX
  8
DAMAN
  5
4D
 10
0.5625
 20
2.543162
 30
0.0
  0
VERTEX
  8
DAMAN
  5
4E
 10
0.5625
 20
2.831838
 30
0.0
  0
VERTEX
  8
DAMAN
  5
4F
 10
0.3125
 20
2.976175
 30
0.0
  0
SEQEND
  8
DAMAN
  5
50
  0
CIRCLE
  8
DAMAN
  5
51
 10
0.313
 20
2.688
 30
0.0
 40
0.249501
  0
LINE
  8
DAMAN
  5
52
 10
0.0005
 20
2.438
 30
0.0
 11
0.0005
 21
2.938
 31
0.0
  0
ARC
  8
DAMAN
  5
53
 10
-0.098458
 20
2.471494
 30
0.0
 40
0.098958
 50
313.173551
 51
46.826449
  0
LINE
  8
DAMAN
  5
54
 10
-0.2495
 20
2.399325
 30
0.0
 11
-0.03075
 21
2.399325
 31
0.0
  0
LINE
  8
DAMAN
  5
55
 10
-0.03075
 20
2.399325
 30
0.0
 11
0.0005
 21
2.438
 31
0.0
  0
LINE
  8
DAMAN
  5
56
 10
0.6245
 20
3.2505
 30
0.0
 11
-0.3755
 21
3.2505
 31
0.0
  0
LINE
  8
DAMAN
  5
57
 10
-0.2495
 20
2.832338
 30
0.0
 11
-0.03075
 21
2.832338
 31
0.0
  0
LINE
  8
DAMAN
  5
58
 10
-0.03075
 20
2.543662
 30
0.0
 11
-0.2495
 21
2.543662
 31
0.0
  0
LINE
  8
DAMAN
  5
59
 10
-0.03075
 20
2.976675
 30
0.0
 11
-0.2495
 21
2.976675
 31
0.0
  0
ARC
  8
DAMAN
  5
5A
 10
-0.348458
 20
2.688
 30
0.0
 40
0.348958
 50
335.567302
 51
24.432698
  0
ARC
  8
DAMAN
  5
5B
 10
-0.098458
 20
2.904506
 30
0.0
 40
0.098958
 50
313.173551
 51
46.826449
  0
LINE
  8
DAMAN
  5
5C
 10
-0.03075
 20
2.976675
 30
0.0
 11
0.0005
 21
2.938
 31
0.0
  0
LINE
  8
DAMAN
  5
5D
 10
-0.3745
 20
0.46925
 30
0.0
 11
-0.84325
 21
0.46925
 31
0.0
  0
LINE
  8
DAMAN
  6
HIDDEN
  5
5E
 10
-0.8745
 20
0.438
 30
0.0
 11
-0.3745
 21
0.438
 31
0.0
  0
LINE
  8
DAMAN
  5
5F
 10
-0.84325
 20
0.15675
 30
0.0
 11
-0.3745
 21
0.15675
 31
0.0
  0
LINE
  8
DAMAN
  6
HIDDEN
  5
60
 10
-0.3745
 20
0.188
 30
0.0
 11
-0.8745
 21
0.188
 31
0.0
  0
LINE
  8
DAMAN
  5
61
 10
0.1255
 20
0.313
 30
0.0
 11
-1.03075
 21
0.313
 31
0.0
  0
LINE
  8
DAMAN
  5
62
 10
-0.84325
 20
0.46925
 30
0.0
 11
-0.84325
 21
0.15675
 31
0.0
  0
LINE
  8
DAMAN
  5
63
 10
-0.8745
 20
0.188
 30
0.0
 11
-0.84325
 21
0.15675
 31
0.0
  0
LINE
  8
DAMAN
  5
64
 10
-0.8745
 20
0.438
 30
0.0
 11
-0.8745
 21
0.188
 31
0.0
  0
LINE
  8
DAMAN
  5
65
 10
-0.84325
 20
0.46925
 30
0.0
 11
-0.8745
 21
0.438
 31
0.0
  0
LINE
  8
DAMAN
  5
66
 10
0.0005
 20
0.063
 30
0.0
 11
0.0005
 21
0.563
 31
0.0
  0
ARC
  8
DAMAN
  5
67
 10
-0.098458
 20
0.529506
 30
0.0
 40
0.098958
 50
313.173551
 51
46.826449
  0
LINE
  8
DAMAN
  5
68
 10
-0.2495
 20
0.457338
 30
0.0
 11
-0.03075
 21
0.457338
 31
0.0
  0
LINE
  8
DAMAN
  5
69
 10
-0.2495
 20
0.024325
 30
0.0
 11
-0.03075
 21
0.024325
 31
0.0
  0
LINE
  8
DAMAN
  5
6A
 10
-0.03075
 20
0.168662
 30
0.0
 11
-0.2495
 21
0.168662
 31
0.0
  0
ARC
  8
DAMAN
  5
6B
 10
-0.098458
 20
0.096494
 30
0.0
 40
0.098958
 50
313.173551
 51
46.826449
  0
LINE
  8
DAMAN
  5
6C
 10
-0.03075
 20
0.024325
 30
0.0
 11
0.0005
 21
0.063
 31
0.0
  0
ARC
  8
DAMAN
  5
6D
 10
-0.348458
 20
0.313
 30
0.0
 40
0.348958
 50
335.567302
 51
24.432698
  0
LINE
  8
DAMAN
  5
6E
 10
-0.03075
 20
0.601675
 30
0.0
 11
-0.2495
 21
0.601675
 31
0.0
  0
LINE
  8
DAMAN
  5
6F
 10
-0.03075
 20
0.601675
 30
0.0
 11
0.0005
 21
0.563
 31
0.0
  0
LINE
  8
DAMAN
  5
70
 10
-0.2555
 20
3.2505
 30
0.0
 11
-0.2555
 21
-0.2495
 31
0.0
  0
LINE
  8
DAMAN
  5
71
 10
-0.3755
 20
3.2505
 30
0.0
 11
-0.3755
 21
-0.2495
 31
0.0
  0
LINE
  8
DAMAN
  5
72
 10
-0.3755
 20
-0.2495
 30
0.0
 11
0.6245
 21
-0.2495
 31
0.0
  0
ENDBLK
  8
0
  5
73
  0
BLOCK
  8
0
  5
74
  2
100CROSS
 70
    64
 10
5.625
 20
4.59375
 30
0.0
  3
100CROSS
  0
INSERT
  8
0
  5
75
  2
050CROSS
 10
5.625
 20
4.59375
 30
0.0
 43
0.0
  0
ENDBLK
  8
0
  5
76
  0
BLOCK
  8
0
  5
77
  2
050CROSS
 70
    64
 10
5.0
 20
5.0
 30
0.0
  3
050CROSS
  0
LINE
  8
0
  5
78
 10
5.0
 20
5.28125
 30
0.0
 11
5.0
 21
5.78125
 31
0.0
  0
LINE
  8
0
  5
79
 10
5.0
 20
4.875
 30
0.0
 11
5.0
 21
5.125
 31
0.0
  0
LINE
  8
0
  5
7A
 10
5.0
 20
4.15625
 30
0.0
 11
5.0
 21
4.71875
 31
0.0
  0
LINE
  8
0
  5
7B
 10
5.25
 20
5.0
 30
0.0
 11
5.8125
 21
5.0
 31
0.0
  0
LINE
  8
0
  5
7C
 10
4.90625
 20
5.0
 30
0.0
 11
5.09375
 21
5.0
 31
0.0
  0
LINE
  8
0
  5
7D
 10
4.1875
 20
5.0
 30
0.0
 11
4.75
 21
5.0
 31
0.0
  0
ENDBLK
  8
0
  5
7E
  0
BLOCK
  8
0
  5
7F
  2
400MKT
 70
    64
 10
0.0
 20
0.0
 30
0.0
  3
400MKT
  0
LINE
  8
DAMAN
  5
80
 10
-1.0
 20
-4.0
 30
0.0
 11
0.0
 21
-4.0
 31
0.0
  0
LINE
  8
DAMAN
  5
81
 10
-0.499
 20
-3.6875
 30
0.0
 11
-1.65525
 21
-3.6875
 31
0.0
  0
LINE
  8
DAMAN
  5
82
 10
0.0
 20
-4.0
 30
0.0
 11
0.0
 21
0.0
 31
0.0
  0
POLYLINE
  8
DAMAN
  5
83
 66
     1
 10
0.0
 20
0.0
 30
0.0
 70
   129
  0
VERTEX
  8
DAMAN
  5
84
 10
-0.562
 20
-3.543662
 30
0.0
  0
VERTEX
  8
DAMAN
  5
85
 10
-0.562
 20
-3.832338
 30
0.0
  0
VERTEX
  8
DAMAN
  5
86
 10
-0.312
 20
-3.976675
 30
0.0
  0
VERTEX
  8
DAMAN
  5
87
 10
-0.062
 20
-3.832338
 30
0.0
  0
VERTEX
  8
DAMAN
  5
88
 10
-0.062
 20
-3.543662
 30
0.0
  0
VERTEX
  8
DAMAN
  5
89
 10
-0.312
 20
-3.399325
 30
0.0
  0
SEQEND
  8
DAMAN
  5
8A
  0
CIRCLE
  8
DAMAN
  5
8B
 10
-0.3115
 20
-3.6875
 30
0.0
 40
0.249501
  0
INSERT
  8
DAMAN
  5
8C
  2
100CROSS
 10
-0.3125
 20
-3.6875
 30
0.0
 41
-0.34
 42
0.34
 50
270.0
 43
0.34
  0
LINE
  8
DAMAN
  5
8D
 10
-0.65525
 20
-3.398825
 30
0.0
 11
-0.874
 21
-3.398825
 31
0.0
  0
LINE
  8
DAMAN
  5
8E
 10
-0.65525
 20
-3.831838
 30
0.0
 11
-0.874
 21
-3.831838
 31
0.0
  0
LINE
  8
DAMAN
  5
8F
 10
-0.874
 20
-3.976175
 30
0.0
 11
-0.65525
 21
-3.976175
 31
0.0
  0
LINE
  8
DAMAN
  5
90
 10
-0.874
 20
-3.543162
 30
0.0
 11
-0.65525
 21
-3.543162
 31
0.0
  0
LINE
  8
DAMAN
  5
91
 10
-0.499
 20
-0.3125
 30
0.0
 11
-1.65525
 21
-0.3125
 31
0.0
  0
LINE
  8
DAMAN
  5
92
 10
-0.874
 20
-0.601175
 30
0.0
 11
-0.65525
 21
-0.601175
 31
0.0
  0
LINE
  8
DAMAN
  5
93
 10
-0.874
 20
-0.168162
 30
0.0
 11
-0.65525
 21
-0.168162
 31
0.0
  0
LINE
  8
DAMAN
  5
94
 10
-0.65525
 20
-0.456838
 30
0.0
 11
-0.874
 21
-0.456838
 31
0.0
  0
LINE
  8
DAMAN
  5
95
 10
-0.65525
 20
-0.023825
 30
0.0
 11
-0.874
 21
-0.023825
 31
0.0
  0
LINE
  8
DAMAN
  5
96
 10
0.0
 20
0.0
 30
0.0
 11
-1.0
 21
0.0
 31
0.0
  0
LINE
  8
DAMAN
  5
97
 10
-0.88
 20
0.0
 30
0.0
 11
-0.88
 21
-4.0
 31
0.0
  0
LINE
  8
DAMAN
  5
98
 10
-1.0
 20
0.0
 30
0.0
 11
-1.0
 21
-4.0
 31
0.0
  0
LINE
  8
DAMAN
  6
HIDDEN
  5
99
 10
-1.499
 20
-3.5625
 30
0.0
 11
-0.999
 21
-3.5625
 31
0.0
  0
LINE
  8
DAMAN
  5
9A
 10
-0.999
 20
-3.53125
 30
0.0
 11
-1.46775
 21
-3.53125
 31
0.0
  0
LINE
  8
DAMAN
  6
HIDDEN
  5
9B
 10
-0.999
 20
-3.8125
 30
0.0
 11
-1.499
 21
-3.8125
 31
0.0
  0
LINE
  8
DAMAN
  5
9C
 10
-1.46775
 20
-3.84375
 30
0.0
 11
-0.999
 21
-3.84375
 31
0.0
  0
LINE
  8
DAMAN
  5
9D
 10
-1.499
 20
-3.5625
 30
0.0
 11
-1.499
 21
-3.8125
 31
0.0
  0
LINE
  8
DAMAN
  5
9E
 10
-1.46775
 20
-3.53125
 30
0.0
 11
-1.46775
 21
-3.84375
 31
0.0
  0
LINE
  8
DAMAN
  5
9F
 10
-1.499
 20
-3.8125
 30
0.0
 11
-1.46775
 21
-3.84375
 31
0.0
  0
LINE
  8
DAMAN
  5
A0
 10
-1.46775
 20
-3.53125
 30
0.0
 11
-1.499
 21
-3.5625
 31
0.0
  0
LINE
  8
DAMAN
  5
A1
 10
-1.499
 20
-0.1875
 30
0.0
 11
-1.499
 21
-0.4375
 31
0.0
  0
LINE
  8
DAMAN
  5
A2
 10
-1.46775
 20
-0.15625
 30
0.0
 11
-1.46775
 21
-0.46875
 31
0.0
  0
LINE
  8
DAMAN
  5
A3
 10
-1.46775
 20
-0.46875
 30
0.0
 11
-0.999
 21
-0.46875
 31
0.0
  0
LINE
  8
DAMAN
  6
HIDDEN
  5
A4
 10
-0.999
 20
-0.4375
 30
0.0
 11
-1.499
 21
-0.4375
 31
0.0
  0
LINE
  8
DAMAN
  5
A5
 10
-1.499
 20
-0.4375
 30
0.0
 11
-1.46775
 21
-0.46875
 31
0.0
  0
LINE
  8
DAMAN
  5
A6
 10
-0.999
 20
-0.15625
 30
0.0
 11
-1.46775
 21
-0.15625
 31
0.0
  0
LINE
  8
DAMAN
  6
HIDDEN
  5
A7
 10
-1.499
 20
-0.1875
 30
0.0
 11
-0.999
 21
-0.1875
 31
0.0
  0
LINE
  8
DAMAN
  5
A8
 10
-1.46775
 20
-0.15625
 30
0.0
 11
-1.499
 21
-0.1875
 31
0.0
  0
ARC
  8
DAMAN
  5
A9
 10
-0.722958
 20
-3.904006
 30
0.0
 40
0.098958
 50
313.173551
 51
46.826449
  0
LINE
  8
DAMAN
  5
AA
 10
-0.624
 20
-3.9375
 30
0.0
 11
-0.624
 21
-3.4375
 31
0.0
  0
LINE
  8
DAMAN
  5
AB
 10
-0.65525
 20
-3.976175
 30
0.0
 11
-0.624
 21
-3.9375
 31
0.0
  0
ARC
  8
DAMAN
  5
AC
 10
-0.972958
 20
-3.6875
 30
0.0
 40
0.348958
 50
335.567302
 51
24.432698
  0
ARC
  8
DAMAN
  5
AD
 10
-0.722958
 20
-3.470994
 30
0.0
 40
0.098958
 50
313.173551
 51
46.826449
  0
LINE
  8
DAMAN
  5
AE
 10
-0.65525
 20
-3.398825
 30
0.0
 11
-0.624
 21
-3.4375
 31
0.0
  0
ARC
  8
DAMAN
  5
AF
 10
-0.972958
 20
-0.3125
 30
0.0
 40
0.348958
 50
335.567302
 51
24.432698
  0
INSERT
  8
DAMAN
  5
B0
  2
100CROSS
 10
-0.3125
 20
-0.3125
 30
0.0
 41
-0.34
 42
0.34
 50
270.0
 43
0.34
  0
POLYLINE
  8
DAMAN
  5
B1
 66
     1
 10
0.0
 20
0.0
 30
0.0
 70
   129
  0
VERTEX
  8
DAMAN
  5
B2
 10
-0.562
 20
-0.168662
 30
0.0
  0
VERTEX
  8
DAMAN
  5
B3
 10
-0.562
 20
-0.457338
 30
0.0
  0
VERTEX
  8
DAMAN
  5
B4
 10
-0.312
 20
-0.601675
 30
0.0
  0
VERTEX
  8
DAMAN
  5
B5
 10
-0.062
 20
-0.457338
 30
0.0
  0
VERTEX
  8
DAMAN
  5
B6
 10
-0.062
 20
-0.168662
 30
0.0
  0
VERTEX
  8
DAMAN
  5
B7
 10
-0.312
 20
-0.024325
 30
0.0
  0
SEQEND
  8
DAMAN
  5
B8
  0
CIRCLE
  8
DAMAN
  5
B9
 10
-0.3115
 20
-0.3125
 30
0.0
 40
0.249501
  0
LINE
  8
DAMAN
  5
BA
 10
-0.624
 20
-0.5625
 30
0.0
 11
-0.624
 21
-0.0625
 31
0.0
  0
LINE
  8
DAMAN
  5
BB
 10
-0.65525
 20
-0.601175
 30
0.0
 11
-0.624
 21
-0.5625
 31
0.0
  0
ARC
  8
DAMAN
  5
BC
 10
-0.722958
 20
-0.529006
 30
0.0
 40
0.098958
 50
313.173551
 51
46.826449
  0
LINE
  8
DAMAN
  5
BD
 10
-0.65525
 20
-0.023825
 30
0.0
 11
-0.624
 21
-0.0625
 31
0.0
  0
ARC
  8
DAMAN
  5
BE
 10
-0.722958
 20
-0.095994
 30
0.0
 40
0.098958
 50
313.173551
 51
46.826449
  0
ENDBLK
  8
0
  5
BF
  0
BLOCK
  8
0
  5
C0
  2
300MKS
 70
     0
 10
0.0
 20
0.0
 30
0.0
  3
300MKS
  0
LINE
  8
DAMAN
  5
C1
 10
-1.0
 20
-0.375
 30
0.0
 11
-0.25
 21
-0.375
 31
0.0
  0
LINE
  8
DAMAN
  5
C2
 10
-0.25
 20
-0.25
 30
0.0
 11
-1.0
 21
-0.25
 31
0.0
  0
LINE
  8
DAMAN
  5
C3
 10
-0.84375
 20
-0.84375
 30
0.0
 11
-0.53125
 21
-0.84375
 31
0.0
  0
LINE
  8
DAMAN
  5
C4
 10
-0.8125
 20
-0.875
 30
0.0
 11
-0.5625
 21
-0.875
 31
0.0
  0
LINE
  8
DAMAN
  5
C5
 10
-0.4375
 20
0.0
 30
0.0
 11
-0.9375
 21
0.0
 31
0.0
  0
ARC
  8
DAMAN
  5
C6
 10
-0.6875
 20
-0.348958
 30
0.0
 40
0.348958
 50
65.567302
 51
114.432698
  0
LINE
  8
DAMAN
  5
C7
 10
-0.6875
 20
0.125
 30
0.0
 11
-0.6875
 21
-1.03125
 31
0.0
  0
LINE
  8
DAMAN
  6
HIDDEN
  5
C8
 10
-0.8125
 20
-0.875
 30
0.0
 11
-0.8125
 21
-0.375
 31
0.0
  0
LINE
  8
DAMAN
  5
C9
 10
-0.84375
 20
-0.375
 30
0.0
 11
-0.84375
 21
-0.84375
 31
0.0
  0
LINE
  8
DAMAN
  5
CA
 10
-0.84375
 20
-0.84375
 30
0.0
 11
-0.8125
 21
-0.875
 31
0.0
  0
LINE
  8
DAMAN
  5
CB
 10
-1.0
 20
-0.25
 30
0.0
 11
-1.0
 21
-0.375
 31
0.0
  0
ARC
  8
DAMAN
  5
CC
 10
-0.904006
 20
-0.098958
 30
0.0
 40
0.098958
 50
43.173551
 51
136.826449
  0
LINE
  8
DAMAN
  5
CD
 10
-0.976175
 20
-0.03125
 30
0.0
 11
-0.976175
 21
-0.25
 31
0.0
  0
LINE
  8
DAMAN
  5
CE
 10
-0.976175
 20
-0.03125
 30
0.0
 11
-0.9375
 21
0.0
 31
0.0
  0
LINE
  8
DAMAN
  5
CF
 10
-0.831838
 20
-0.25
 30
0.0
 11
-0.831838
 21
-0.03125
 31
0.0
  0
LINE
  8
DAMAN
  5
D0
 10
0.0
 20
-0.125
 30
0.0
 11
0.0
 21
0.625
 31
0.0
  0
LINE
  8
DAMAN
  5
D1
 10
-0.125
 20
0.625
 30
0.0
 11
-0.125
 21
-0.125
 31
0.0
  0
LINE
  8
DAMAN
  6
HIDDEN
  5
D2
 10
-0.5625
 20
-0.375
 30
0.0
 11
-0.5625
 21
-0.875
 31
0.0
  0
LINE
  8
DAMAN
  5
D3
 10
-0.53125
 20
-0.84375
 30
0.0
 11
-0.53125
 21
-0.375
 31
0.0
  0
LINE
  8
DAMAN
  5
D4
 10
-0.5625
 20
-0.875
 30
0.0
 11
-0.53125
 21
-0.84375
 31
0.0
  0
ARC
  8
DAMAN
  5
D5
 10
-0.25
 20
-0.125
 30
0.0
 40
0.25
 50
270.0
 51
0.0
  0
ARC
  8
DAMAN
  5
D6
 10
-0.25
 20
-0.125
 30
0.0
 40
0.125
 50
270.0
 51
0.0
  0
LINE
  8
DAMAN
  5
D7
 10
-0.543162
 20
-0.03125
 30
0.0
 11
-0.543162
 21
-0.25
 31
0.0
  0
LINE
  8
DAMAN
  5
D8
 10
-0.398825
 20
-0.25
 30
0.0
 11
-0.398825
 21
-0.03125
 31
0.0
  0
ARC
  8
DAMAN
  5
D9
 10
-0.470994
 20
-0.098958
 30
0.0
 40
0.098958
 50
43.173551
 51
136.826449
  0
LINE
  8
DAMAN
  5
DA
 10
-0.398825
 20
-0.03125
 30
0.0
 11
-0.4375
 21
0.0
 31
0.0
  0
LINE
  8
DAMAN
  5
DB
 10
-0.125
 20
0.168162
 30
0.0
 11
-0.34375
 21
0.168162
 31
0.0
  0
LINE
  8
DAMAN
  5
DC
 10
-0.34375
 20
0.023825
 30
0.0
 11
-0.125
 21
0.023825
 31
0.0
  0
LINE
  8
DAMAN
  5
DD
 10
-0.34375
 20
0.456838
 30
0.0
 11
-0.125
 21
0.456838
 31
0.0
  0
LINE
  8
DAMAN
  5
DE
 10
-0.125
 20
0.601175
 30
0.0
 11
-0.34375
 21
0.601175
 31
0.0
  0
ARC
  8
DAMAN
  5
DF
 10
-0.026042
 20
0.3125
 30
0.0
 40
0.348958
 50
155.567302
 51
204.432698
  0
LINE
  8
DAMAN
  5
E0
 10
-0.375
 20
0.5625
 30
0.0
 11
-0.375
 21
0.0625
 31
0.0
  0
LINE
  8
DAMAN
  5
E1
 10
-0.34375
 20
0.023825
 30
0.0
 11
-0.375
 21
0.0625
 31
0.0
  0
ARC
  8
DAMAN
  5
E2
 10
-0.276042
 20
0.095994
 30
0.0
 40
0.098958
 50
133.173551
 51
226.826449
  0
LINE
  8
DAMAN
  5
E3
 10
-0.34375
 20
0.601175
 30
0.0
 11
-0.375
 21
0.5625
 31
0.0
  0
ARC
  8
DAMAN
  5
E4
 10
-0.276042
 20
0.529006
 30
0.0
 40
0.098958
 50
133.173551
 51
226.826449
  0
LINE
  8
DAMAN
  5
E5
 10
0.0
 20
0.625
 30
0.0
 11
-0.125
 21
0.625
 31
0.0
  0
LINE
  8
DAMAN
  5
E6
 10
-0.5
 20
0.3125
 30
0.0
 11
0.375
 21
0.3125
 31
0.0
  0
ENDBLK
  8
0
  5
E7
  0
BLOCK
  8
0
  5
E8
  2
400MKCT
 70
    64
 10
0.0
 20
0.0
 30
0.0
  3
400MKCT
  0
LINE
  8
DAMAN
  5
E9
 10
1.0
 20
0.0
 30
0.0
 11
0.0
 21
0.0
 31
0.0
  0
LINE
  8
DAMAN
  5
EA
 10
0.0
 20
-4.0
 30
0.0
 11
1.0
 21
-4.0
 31
0.0
  0
LINE
  8
DAMAN
  5
EB
 10
0.0
 20
0.0
 30
0.0
 11
0.0
 21
-4.0
 31
0.0
  0
LINE
  8
DAMAN
  5
EC
 10
0.12
 20
0.0
 30
0.0
 11
0.12
 21
-4.0
 31
0.0
  0
ARC
  8
DAMAN
  5
ED
 10
0.027042
 20
-3.6875
 30
0.0
 40
0.348958
 50
335.567302
 51
24.432698
  0
LINE
  8
DAMAN
  5
EE
 10
0.376
 20
-3.9375
 30
0.0
 11
0.376
 21
-3.4375
 31
0.0
  0
INSERT
  8
DAMAN
  5
EF
  2
100CROSS
 10
0.6875
 20
-3.6875
 30
0.0
 41
-0.34
 42
0.34
 50
270.0
 43
0.34
  0
CIRCLE
  8
DAMAN
  5
F0
 10
0.6885
 20
-3.6875
 30
0.0
 40
0.249501
  0
POLYLINE
  8
DAMAN
  5
F1
 66
     1
 10
0.0
 20
0.0
 30
0.0
 70
   129
  0
VERTEX
  8
DAMAN
  5
F2
 10
0.438
 20
-3.543662
 30
0.0
  0
VERTEX
  8
DAMAN
  5
F3
 10
0.438
 20
-3.832338
 30
0.0
  0
VERTEX
  8
DAMAN
  5
F4
 10
0.688
 20
-3.976675
 30
0.0
  0
VERTEX
  8
DAMAN
  5
F5
 10
0.938
 20
-3.832338
 30
0.0
  0
VERTEX
  8
DAMAN
  5
F6
 10
0.938
 20
-3.543662
 30
0.0
  0
VERTEX
  8
DAMAN
  5
F7
 10
0.688
 20
-3.399325
 30
0.0
  0
SEQEND
  8
DAMAN
  5
F8
  0
ARC
  8
DAMAN
  5
F9
 10
0.277042
 20
-3.904006
 30
0.0
 40
0.098958
 50
313.173551
 51
46.826449
  0
LINE
  8
DAMAN
  5
FA
 10
0.126
 20
-3.976175
 30
0.0
 11
0.34475
 21
-3.976175
 31
0.0
  0
LINE
  8
DAMAN
  5
FB
 10
0.34475
 20
-3.976175
 30
0.0
 11
0.376
 21
-3.9375
 31
0.0
  0
LINE
  8
DAMAN
  5
FC
 10
0.34475
 20
-3.831838
 30
0.0
 11
0.126
 21
-3.831838
 31
0.0
  0
LINE
  8
DAMAN
  5
FD
 10
0.126
 20
-3.543162
 30
0.0
 11
0.34475
 21
-3.543162
 31
0.0
  0
LINE
  8
DAMAN
  5
FE
 10
0.34475
 20
-3.398825
 30
0.0
 11
0.126
 21
-3.398825
 31
0.0
  0
LINE
  8
DAMAN
  5
FF
 10
0.34475
 20
-3.398825
 30
0.0
 11
0.376
 21
-3.4375
 31
0.0
  0
ARC
  8
DAMAN
  5
100
 10
0.277042
 20
-3.470994
 30
0.0
 40
0.098958
 50
313.173551
 51
46.826449
  0
ARC
  8
DAMAN
  5
101
 10
0.277042
 20
-0.095994
 30
0.0
 40
0.098958
 50
313.173551
 51
46.826449
  0
LINE
  8
DAMAN
  5
102
 10
0.34475
 20
-0.023825
 30
0.0
 11
0.376
 21
-0.0625
 31
0.0
  0
POLYLINE
  8
DAMAN
  5
103
 66
     1
 10
0.0
 20
0.0
 30
0.0
 70
   129
  0
VERTEX
  8
DAMAN
  5
104
 10
0.438
 20
-0.168662
 30
0.0
  0
VERTEX
  8
DAMAN
  5
105
 10
0.438
 20
-0.457338
 30
0.0
  0
VERTEX
  8
DAMAN
  5
106
 10
0.688
 20
-0.601675
 30
0.0
  0
VERTEX
  8
DAMAN
  5
107
 10
0.938
 20
-0.457338
 30
0.0
  0
VERTEX
  8
DAMAN
  5
108
 10
0.938
 20
-0.168662
 30
0.0
  0
VERTEX
  8
DAMAN
  5
109
 10
0.688
 20
-0.024325
 30
0.0
  0
SEQEND
  8
DAMAN
  5
10A
  0
CIRCLE
  8
DAMAN
  5
10B
 10
0.6885
 20
-0.3125
 30
0.0
 40
0.249501
  0
INSERT
  8
DAMAN
  5
10C
  2
100CROSS
 10
0.6875
 20
-0.3125
 30
0.0
 41
-0.34
 42
0.34
 50
270.0
 43
0.34
  0
LINE
  8
DAMAN
  5
10D
 10
0.376
 20
-0.5625
 30
0.0
 11
0.376
 21
-0.0625
 31
0.0
  0
ARC
  8
DAMAN
  5
10E
 10
0.027042
 20
-0.3125
 30
0.0
 40
0.348958
 50
335.567302
 51
24.432698
  0
LINE
  8
DAMAN
  5
10F
 10
0.34475
 20
-0.456838
 30
0.0
 11
0.126
 21
-0.456838
 31
0.0
  0
LINE
  8
DAMAN
  5
110
 10
0.126
 20
-0.601175
 30
0.0
 11
0.34475
 21
-0.601175
 31
0.0
  0
ARC
  8
DAMAN
  5
111
 10
0.277042
 20
-0.529006
 30
0.0
 40
0.098958
 50
313.173551
 51
46.826449
  0
LINE
  8
DAMAN
  5
112
 10
0.34475
 20
-0.601175
 30
0.0
 11
0.376
 21
-0.5625
 31
0.0
  0
LINE
  8
DAMAN
  5
113
 10
0.126
 20
-0.168162
 30
0.0
 11
0.34475
 21
-0.168162
 31
0.0
  0
LINE
  8
DAMAN
  5
114
 10
0.34475
 20
-0.023825
 30
0.0
 11
0.126
 21
-0.023825
 31
0.0
  0
LINE
  8
DAMAN
  5
115
 10
1.0
 20
-4.0
 30
0.0
 11
1.0
 21
0.0
 31
0.0
  0
ENDBLK
  8
0
  5
116
  0
BLOCK
  8
0
  5
117
  2
100NPTFT
 70
    64
 10
0.0
 20
0.0
 30
0.0
  3
100NPTFT
  0
CIRCLE
  8
DAMAN
  5
118
 10
0.0
 20
0.0
 30
0.0
 40
0.5625
  0
CIRCLE
  8
DAMAN
  5
119
 10
0.0
 20
0.0
 30
0.0
 40
0.672
  0
INSERT
  8
DAMAN
  5
11A
  2
100CROSS
 10
0.0
 20
0.0
 30
0.0
 41
1.2
 42
1.2
 43
0.0
  0
CIRCLE
  8
DAMAN
  5
11B
 10
0.0
 20
0.0
 30
0.0
 40
0.625
  0
ENDBLK
  8
0
  5
11C
  0
BLOCK
  8
0
  5
11D
  2
075NPTFT
 70
    64
 10
0.0
 20
0.0
 30
0.0
  3
075NPTFT
  0
INSERT
  8
DAMAN
  5
11E
  2
750NPTFT
 10
-6.410893
 20
-4.555543
 30
0.0
  0
ENDBLK
  8
0
  5
11F
  0
BLOCK
  8
0
  5
120
  2
750NPTFT
 70
    64
 10
0.0
 20
0.0
 30
0.0
  3
750NPTFT
  0
INSERT
  8
DAMAN
 62
     5
  5
121
  2
100CROSS
 10
6.410893
 20
4.555543
 30
0.0
 41
0.98
 42
0.98
 43
0.0
  0
CIRCLE
  8
DAMAN
 62
     5
  5
122
 10
6.410893
 20
4.555543
 30
0.0
 40
0.491067
  0
CIRCLE
  8
DAMAN
 62
     5
  5
123
 10
6.410893
 20
4.555543
 30
0.0
 40
0.453
  0
CIRCLE
  8
DAMAN
 62
     5
  5
124
 10
6.410893
 20
4.555543
 30
0.0
 40
0.53125
  0
ENDBLK
  8
0
  5
125
  0
BLOCK
  8
0
  5
126
  2
D03
 70
    64
 10
0.0
 20
0.0
 30
0.0
  3
D03
  0
INSERT
  8
DAMAN
  5
127
  2
100CROSS
 10
0.61
 20
-1.1875
 30
0.0
 41
0.25
 42
0.25
 43
0.0
  0
INSERT
  8
DAMAN
  5
128
  2
100CROSS
 10
0.61
 20
-0.5
 30
0.0
 41
0.25
 42
0.25
 43
0.0
  0
CIRCLE
  8
DAMAN
  5
129
 10
0.61
 20
-0.5
 30
0.0
 40
0.141125
  0
CIRCLE
  8
DAMAN
  5
12A
 10
0.61
 20
-1.1875
 30
0.0
 40
0.141125
  0
INSERT
  8
DAMAN
  5
12B
  2
100CROSS
 10
0.2035
 20
-0.844
 30
0.0
 41
0.25
 42
0.25
 43
0.0
  0
CIRCLE
  8
DAMAN
  5
12C
 10
0.2035
 20
-0.844
 30
0.0
 40
0.141375
  0
INSERT
  8
DAMAN
  5
12D
  2
100CROSS
 10
-0.03
 20
-1.3
 30
0.0
 41
0.171
 42
0.171
 43
0.0
  0
INSERT
  8
DAMAN
  5
12E
  2
100CROSS
 10
-0.03
 20
-1.594
 30
0.0
 41
0.188
 42
0.188
 43
0.0
  0
CIRCLE
  8
DAMAN
  6
HIDDEN
  5
12F
 10
-0.03
 20
-1.594
 30
0.0
 40
0.095
  0
CIRCLE
  8
DAMAN
  5
130
 10
-0.03
 20
-1.59375
 30
0.0
 40
0.078
  0
CIRCLE
  8
DAMAN
  5
131
 10
-0.03
 20
-1.3
 30
0.0
 40
0.0855
  0
POINT
  8
DAMAN
  6
BYBLOCK
 62
     0
  5
132
 10
0.20425
 20
-0.75
 30
0.0
  0
POINT
  8
DAMAN
  6
BYBLOCK
 62
     0
  5
133
 10
0.20425
 20
-0.75
 30
0.0
  0
INSERT
  8
DAMAN
  5
134
  2
100CROSS
 10
0.0
 20
0.0
 30
0.0
 41
0.188
 42
0.188
 43
0.0
  0
CIRCLE
  8
DAMAN
  5
135
 10
0.0
 20
0.0
 30
0.0
 40
0.078
  0
CIRCLE
  8
DAMAN
  6
HIDDEN
  5
136
 10
0.0
 20
0.0
 30
0.0
 40
0.095
  0
INSERT
  8
DAMAN
  5
137
  2
100CROSS
 10
1.016
 20
-0.844
 30
0.0
 41
0.25
 42
0.25
 43
0.0
  0
CIRCLE
  8
DAMAN
  5
138
 10
1.016
 20
-0.844
 30
0.0
 40
0.141375
  0
INSERT
  8
DAMAN
  5
139
  2
100CROSS
 10
1.25
 20
-1.594
 30
0.0
 41
0.188
 42
0.188
 43
0.0
  0
CIRCLE
  8
DAMAN
  6
HIDDEN
  5
13A
 10
1.25
 20
-1.594
 30
0.0
 40
0.095
  0
CIRCLE
  8
DAMAN
  5
13B
 10
1.25
 20
-1.59375
 30
0.0
 40
0.078
  0
CIRCLE
  8
DAMAN
  5
13C
 10
1.22
 20
0.0
 30
0.0
 40
0.078
  0
INSERT
  8
DAMAN
  5
13D
  2
100CROSS
 10
1.22
 20
0.0
 30
0.0
 41
0.188
 42
0.188
 43
0.0
  0
CIRCLE
  8
DAMAN
  6
HIDDEN
  5
13E
 10
1.22
 20
0.0
 30
0.0
 40
0.095
  0
ENDBLK
  8
0
  5
13F
  0
BLOCK
  8
0
  5
140
  2
400MKS
 70
    64
 10
0.0
 20
0.0
 30
0.0
  3
400MKS
  0
LINE
  8
DAMAN
  5
141
 10
-0.5
 20
0.0
 30
0.0
 11
0.375
 21
0.0
 31
0.0
  0
LINE
  8
DAMAN
  5
142
 10
-0.53125
 20
-1.15625
 30
0.0
 11
-0.53125
 21
-0.6875
 31
0.0
  0
LINE
  8
DAMAN
  6
HIDDEN
  5
143
 10
-0.5625
 20
-0.6875
 30
0.0
 11
-0.5625
 21
-1.1875
 31
0.0
  0
LINE
  8
DAMAN
  5
144
 10
-0.84375
 20
-0.6875
 30
0.0
 11
-0.84375
 21
-1.15625
 31
0.0
  0
LINE
  8
DAMAN
  6
HIDDEN
  5
145
 10
-0.8125
 20
-1.1875
 30
0.0
 11
-0.8125
 21
-0.6875
 31
0.0
  0
LINE
  8
DAMAN
  5
146
 10
-0.6875
 20
-0.1875
 30
0.0
 11
-0.6875
 21
-1.34375
 31
0.0
  0
LINE
  8
DAMAN
  5
147
 10
-0.8125
 20
-1.1875
 30
0.0
 11
-0.5625
 21
-1.1875
 31
0.0
  0
LINE
  8
DAMAN
  5
148
 10
-0.84375
 20
-1.15625
 30
0.0
 11
-0.53125
 21
-1.15625
 31
0.0
  0
LINE
  8
DAMAN
  5
149
 10
-0.84375
 20
-1.15625
 30
0.0
 11
-0.8125
 21
-1.1875
 31
0.0
  0
LINE
  8
DAMAN
  5
14A
 10
-0.5625
 20
-1.1875
 30
0.0
 11
-0.53125
 21
-1.15625
 31
0.0
  0
ARC
  8
DAMAN
  5
14B
 10
-0.6875
 20
-0.661458
 30
0.0
 40
0.348958
 50
65.567302
 51
114.432698
  0
LINE
  8
DAMAN
  5
14C
 10
-0.4375
 20
-0.3125
 30
0.0
 11
-0.9375
 21
-0.3125
 31
0.0
  0
LINE
  8
DAMAN
  5
14D
 10
-0.25
 20
-0.5625
 30
0.0
 11
-1.0
 21
-0.5625
 31
0.0
  0
LINE
  8
DAMAN
  5
14E
 10
-1.0
 20
-0.6875
 30
0.0
 11
-0.25
 21
-0.6875
 31
0.0
  0
LINE
  8
DAMAN
  5
14F
 10
-1.0
 20
-0.5625
 30
0.0
 11
-1.0
 21
-0.6875
 31
0.0
  0
LINE
  8
DAMAN
  5
150
 10
-0.976175
 20
-0.34375
 30
0.0
 11
-0.9375
 21
-0.3125
 31
0.0
  0
ARC
  8
DAMAN
  5
151
 10
-0.904006
 20
-0.411458
 30
0.0
 40
0.098958
 50
43.173551
 51
136.826449
  0
LINE
  8
DAMAN
  5
152
 10
-0.976175
 20
-0.34375
 30
0.0
 11
-0.976175
 21
-0.5625
 31
0.0
  0
LINE
  8
DAMAN
  5
153
 10
-0.831838
 20
-0.5625
 30
0.0
 11
-0.831838
 21
-0.34375
 31
0.0
  0
ARC
  8
DAMAN
  5
154
 10
-0.276042
 20
-0.216506
 30
0.0
 40
0.098958
 50
133.173551
 51
226.826449
  0
LINE
  8
DAMAN
  5
155
 10
-0.34375
 20
-0.288675
 30
0.0
 11
-0.375
 21
-0.25
 31
0.0
  0
LINE
  8
DAMAN
  5
156
 10
-0.125
 20
0.3125
 30
0.0
 11
-0.125
 21
-0.4375
 31
0.0
  0
LINE
  8
DAMAN
  5
157
 10
0.0
 20
-0.4375
 30
0.0
 11
0.0
 21
0.3125
 31
0.0
  0
LINE
  8
DAMAN
  5
158
 10
-0.34375
 20
-0.288675
 30
0.0
 11
-0.125
 21
-0.288675
 31
0.0
  0
ARC
  8
DAMAN
  5
159
 10
-0.25
 20
-0.4375
 30
0.0
 40
0.125
 50
270.0
 51
0.0
  0
ARC
  8
DAMAN
  5
15A
 10
-0.25
 20
-0.4375
 30
0.0
 40
0.25
 50
270.0
 51
0.0
  0
ARC
  8
DAMAN
  5
15B
 10
-0.470994
 20
-0.411458
 30
0.0
 40
0.098958
 50
43.173551
 51
136.826449
  0
LINE
  8
DAMAN
  5
15C
 10
-0.543162
 20
-0.34375
 30
0.0
 11
-0.543162
 21
-0.5625
 31
0.0
  0
LINE
  8
DAMAN
  5
15D
 10
-0.398825
 20
-0.5625
 30
0.0
 11
-0.398825
 21
-0.34375
 31
0.0
  0
LINE
  8
DAMAN
  5
15E
 10
-0.398825
 20
-0.34375
 30
0.0
 11
-0.4375
 21
-0.3125
 31
0.0
  0
LINE
  8
DAMAN
  5
15F
 10
-0.125
 20
0.288675
 30
0.0
 11
-0.34375
 21
0.288675
 31
0.0
  0
LINE
  8
DAMAN
  5
160
 10
-0.34375
 20
0.144338
 30
0.0
 11
-0.125
 21
0.144338
 31
0.0
  0
LINE
  8
DAMAN
  5
161
 10
-0.125
 20
-0.144338
 30
0.0
 11
-0.34375
 21
-0.144338
 31
0.0
  0
LINE
  8
DAMAN
  5
162
 10
-0.375
 20
0.25
 30
0.0
 11
-0.375
 21
-0.25
 31
0.0
  0
ARC
  8
DAMAN
  5
163
 10
-0.026042
 20
0.0
 30
0.0
 40
0.348958
 50
155.567302
 51
204.432698
  0
ARC
  8
DAMAN
  5
164
 10
-0.276042
 20
0.216506
 30
0.0
 40
0.098958
 50
133.173551
 51
226.826449
  0
LINE
  8
DAMAN
  5
165
 10
-0.34375
 20
0.288675
 30
0.0
 11
-0.375
 21
0.25
 31
0.0
  0
LINE
  8
DAMAN
  5
166
 10
0.0
 20
0.3125
 30
0.0
 11
-0.125
 21
0.3125
 31
0.0
  0
ENDBLK
  8
0
  5
167
  0
BLOCK
  8
0
  5
168
  2
025NPTFT
 70
    64
 10
0.0
 20
0.0
 30
0.0
  3
025NPTFT
  0
INSERT
  8
DAMAN
  5
169
  2
250NPTFT
 10
0.0
 20
0.0
 30
0.0
  0
ENDBLK
  8
0
  5
16A
  0
BLOCK
  8
0
  5
16B
  2
250NPTFT
 70
    64
 10
0.0
 20
0.0
 30
0.0
  3
250NPTFT
  0
CIRCLE
  8
DAMAN
  5
16C
 10
0.0
 20
0.0
 30
0.0
 40
0.273
  0
CIRCLE
  8
DAMAN
  5
16D
 10
0.0
 20
0.0
 30
0.0
 40
0.211
  0
INSERT
  8
DAMAN
  5
16E
  2
100CROSS
 10
0.0
 20
0.0
 30
0.0
 41
0.422
 42
0.422
 43
0.0
  0
CIRCLE
  8
DAMAN
  5
16F
 10
0.0
 20
0.0
 30
0.0
 40
0.242251
  0
POINT
  8
CHIDDEN
  5
170
 10
-0.087928
 20
0.191806
 30
0.0
  0
POINT
  8
CHIDDEN
  5
171
 10
-0.137717
 20
-0.15986
 30
0.0
  0
POINT
  8
CHIDDEN
  5
172
 10
0.202707
 20
-0.058572
 30
0.0
  0
ENDBLK
  8
0
  5
173
  0
BLOCK
  8
0
  5
1A5
  2
C162T
 70
    64
 10
0.0
 20
0.0
 30
0.0
  3
C162T
  0
CIRCLE
  8
DAMAN
  5
1A6
 10
0.0
 20
0.0
 30
0.0
 40
0.375
  0
CIRCLE
  8
DAMAN
  5
1A7
 10
0.0
 20
0.0
 30
0.0
 40
0.5635
  0
CIRCLE
  8
DAMAN
  5
1A8
 10
0.0
 20
0.0
 30
0.0
 40
0.617
  0
CIRCLE
  8
DAMAN
  5
1A9
 10
0.0
 20
0.0
 30
0.0
 40
0.7005
  0
CIRCLE
  8
DAMAN
  5
1AA
 10
0.0
 20
0.0
 30
0.0
 40
0.875
  0
CIRCLE
  8
DAMAN
  6
HIDDEN
  5
1AB
 10
0.0
 20
0.0
 30
0.0
 40
0.656
  0
INSERT
  8
DAMAN
  5
1AC
  2
100CROSS
 10
0.0
 20
0.0
 30
0.0
 41
1.32
 42
1.32
 43
1.5
  0
ENDBLK
  8
0
  5
1AD
  0
BLOCK
  8
0
  5
17D
  2
T3AT
 70
    64
 10
0.0
 20
0.0
 30
0.0
  3
T3AT
  0
CIRCLE
  8
DAMAN
  5
17E
 10
0.0
 20
0.0
 30
0.0
 40
0.4665
  0
CIRCLE
  8
DAMAN
  5
17F
 10
0.0
 20
0.0
 30
0.0
 40
0.4375
  0
CIRCLE
  8
DAMAN
  6
HIDDEN
  5
180
 10
0.0
 20
0.0
 30
0.0
 40
0.5
  0
INSERT
  8
DAMAN
  5
181
  2
100CROSS
 10
0.0
 20
0.0
 30
0.0
 41
0.88
 42
0.88
  0
CIRCLE
  8
DAMAN
  5
182
 10
0.0
 20
0.0
 30
0.0
 40
0.516
  0
CIRCLE
  8
DAMAN
  5
183
 10
0.0
 20
0.0
 30
0.0
 40
0.539
  0
CIRCLE
  8
DAMAN
  5
184
 10
0.0
 20
0.0
 30
0.0
 40
0.344
  0
ENDBLK
  8
0
  5
185
  0
BLOCK
  8
0
  5
18E
  2
100BSPPT
 70
    64
 10
0.0
 20
0.0
 30
0.0
  3
100BSPPT
  0
CIRCLE
  8
DAMAN
  6
HIDDEN
  5
18F
 10
0.0
 20
0.0
 30
0.0
 40
0.6545
  0
CIRCLE
  8
DAMAN
  5
190
 10
0.0
 20
0.0
 30
0.0
 40
0.6125
  0
CIRCLE
  8
DAMAN
  5
191
 10
0.0
 20
0.0
 30
0.0
 40
0.915
  0
INSERT
  8
DAMAN
  5
192
  2
100CROSS
 10
0.0
 20
0.0
 30
0.0
 41
1.33
 42
1.33
 43
0.0
  0
CIRCLE
  8
DAMAN
  5
193
 10
0.0
 20
0.0
 30
0.0
 40
0.6575
  0
ENDBLK
  8
0
  5
194
  0
BLOCK
  8
0
  5
186
  2
106SAET
 70
    64
 10
0.0
 20
0.0
 30
0.0
  3
106SAET
  0
CIRCLE
  8
CSOLID
  5
187
 10
0.0
 20
0.0
 30
0.0
 40
0.492
  0
CIRCLE
  8
CSOLID
  5
188
 10
0.0
 20
0.0
 30
0.0
 40
0.453
  0
CIRCLE
  8
CSOLID
  5
189
 10
0.0
 20
0.0
 30
0.0
 40
0.8125
  0
INSERT
  8
CCENTER
  5
18A
  2
100CROSS
 10
0.0
 20
0.0
 30
0.0
 41
1.33
 42
1.33
 43
0.0
  0
CIRCLE
  8
CHIDDEN
  5
18B
 10
0.0
 20
0.0
 30
0.0
 40
0.53125
  0
CIRCLE
  8
PHANTOM
  5
18C
 10
0.0
 20
0.0
 30
0.0
 40
0.725
  0
ENDBLK
  8
0
  5
18D
  0
BLOCK
  8
0
  5
196
  2
075BSPPT
 70
    64
 10
0.0
 20
0.0
 30
0.0
  3
075BSPPT
  0
CIRCLE
  8
DAMAN
  5
197
 10
0.0
 20
0.0
 30
0.0
 40
0.453
  0
CIRCLE
  8
DAMAN
  5
198
 10
0.0
 20
0.0
 30
0.0
 40
0.475
  0
CIRCLE
  8
DAMAN
  5
199
 10
0.0
 20
0.0
 30
0.0
 40
0.72
  0
LINE
  8
DAMAN
  6
CENTER
  5
19A
 10
-0.8125
 20
0.0
 30
0.0
 11
0.8125
 21
0.0
 31
0.0
  0
CIRCLE
  8
DAMAN
  6
HIDDEN
  5
19B
 10
0.0
 20
0.0
 30
0.0
 40
0.52
  0
LINE
  8
DAMAN
  6
CENTER
  5
19C
 10
0.0
 20
0.8125
 30
0.0
 11
0.0
 21
-0.8125
 31
0.0
  0
ENDBLK
  8
0
  5
19D
  0
ENDSEC
  0
SECTION
  2
ENTITIES
  0
LINE
  8
DAMAN
  5
1
 10
1.0
 20
1.0
 30
0.0
 11
5.0
 21
1.0
 31
0.0
  0
LINE
  8
DAMAN
  5
2
 10
5.0
 20
1.0
 30
0.0
 11
5.0
 21
5.0
 31
0.0
  0
LINE
  8
DAMAN
  5
3
 10
5.0
 20
5.0
 30
0.0
 11
1.0
 21
5.0
 31
0.0
  0
LINE
  8
DAMAN
  6
HIDDEN
  5
4
 10
1.0
 20
5.0
 30
0.0
 11
1.0
 21
1.0
 31
0.0
  0
LINE
  8
DAMAN
  5
5
 10
7.0
 20
1.0
 30
0.0
 11
12.25
 21
1.0
 31
0.0
  0
LINE
  8
DAMAN
  5
6
 10
12.25
 20
1.0
 30
0.0
 11
12.25
 21
5.0
 31
0.0
  0
LINE
  8
DAMAN
  5
7
 10
12.25
 20
5.0
 30
0.0
 11
7.0
 21
5.0
 31
0.0
  0
LINE
  8
DAMAN
  5
8
 10
7.0
 20
5.0
 30
0.0
 11
7.0
 21
1.0
 31
0.0
  0
LINE
  8
DAMAN
  6
HIDDEN
  5
9
 10
18.25
 20
5.0
 30
0.0
 11
18.25
 21
1.0
 31
0.0
  0
LINE
  8
DAMAN
  5
A
 10
14.25
 20
1.0
 30
0.0
 11
14.25
 21
5.0
 31
0.0
  0
LINE
  8
DAMAN
  5
B
 10
18.25
 20
1.0
 30
0.0
 11
14.25
 21
1.0
 31
0.0
  0
LINE
  8
DAMAN
  5
C
 10
14.25
 20
5.0
 30
0.0
 11
18.25
 21
5.0
 31
0.0
  0
LINE
  8
DAMAN
  5
11
 10
12.25
 20
0.0
 30
0.0
 11
7.0
 21
0.0
 31
0.0
  0
LINE
  8
DAMAN
  5
12
 10
7.0
 20
-4.0
 30
0.0
 11
12.25
 21
-4.0
 31
0.0
  0
LINE
  8
DAMAN
  5
13
 10
7.0
 20
0.0
 30
0.0
 11
7.0
 21
-4.0
 31
0.0
  0
LINE
  8
DAMAN
  5
14
 10
12.25
 20
-4.0
 30
0.0
 11
12.25
 21
0.0
 31
0.0
  0
INSERT
  8
DAMAN
  5
15
  2
400MKCT
 10
12.25
 20
5.0
 30
0.0
  0
INSERT
  8
DAMAN
  5
16
  2
400MKCT
 10
7.0
 20
1.0
 30
0.0
 50
180.0
  0
INSERT
  8
DAMAN
  5
17
  2
400MKT
 10
1.625
 20
5.0
 30
0.0
  0
INSERT
  8
DAMAN
  5
18
  2
400MKT
 10
17.625
 20
1.0
 30
0.0
 50
180.0
  0
INSERT
  8
DAMAN
  5
1F
  2
D03
 10
7.953
 20
4.281
 30
0.0
  0
TEXT
  8
DAMAN
  5
20
 10
9.21875
 20
-0.5625
 30
0.0
 40
0.2
  1
B
  0
TEXT
  8
DAMAN
  5
21
 10
9.25
 20
-2.65625
 30
0.0
 40
0.2
  1
A
  0
TEXT
  8
DAMAN
  5
22
 10
3.96875
 20
4.65625
 30
0.0
 40
0.2
  1
T
 50
270.0
  0
TEXT
  8
DAMAN
  5
23
 10
3.96875
 20
1.71875
 30
0.0
 40
0.2
  1
P
 50
270.0
  0
TEXT
  8
DAMAN
  5
24
 10
15.25
 20
4.59375
 30
0.0
 40
0.2
  1
T
 50
90.0
  0
TEXT
  8
DAMAN
  5
25
 10
15.40625
 20
1.65625
 30
0.0
 40
0.2
  1
P
 50
90.0
  0
INSERT
  8
DAMAN
  5
26
  2
D03
 10
10.078
 20
4.281
 30
0.0
  0
TEXT
  8
DAMAN
  5
29
 10
11.375
 20
-2.65625
 30
0.0
 40
0.2
  1
A
  0
TEXT
  8
DAMAN
  5
2A
 10
11.34375
 20
-0.5625
 30
0.0
 40
0.2
  1
B
  0
INSERT
  8
DAMAN
  5
2B
  2
400MKS
 10
7.0
 20
-3.688
 30
0.0
  0
INSERT
  8
DAMAN
  5
2C
  2
400MKS
 10
12.25
 20
-3.688
 30
0.0
 41
-1.0
  0
TEXT
  8
DAMAN
  5
31
 10
7.1875
 20
-1.78125
 30
0.0
 40
0.2
  1
DAMAN ****
  0
INSERT
  8
DAMAN
  5
195
  2
100BSPPT
 10
3.0
 20
4.0
 30
0.0
  0
INSERT
  8
DAMAN
  5
19E
  2
075BSPPT
 10
3.0
 20
2.188
 30
0.0
  0
INSERT
  8
DAMAN
  5
19F
  2
075BSPPT
 10
8.562
 20
-0.875
 30
0.0
  0
INSERT
  8
DAMAN
  5
1A0
  2
075BSPPT
 10
10.687
 20
-0.875
 30
0.0
  0
INSERT
  8
DAMAN
  5
1A1
  2
075BSPPT
 10
10.687
 20
-3.125
 30
0.0
  0
INSERT
  8
DAMAN
  5
1A2
  2
075BSPPT
 10
8.562
 20
-3.125
 30
0.0
  0
INSERT
  8
DAMAN
  5
1A3
  2
075BSPPT
 10
16.25
 20
2.188
 30
0.0
  0
INSERT
  8
DAMAN
  5
1A4
  2
100BSPPT
 10
16.25
 20
4.0
 30
0.0
  0
ENDSEC
  0
EOF
