  0
SECTION
  2
HEADER
  9
$ACADVER
  1
AC1014
  9
$ACADMAINTVER
 70
     9
  9
$DWGCODEPAGE
  3
ANSI_1252
  9
$INSBASE
 10
0.0
 20
0.0
 30
0.0
  9
$EXTMIN
 10
5.247619718834314
 20
0.9997558954634655
 30
-0.0015258207003583
  9
$EXTMAX
 10
28.50018318055684
 20
12.00096133514419
 30
0.0000000349246037
  9
$LIMMIN
 10
0.0
 20
0.0
  9
$LIMMAX
 10
36.0
 20
15.0
  9
$ORTHOMODE
 70
     0
  9
$REGENMODE
 70
     1
  9
$FILLMODE
 70
     1
  9
$QTEXTMODE
 70
     0
  9
$MIRRTEXT
 70
     1
  9
$DRAGMODE
 70
     2
  9
$LTSCALE
 40
1.0
  9
$OSMODE
 70
    37
  9
$ATTMODE
 70
     1
  9
$TEXTSIZE
 40
0.188
  9
$TRACEWID
 40
0.05
  9
$TEXTSTYLE
  7
STANDARD
  9
$CLAYER
  8
DAMAN
  9
$CELTYPE
  6
BYLAYER
  9
$CECOLOR
 62
   256
  9
$CELTSCALE
 40
1.0
  9
$DELOBJ
 70
     1
  9
$DISPSILH
 70
     0
  9
$DIMSCALE
 40
1.0
  9
$DIMASZ
 40
0.18
  9
$DIMEXO
 40
0.0625
  9
$DIMDLI
 40
0.38
  9
$DIMRND
 40
0.0
  9
$DIMDLE
 40
0.0
  9
$DIMEXE
 40
0.18
  9
$DIMTP
 40
0.0
  9
$DIMTM
 40
0.0
  9
$DIMTXT
 40
0.18
  9
$DIMCEN
 40
0.09
  9
$DIMTSZ
 40
0.0
  9
$DIMTOL
 70
     0
  9
$DIMLIM
 70
     0
  9
$DIMTIH
 70
     1
  9
$DIMTOH
 70
     1
  9
$DIMSE1
 70
     0
  9
$DIMSE2
 70
     0
  9
$DIMTAD
 70
     0
  9
$DIMZIN
 70
     0
  9
$DIMBLK
  1

  9
$DIMASO
 70
     1
  9
$DIMSHO
 70
     1
  9
$DIMPOST
  1

  9
$DIMAPOST
  1

  9
$DIMALT
 70
     0
  9
$DIMALTD
 70
     2
  9
$DIMALTF
 40
25.4
  9
$DIMLFAC
 40
1.0
  9
$DIMTOFL
 70
     0
  9
$DIMTVP
 40
0.0
  9
$DIMTIX
 70
     0
  9
$DIMSOXD
 70
     0
  9
$DIMSAH
 70
     0
  9
$DIMBLK1
  1

  9
$DIMBLK2
  1

  9
$DIMSTYLE
  2
STANDARD
  9
$DIMCLRD
 70
     0
  9
$DIMCLRE
 70
     0
  9
$DIMCLRT
 70
     0
  9
$DIMTFAC
 40
1.0
  9
$DIMGAP
 40
0.09
  9
$DIMJUST
 70
     0
  9
$DIMSD1
 70
     0
  9
$DIMSD2
 70
     0
  9
$DIMTOLJ
 70
     1
  9
$DIMTZIN
 70
     0
  9
$DIMALTZ
 70
     0
  9
$DIMALTTZ
 70
     0
  9
$DIMFIT
 70
     3
  9
$DIMUPT
 70
     0
  9
$DIMUNIT
 70
     2
  9
$DIMDEC
 70
     4
  9
$DIMTDEC
 70
     4
  9
$DIMALTU
 70
     2
  9
$DIMALTTD
 70
     2
  9
$DIMTXSTY
  7
STANDARD
  9
$DIMAUNIT
 70
     0
  9
$LUNITS
 70
     2
  9
$LUPREC
 70
     4
  9
$SKETCHINC
 40
0.1
  9
$FILLETRAD
 40
0.0
  9
$AUNITS
 70
     0
  9
$AUPREC
 70
     0
  9
$MENU
  1
tom
  9
$ELEVATION
 40
0.0
  9
$PELEVATION
 40
0.0
  9
$THICKNESS
 40
0.0
  9
$LIMCHECK
 70
     0
  9
$BLIPMODE
 70
     0
  9
$CHAMFERA
 40
0.0
  9
$CHAMFERB
 40
0.0
  9
$CHAMFERC
 40
0.0
  9
$CHAMFERD
 40
0.0
  9
$SKPOLY
 70
     0
  9
$TDCREATE
 40
2449738.677070023
  9
$TDUPDATE
 40
2453437.655138807
  9
$TDINDWG
 40
0.0952771181
  9
$TDUSRTIMER
 40
0.0952769329
  9
$USRTIMER
 70
     1
  9
$ANGBASE
 50
0.0
  9
$ANGDIR
 70
     0
  9
$PDMODE
 70
     0
  9
$PDSIZE
 40
0.0
  9
$PLINEWID
 40
0.0
  9
$COORDS
 70
     1
  9
$SPLFRAME
 70
     0
  9
$SPLINETYPE
 70
     6
  9
$SPLINESEGS
 70
     8
  9
$ATTDIA
 70
     0
  9
$ATTREQ
 70
     1
  9
$HANDLING
 70
-16383
  9
$HANDSEED
  5
181
  9
$SURFTAB1
 70
     6
  9
$SURFTAB2
 70
     6
  9
$SURFTYPE
 70
     6
  9
$SURFU
 70
     6
  9
$SURFV
 70
     6
  9
$UCSNAME
  2

  9
$UCSORG
 10
0.0
 20
0.0
 30
0.0
  9
$UCSXDIR
 10
1.0
 20
0.0
 30
0.0
  9
$UCSYDIR
 10
0.0
 20
1.0
 30
0.0
  9
$PUCSNAME
  2

  9
$PUCSORG
 10
0.0
 20
0.0
 30
0.0
  9
$PUCSXDIR
 10
1.0
 20
0.0
 30
0.0
  9
$PUCSYDIR
 10
0.0
 20
1.0
 30
0.0
  9
$USERI1
 70
     0
  9
$USERI2
 70
     0
  9
$USERI3
 70
     0
  9
$USERI4
 70
     0
  9
$USERI5
 70
     0
  9
$USERR1
 40
0.0
  9
$USERR2
 40
0.0
  9
$USERR3
 40
0.0
  9
$USERR4
 40
0.0
  9
$USERR5
 40
0.0
  9
$WORLDVIEW
 70
     1
  9
$SHADEDGE
 70
     3
  9
$SHADEDIF
 70
    70
  9
$TILEMODE
 70
     1
  9
$MAXACTVP
 70
    16
  9
$PINSBASE
 10
0.0
 20
0.0
 30
0.0
  9
$PLIMCHECK
 70
     0
  9
$PEXTMIN
 10
1.000000000000000E+20
 20
1.000000000000000E+20
 30
1.000000000000000E+20
  9
$PEXTMAX
 10
-1.000000000000000E+20
 20
-1.000000000000000E+20
 30
-1.000000000000000E+20
  9
$PLIMMIN
 10
0.0
 20
0.0
  9
$PLIMMAX
 10
12.0
 20
9.0
  9
$UNITMODE
 70
     0
  9
$VISRETAIN
 70
     0
  9
$PLINEGEN
 70
     0
  9
$PSLTSCALE
 70
     1
  9
$TREEDEPTH
 70
  3020
  9
$PICKSTYLE
 70
     1
  9
$CMLSTYLE
  2
STANDARD
  9
$CMLJUST
 70
     0
  9
$CMLSCALE
 40
1.0
  9
$PROXYGRAPHICS
 70
     1
  9
$MEASUREMENT
 70
     0
  0
ENDSEC
  0
SECTION
  2
CLASSES
  0
CLASS
  1
ACDBDICTIONARYWDFLT
  2
AcDbDictionaryWithDefault
  3
AutoCAD 2000
 90
        0
280
     0
281
     0
  0
CLASS
  1
ACDBPLACEHOLDER
  2
AcDbPlaceHolder
  3
AutoCAD 2000
 90
        0
280
     0
281
     0
  0
CLASS
  1
LAYOUT
  2
AcDbLayout
  3
AutoCAD 2000
 90
        0
280
     0
281
     0
  0
CLASS
  1
LONG_TRANSACTION
  2
AcDbLongTransaction
  3
AutoCAD 2000
 90
        0
280
     0
281
     0
  0
CLASS
  1
LWPOLYLINE
  2
AcDbPolyline
  3
AutoCAD 2000
 90
        0
280
     0
281
     1
  0
CLASS
  1
HATCH
  2
AcDbHatch
  3
AutoCAD 2000
 90
        0
280
     0
281
     1
  0
CLASS
  1
XRECORD
  2
AcDbXrecord
  3
AutoCAD 2000
 90
        0
280
     0
281
     0
  0
ENDSEC
  0
SECTION
  2
TABLES
  0
TABLE
  2
VPORT
  5
8
330
0
100
AcDbSymbolTable
 70
     2
  0
VPORT
  5
15C
330
8
100
AcDbSymbolTableRecord
100
AcDbViewportTableRecord
  2
*ACTIVE
 70
     0
 10
0.0
 20
0.0
 11
1.0
 21
1.0
 12
16.60093572445936
 22
6.301441233550694
 13
0.0
 23
0.0
 14
0.03125
 24
0.03125
 15
0.0
 25
0.0
 16
0.0
 26
0.0
 36
1.0
 17
0.0
 27
0.0
 37
0.0
 40
15.6090917639389
 41
1.647569444444444
 42
50.0
 43
0.0
 44
0.0
 50
0.0
 51
0.0
 71
     0
 72
   100
 73
     1
 74
     1
 75
     1
 76
     0
 77
     0
 78
     0
  0
ENDTAB
  0
TABLE
  2
LTYPE
  5
5
330
0
100
AcDbSymbolTable
 70
     5
  0
LTYPE
  5
13
330
5
100
AcDbSymbolTableRecord
100
AcDbLinetypeTableRecord
  2
BYBLOCK
 70
     0
  3

 72
    65
 73
     0
 40
0.0
  0
LTYPE
  5
14
330
5
100
AcDbSymbolTableRecord
100
AcDbLinetypeTableRecord
  2
BYLAYER
 70
     0
  3

 72
    65
 73
     0
 40
0.0
  0
LTYPE
  5
15
330
5
100
AcDbSymbolTableRecord
100
AcDbLinetypeTableRecord
  2
CONTINUOUS
 70
     0
  3
Solid line
 72
    65
 73
     0
 40
0.0
  0
LTYPE
  5
24
330
5
100
AcDbSymbolTableRecord
100
AcDbLinetypeTableRecord
  2
HIDDEN
 70
     0
  3
__ __ __ __ __ __ __ __ __ __ __ __ __ __ __ __
 72
    65
 73
     2
 40
0.375
 49
0.25
 74
     0
 49
-0.125
 74
     0
  0
LTYPE
  5
25
330
5
100
AcDbSymbolTableRecord
100
AcDbLinetypeTableRecord
  2
DOT
 70
     0
  3
. . . . . . . . . . . . . . . . . . . . . . . .
 72
    65
 73
     2
 40
0.25
 49
0.0
 74
     0
 49
-0.25
 74
     0
  0
LTYPE
  5
26
330
5
100
AcDbSymbolTableRecord
100
AcDbLinetypeTableRecord
  2
DASHED
 70
     0
  3
__ __ __ __ __ __ __ __ __ __ __ __ __ __ __ __
 72
    65
 73
     2
 40
0.75
 49
0.5
 74
     0
 49
-0.25
 74
     0
  0
LTYPE
  5
27
330
5
100
AcDbSymbolTableRecord
100
AcDbLinetypeTableRecord
  2
CENTER
 70
     0
  3
____ _ ____ _ ____ _ ____ _ ____ _ ____ _ ____
 72
    65
 73
     4
 40
2.0
 49
1.25
 74
     0
 49
-0.25
 74
     0
 49
0.25
 74
     0
 49
-0.25
 74
     0
  0
ENDTAB
  0
TABLE
  2
LAYER
  5
2
330
0
100
AcDbSymbolTable
 70
     5
  0
LAYER
  5
10
330
2
100
AcDbSymbolTableRecord
100
AcDbLayerTableRecord
  2
0
 70
     0
 62
     7
  6
CONTINUOUS
  0
LAYER
  5
22
330
2
100
AcDbSymbolTableRecord
100
AcDbLayerTableRecord
  2
DAMAN
 70
     0
 62
     5
  6
CONTINUOUS
  0
LAYER
  5
28
330
2
100
AcDbSymbolTableRecord
100
AcDbLayerTableRecord
  2
CSOLID
 70
     0
 62
     3
  6
CONTINUOUS
  0
LAYER
  5
29
330
2
100
AcDbSymbolTableRecord
100
AcDbLayerTableRecord
  2
CDIM
 70
     0
 62
     2
  6
CONTINUOUS
  0
LAYER
  5
2A
330
2
100
AcDbSymbolTableRecord
100
AcDbLayerTableRecord
  2
CCENTER
 70
     0
 62
     4
  6
CENTER
  0
ENDTAB
  0
TABLE
  2
STYLE
  5
3
330
0
100
AcDbSymbolTable
 70
     1
  0
STYLE
  5
11
330
3
100
AcDbSymbolTableRecord
100
AcDbTextStyleTableRecord
  2
STANDARD
 70
     0
 40
0.0
 41
1.0
 50
0.0
 71
     0
 42
0.188
  3
txt
  4

  0
ENDTAB
  0
TABLE
  2
VIEW
  5
6
330
0
100
AcDbSymbolTable
 70
     0
  0
ENDTAB
  0
TABLE
  2
UCS
  5
7
330
0
100
AcDbSymbolTable
 70
     0
  0
ENDTAB
  0
TABLE
  2
APPID
  5
9
330
0
100
AcDbSymbolTable
 70
     1
  0
APPID
  5
12
330
9
100
AcDbSymbolTableRecord
100
AcDbRegAppTableRecord
  2
ACAD
 70
     0
  0
ENDTAB
  0
TABLE
  2
DIMSTYLE
  5
A
330
0
100
AcDbSymbolTable
 70
     1
  0
DIMSTYLE
105
116
330
A
100
AcDbSymbolTableRecord
100
AcDbDimStyleTableRecord
  2
STANDARD
 70
     0
  3

  4

  5

  6

  7

 40
1.0
 41
0.18
 42
0.0625
 43
0.38
 44
0.18
 45
0.0
 46
0.0
 47
0.0
 48
0.0
140
0.18
141
0.09
142
0.0
143
25.4
144
1.0
145
0.0
146
1.0
147
0.09
 71
     0
 72
     0
 73
     1
 74
     1
 75
     0
 76
     0
 77
     0
 78
     0
170
     0
171
     2
172
     0
173
     0
174
     0
175
     0
176
     0
177
     0
178
     0
270
     2
271
     4
272
     4
273
     2
274
     2
340
11
275
     0
280
     0
281
     0
282
     0
283
     1
284
     0
285
     0
286
     0
287
     3
288
     0
  0
ENDTAB
  0
TABLE
  2
BLOCK_RECORD
  5
1
330
0
100
AcDbSymbolTable
 70
     7
  0
BLOCK_RECORD
  5
1E
102
{ACAD_XDICTIONARY
360
17F
102
}
330
1
100
AcDbSymbolTableRecord
100
AcDbBlockTableRecord
  2
*MODEL_SPACE
  0
BLOCK_RECORD
  5
1A
102
{ACAD_XDICTIONARY
360
17D
102
}
330
1
100
AcDbSymbolTableRecord
100
AcDbBlockTableRecord
  2
*PAPER_SPACE
  0
BLOCK_RECORD
  5
2C
330
1
100
AcDbSymbolTableRecord
100
AcDbBlockTableRecord
  2
D08W
  0
BLOCK_RECORD
  5
2E
330
1
100
AcDbSymbolTableRecord
100
AcDbBlockTableRecord
  2
100CROSS
  0
BLOCK_RECORD
  5
32
330
1
100
AcDbSymbolTableRecord
100
AcDbBlockTableRecord
  2
050CROSS
  0
BLOCK_RECORD
  5
5C
330
1
100
AcDbSymbolTableRecord
100
AcDbBlockTableRecord
  2
D03
  0
BLOCK_RECORD
  5
77
330
1
100
AcDbSymbolTableRecord
100
AcDbBlockTableRecord
  2
04SAET
  0
BLOCK_RECORD
  5
7F
330
1
100
AcDbSymbolTableRecord
100
AcDbBlockTableRecord
  2
D08SF
  0
BLOCK_RECORD
  5
81
330
1
100
AcDbSymbolTableRecord
100
AcDbBlockTableRecord
  2
D06I
  0
ENDTAB
  0
ENDSEC
  0
SECTION
  2
BLOCKS
  0
BLOCK
  5
1F
330
1E
100
AcDbEntity
  8
0
100
AcDbBlockBegin
  2
*MODEL_SPACE
 70
     0
 10
0.0
 20
0.0
 30
0.0
  3
*MODEL_SPACE
  1

  0
ENDBLK
  5
20
330
1E
100
AcDbEntity
  8
0
100
AcDbBlockEnd
  0
BLOCK
  5
1B
330
1A
100
AcDbEntity
 67
     1
  8
0
100
AcDbBlockBegin
  2
*PAPER_SPACE
 70
     0
 10
0.0
 20
0.0
 30
0.0
  3
*PAPER_SPACE
  1

  0
ENDBLK
  5
1C
330
1A
100
AcDbEntity
 67
     1
  8
0
100
AcDbBlockEnd
  0
BLOCK
  5
2D
330
2C
100
AcDbEntity
  8
0
100
AcDbBlockBegin
  2
D08W
 70
     0
 10
0.0
 20
0.0
 30
0.0
  3
D08W
  1

  0
INSERT
  5
2F
330
2C
100
AcDbEntity
  8
DAMAN
100
AcDbBlockReference
  2
100CROSS
 10
0.6875
 20
-3.96875
 30
0.0
 41
1.03
 42
1.03
  0
CIRCLE
  5
30
330
2C
100
AcDbEntity
  8
DAMAN
100
AcDbCircle
 10
2.875
 20
-4.437999999999999
 30
0.0
 40
0.2189999999999999
  0
CIRCLE
  5
31
330
2C
100
AcDbEntity
  8
DAMAN
100
AcDbCircle
 10
0.6879999999999999
 20
-3.9685
 30
0.0
 40
0.453
  0
INSERT
  5
33
330
2C
100
AcDbEntity
  8
DAMAN
100
AcDbBlockReference
  2
050CROSS
 10
2.875
 20
-4.437999999999999
 30
0.0
 41
0.4375
 42
0.4375
  0
INSERT
  5
34
330
2C
100
AcDbEntity
  8
DAMAN
100
AcDbBlockReference
  2
050CROSS
 10
0.0
 20
-5.125
 30
0.0
 41
0.6
 42
0.6
  0
CIRCLE
  5
35
330
2C
100
AcDbEntity
  8
DAMAN
100
AcDbCircle
 10
0.0
 20
-5.125
 30
0.0
 40
0.2655
  0
CIRCLE
  5
36
330
2C
100
AcDbEntity
  8
DAMAN
100
AcDbCircle
 10
1.8125
 20
-4.900591
 30
0.0
 40
0.09845
  0
INSERT
  5
37
330
2C
100
AcDbEntity
  8
DAMAN
100
AcDbBlockReference
  2
050CROSS
 10
1.8125
 20
-4.900591
 30
0.0
 41
0.25
 42
0.25
  0
INSERT
  5
38
330
2C
100
AcDbEntity
  8
DAMAN
100
AcDbBlockReference
  2
050CROSS
 10
3.625
 20
-5.125
 30
0.0
 41
0.6
 42
0.6
  0
CIRCLE
  5
39
330
2C
100
AcDbEntity
  8
DAMAN
100
AcDbCircle
 10
3.625
 20
-5.125
 30
0.0
 40
0.2655
  0
INSERT
  5
3A
330
2C
100
AcDbEntity
  8
DAMAN
100
AcDbBlockReference
  2
100CROSS
 10
0.6875
 20
-2.09375
 30
0.0
 41
1.03
 42
1.03
  0
CIRCLE
  5
3B
330
2C
100
AcDbEntity
  8
DAMAN
100
AcDbCircle
 10
0.6879999999999999
 20
-2.0935
 30
0.0
 40
0.453
  0
INSERT
  5
3C
330
2C
100
AcDbEntity
  8
DAMAN
100
AcDbBlockReference
  2
050CROSS
 10
0.0
 20
0.0
 30
0.0
 41
0.6
 42
0.6
  0
INSERT
  5
3D
330
2C
100
AcDbEntity
  8
DAMAN
100
AcDbBlockReference
  2
050CROSS
 10
0.0
 20
-3.03125
 30
0.0
 41
0.6
 42
0.6
  0
CIRCLE
  5
3E
330
2C
100
AcDbEntity
  8
DAMAN
100
AcDbCircle
 10
0.0
 20
-3.03125
 30
0.0
 40
0.2655
  0
INSERT
  5
3F
330
2C
100
AcDbEntity
  8
DAMAN
100
AcDbBlockReference
  2
100CROSS
 10
0.0
 20
-1.15625
 30
0.0
 41
0.25
 42
0.25
  0
CIRCLE
  5
40
330
2C
100
AcDbEntity
  8
DAMAN
100
AcDbCircle
 10
0.0
 20
-1.15625
 30
0.0
 40
0.1405
  0
CIRCLE
  5
41
330
2C
100
AcDbEntity
  8
DAMAN
100
AcDbCircle
 10
0.0
 20
0.0
 30
0.0
 40
0.2655
  0
INSERT
  5
42
330
2C
100
AcDbEntity
  8
DAMAN
100
AcDbBlockReference
  2
100CROSS
 10
2.9375
 20
-1.15625
 30
0.0
 41
1.03
 42
1.03
  0
INSERT
  5
43
330
2C
100
AcDbEntity
  8
DAMAN
100
AcDbBlockReference
  2
050CROSS
 10
3.625
 20
-2.09375
 30
0.0
 41
0.6
 42
0.6
  0
INSERT
  5
44
330
2C
100
AcDbEntity
  8
DAMAN
100
AcDbBlockReference
  2
100CROSS
 10
2.9375
 20
-3.03125
 30
0.0
 41
1.03
 42
1.03
  0
CIRCLE
  5
45
330
2C
100
AcDbEntity
  8
DAMAN
100
AcDbCircle
 10
2.938
 20
-3.031
 30
0.0
 40
0.453
  0
INSERT
  5
46
330
2C
100
AcDbEntity
  8
DAMAN
100
AcDbBlockReference
  2
100CROSS
 10
3.811999999999999
 20
-3.718249999999999
 30
0.0
 41
0.25
 42
0.25
  0
CIRCLE
  5
47
330
2C
100
AcDbEntity
  8
DAMAN
100
AcDbCircle
 10
3.811999999999999
 20
-3.718249999999999
 30
0.0
 40
0.1405
  0
CIRCLE
  5
48
330
2C
100
AcDbEntity
  8
DAMAN
100
AcDbCircle
 10
3.625
 20
-2.09375
 30
0.0
 40
0.2655
  0
CIRCLE
  5
49
330
2C
100
AcDbEntity
  8
DAMAN
100
AcDbCircle
 10
2.938
 20
-1.155999999999999
 30
0.0
 40
0.453
  0
INSERT
  5
4A
330
2C
100
AcDbEntity
  8
DAMAN
100
AcDbBlockReference
  2
050CROSS
 10
1.8125
 20
-0.224409
 30
0.0
 41
0.25
 42
0.25
  0
INSERT
  5
4B
330
2C
100
AcDbEntity
  8
DAMAN
100
AcDbBlockReference
  2
050CROSS
 10
0.75
 20
-0.6879999999999999
 30
0.0
 41
0.4375
 42
0.4375
  0
CIRCLE
  5
4C
330
2C
100
AcDbEntity
  8
DAMAN
100
AcDbCircle
 10
0.75
 20
-0.6879999999999999
 30
0.0
 40
0.2189999999999999
  0
CIRCLE
  5
4D
330
2C
100
AcDbEntity
  8
DAMAN
100
AcDbCircle
 10
1.8125
 20
-0.224409
 30
0.0
 40
0.09845
  0
INSERT
  5
4E
330
2C
100
AcDbEntity
  8
DAMAN
100
AcDbBlockReference
  2
050CROSS
 10
3.625
 20
0.0
 30
0.0
 41
0.6
 42
0.6
  0
CIRCLE
  5
4F
330
2C
100
AcDbEntity
  8
DAMAN
100
AcDbCircle
 10
3.625
 20
0.0
 30
0.0
 40
0.2655
  0
ENDBLK
  5
50
330
2C
100
AcDbEntity
  8
0
100
AcDbBlockEnd
  0
BLOCK
  5
51
330
2E
100
AcDbEntity
  8
0
100
AcDbBlockBegin
  2
100CROSS
 70
     0
 10
5.625
 20
4.59375
 30
0.0
  3
100CROSS
  1

  0
INSERT
  5
52
330
2E
100
AcDbEntity
  8
0
100
AcDbBlockReference
  2
050CROSS
 10
5.625
 20
4.59375
 30
0.0
  0
ENDBLK
  5
53
330
2E
100
AcDbEntity
  8
0
100
AcDbBlockEnd
  0
BLOCK
  5
54
330
32
100
AcDbEntity
  8
0
100
AcDbBlockBegin
  2
050CROSS
 70
     0
 10
5.0
 20
5.0
 30
0.0
  3
050CROSS
  1

  0
LINE
  5
55
330
32
100
AcDbEntity
  8
0
100
AcDbLine
 10
5.0
 20
5.28125
 30
0.0
 11
5.0
 21
5.78125
 31
0.0
  0
LINE
  5
56
330
32
100
AcDbEntity
  8
0
100
AcDbLine
 10
5.0
 20
4.875
 30
0.0
 11
5.0
 21
5.125
 31
0.0
  0
LINE
  5
57
330
32
100
AcDbEntity
  8
0
100
AcDbLine
 10
5.0
 20
4.15625
 30
0.0
 11
5.0
 21
4.71875
 31
0.0
  0
LINE
  5
58
330
32
100
AcDbEntity
  8
0
100
AcDbLine
 10
5.25
 20
5.0
 30
0.0
 11
5.8125
 21
5.0
 31
0.0
  0
LINE
  5
59
330
32
100
AcDbEntity
  8
0
100
AcDbLine
 10
4.90625
 20
5.0
 30
0.0
 11
5.09375
 21
5.0
 31
0.0
  0
LINE
  5
5A
330
32
100
AcDbEntity
  8
0
100
AcDbLine
 10
4.1875
 20
5.0
 30
0.0
 11
4.75
 21
5.0
 31
0.0
  0
ENDBLK
  5
5B
330
32
100
AcDbEntity
  8
0
100
AcDbBlockEnd
  0
BLOCK
  5
5D
330
5C
100
AcDbEntity
  8
0
100
AcDbBlockBegin
  2
D03
 70
     0
 10
0.0
 20
0.0
 30
0.0
  3
D03
  1

  0
INSERT
  5
5E
330
5C
100
AcDbEntity
  8
DAMAN
100
AcDbBlockReference
  2
100CROSS
 10
0.61
 20
-1.1875
 30
0.0
 41
0.25
 42
0.25
  0
INSERT
  5
5F
330
5C
100
AcDbEntity
  8
DAMAN
100
AcDbBlockReference
  2
100CROSS
 10
0.61
 20
-0.5
 30
0.0
 41
0.25
 42
0.25
  0
CIRCLE
  5
60
330
5C
100
AcDbEntity
  8
DAMAN
100
AcDbCircle
 10
0.61
 20
-0.5
 30
0.0
 40
0.141125
  0
CIRCLE
  5
61
330
5C
100
AcDbEntity
  8
DAMAN
100
AcDbCircle
 10
0.61
 20
-1.1875
 30
0.0
 40
0.141125
  0
INSERT
  5
62
330
5C
100
AcDbEntity
  8
DAMAN
100
AcDbBlockReference
  2
100CROSS
 10
0.2035
 20
-0.8440000000000001
 30
0.0
 41
0.25
 42
0.25
  0
CIRCLE
  5
63
330
5C
100
AcDbEntity
  8
DAMAN
100
AcDbCircle
 10
0.2035
 20
-0.8440000000000001
 30
0.0
 40
0.141375
  0
INSERT
  5
64
330
5C
100
AcDbEntity
  8
DAMAN
100
AcDbBlockReference
  2
100CROSS
 10
-0.03
 20
-1.3
 30
0.0
 41
0.171
 42
0.171
  0
INSERT
  5
65
330
5C
100
AcDbEntity
  8
DAMAN
100
AcDbBlockReference
  2
100CROSS
 10
-0.03
 20
-1.594
 30
0.0
 41
0.188
 42
0.188
  0
CIRCLE
  5
66
330
5C
100
AcDbEntity
  8
DAMAN
  6
HIDDEN
100
AcDbCircle
 10
-0.03
 20
-1.594
 30
0.0
 40
0.095
  0
CIRCLE
  5
67
330
5C
100
AcDbEntity
  8
DAMAN
100
AcDbCircle
 10
-0.03
 20
-1.59375
 30
0.0
 40
0.078
  0
CIRCLE
  5
68
330
5C
100
AcDbEntity
  8
DAMAN
100
AcDbCircle
 10
-0.03
 20
-1.3
 30
0.0
 40
0.0855
  0
POINT
  5
69
330
5C
100
AcDbEntity
  8
DAMAN
  6
BYBLOCK
 62
     0
100
AcDbPoint
 10
0.20425
 20
-0.75
 30
0.0
  0
POINT
  5
6A
330
5C
100
AcDbEntity
  8
DAMAN
  6
BYBLOCK
 62
     0
100
AcDbPoint
 10
0.20425
 20
-0.75
 30
0.0
  0
INSERT
  5
6B
330
5C
100
AcDbEntity
  8
DAMAN
100
AcDbBlockReference
  2
100CROSS
 10
0.0
 20
0.0
 30
0.0
 41
0.188
 42
0.188
  0
CIRCLE
  5
6C
330
5C
100
AcDbEntity
  8
DAMAN
100
AcDbCircle
 10
0.0
 20
0.0
 30
0.0
 40
0.078
  0
CIRCLE
  5
6D
330
5C
100
AcDbEntity
  8
DAMAN
  6
HIDDEN
100
AcDbCircle
 10
0.0
 20
0.0
 30
0.0
 40
0.095
  0
INSERT
  5
6E
330
5C
100
AcDbEntity
  8
DAMAN
100
AcDbBlockReference
  2
100CROSS
 10
1.016
 20
-0.8440000000000001
 30
0.0
 41
0.25
 42
0.25
  0
CIRCLE
  5
6F
330
5C
100
AcDbEntity
  8
DAMAN
100
AcDbCircle
 10
1.016
 20
-0.8440000000000001
 30
0.0
 40
0.141375
  0
INSERT
  5
70
330
5C
100
AcDbEntity
  8
DAMAN
100
AcDbBlockReference
  2
100CROSS
 10
1.25
 20
-1.594
 30
0.0
 41
0.188
 42
0.188
  0
CIRCLE
  5
71
330
5C
100
AcDbEntity
  8
DAMAN
  6
HIDDEN
100
AcDbCircle
 10
1.25
 20
-1.594
 30
0.0
 40
0.095
  0
CIRCLE
  5
72
330
5C
100
AcDbEntity
  8
DAMAN
100
AcDbCircle
 10
1.25
 20
-1.59375
 30
0.0
 40
0.078
  0
CIRCLE
  5
73
330
5C
100
AcDbEntity
  8
DAMAN
100
AcDbCircle
 10
1.219999999999999
 20
0.0
 30
0.0
 40
0.078
  0
INSERT
  5
74
330
5C
100
AcDbEntity
  8
DAMAN
100
AcDbBlockReference
  2
100CROSS
 10
1.219999999999999
 20
0.0
 30
0.0
 41
0.188
 42
0.188
  0
CIRCLE
  5
75
330
5C
100
AcDbEntity
  8
DAMAN
  6
HIDDEN
100
AcDbCircle
 10
1.219999999999999
 20
0.0
 30
0.0
 40
0.095
  0
ENDBLK
  5
76
330
5C
100
AcDbEntity
  8
0
100
AcDbBlockEnd
  0
BLOCK
  5
78
330
77
100
AcDbEntity
  8
0
100
AcDbBlockBegin
  2
04SAET
 70
     0
 10
0.0
 20
0.0
 30
0.0
  3
04SAET
  1

  0
CIRCLE
  5
79
330
77
100
AcDbEntity
  8
DAMAN
100
AcDbCircle
 10
0.0
 20
0.0
 30
0.0
 40
0.4375
  0
INSERT
  5
7A
330
77
100
AcDbEntity
  8
DAMAN
100
AcDbBlockReference
  2
100CROSS
 10
0.0
 20
0.0
 30
0.0
 41
0.8
 42
0.8
  0
CIRCLE
  5
7B
330
77
100
AcDbEntity
  8
DAMAN
  6
HIDDEN
100
AcDbCircle
 10
0.0
 20
0.0
 30
0.0
 40
0.21875
  0
CIRCLE
  5
7C
330
77
100
AcDbEntity
  8
DAMAN
100
AcDbCircle
 10
0.0
 20
0.0
 30
0.0
 40
0.1875
  0
CIRCLE
  5
7D
330
77
100
AcDbEntity
  8
DAMAN
100
AcDbCircle
 10
0.0
 20
0.0
 30
0.0
 40
0.2435
  0
ENDBLK
  5
7E
330
77
100
AcDbEntity
  8
0
100
AcDbBlockEnd
  0
BLOCK
  5
80
330
7F
100
AcDbEntity
  8
0
100
AcDbBlockBegin
  2
D08SF
 70
     0
 10
0.0
 20
0.0
 30
0.0
  3
D08SF
  1

  0
INSERT
  5
82
330
7F
100
AcDbEntity
  8
DAMAN
100
AcDbBlockReference
  2
D06I
 10
3.625
 20
0.0
 30
0.0
 41
-1.0
  0
LINE
  5
83
330
7F
100
AcDbEntity
  8
DAMAN
100
AcDbLine
 10
0.107306
 20
-3.031
 30
0.0
 11
-1.347137999999999
 21
-3.031
 31
0.0
  0
LINE
  5
84
330
7F
100
AcDbEntity
  8
DAMAN
100
AcDbLine
 10
-0.564194
 20
-5.5625
 30
0.0
 11
-2.107299999999999
 21
-5.5625
 31
0.0
  0
CIRCLE
  5
85
330
7F
100
AcDbEntity
  8
DAMAN
100
AcDbCircle
 10
0.75
 20
-4.4375
 30
0.0
 40
0.25
  0
CIRCLE
  5
86
330
7F
100
AcDbEntity
  8
DAMAN
100
AcDbCircle
 10
2.875
 20
-0.6875
 30
0.0
 40
0.25
  0
ENDBLK
  5
87
330
7F
100
AcDbEntity
  8
0
100
AcDbBlockEnd
  0
BLOCK
  5
88
330
81
100
AcDbEntity
  8
0
100
AcDbBlockBegin
  2
D06I
 70
     0
 10
18.28125
 20
11.06249999999999
 30
0.0
  3
D06I
  1

  0
INSERT
  5
89
330
81
100
AcDbEntity
  8
CCENTER
100
AcDbBlockReference
  2
100CROSS
 10
21.90625
 20
5.9375
 30
0.0
 41
0.8
 42
0.8
 43
0.8
  0
INSERT
  5
8A
330
81
100
AcDbEntity
  8
CCENTER
100
AcDbBlockReference
  2
100CROSS
 10
21.90625
 20
8.96875
 30
0.0
 41
0.8
 42
0.8
 43
0.8
  0
INSERT
  5
8B
330
81
100
AcDbEntity
  8
CCENTER
100
AcDbBlockReference
  2
100CROSS
 10
18.28125
 20
8.03125
 30
0.0
 41
0.8
 42
0.8
 43
0.8
  0
INSERT
  5
8C
330
81
100
AcDbEntity
  8
CCENTER
100
AcDbBlockReference
  2
100CROSS
 10
21.90625
 20
11.06249999999999
 30
0.0
 41
0.8
 42
0.8
 43
0.8
  0
INSERT
  5
8D
330
81
100
AcDbEntity
  8
CCENTER
100
AcDbBlockReference
  2
100CROSS
 10
18.28125
 20
5.9375
 30
0.0
 41
0.8
 42
0.8
 43
0.8
  0
INSERT
  5
8E
330
81
100
AcDbEntity
  8
CCENTER
100
AcDbBlockReference
  2
100CROSS
 10
18.28125
 20
11.06249999999999
 30
0.0
 41
0.8
 42
0.8
 43
0.8
  0
INSERT
  5
8F
330
81
100
AcDbEntity
  8
CCENTER
100
AcDbBlockReference
  2
100CROSS
 10
18.28125
 20
9.90625
 30
0.0
 41
0.25
 42
0.25
  0
INSERT
  5
90
330
81
100
AcDbEntity
  8
CCENTER
100
AcDbBlockReference
  2
100CROSS
 10
22.09325
 20
7.344249999999999
 30
0.0
 41
0.25
 42
0.25
  0
INSERT
  5
91
330
81
100
AcDbEntity
  8
CCENTER
100
AcDbBlockReference
  2
100CROSS
 10
18.96875
 20
7.09375
 30
0.0
 41
1.03
 42
1.03
  0
INSERT
  5
92
330
81
100
AcDbEntity
  8
CCENTER
100
AcDbBlockReference
  2
100CROSS
 10
21.15625
 20
6.625
 30
0.0
 41
0.875
 42
0.875
  0
INSERT
  5
93
330
81
100
AcDbEntity
  8
CCENTER
100
AcDbBlockReference
  2
100CROSS
 10
21.21875
 20
8.03125
 30
0.0
 41
1.03
 42
1.03
  0
INSERT
  5
94
330
81
100
AcDbEntity
  8
CCENTER
100
AcDbBlockReference
  2
100CROSS
 10
21.21875
 20
9.90625
 30
0.0
 41
1.03
 42
1.03
  0
INSERT
  5
95
330
81
100
AcDbEntity
  8
CCENTER
100
AcDbBlockReference
  2
100CROSS
 10
18.96875
 20
8.96875
 30
0.0
 41
1.03
 42
1.03
  0
INSERT
  5
96
330
81
100
AcDbEntity
  8
CCENTER
100
AcDbBlockReference
  2
100CROSS
 10
19.03125
 20
10.375
 30
0.0
 41
0.875
 42
0.875
  0
CIRCLE
  5
97
330
81
100
AcDbEntity
  8
CSOLID
100
AcDbCircle
 10
22.09325
 20
7.344249999999999
 30
0.0
 40
0.1405
  0
CIRCLE
  5
98
330
81
100
AcDbEntity
  8
CSOLID
100
AcDbCircle
 10
18.28125
 20
9.90625
 30
0.0
 40
0.1405
  0
CIRCLE
  5
99
330
81
100
AcDbEntity
  8
CSOLID
100
AcDbCircle
 10
21.21925
 20
9.906499999999999
 30
0.0
 40
0.453
  0
CIRCLE
  5
9A
330
81
100
AcDbEntity
  8
CSOLID
100
AcDbCircle
 10
21.21925
 20
8.031499999999999
 30
0.0
 40
0.453
  0
CIRCLE
  5
9B
330
81
100
AcDbEntity
  8
CSOLID
100
AcDbCircle
 10
18.96924999999999
 20
8.968999999999999
 30
0.0
 40
0.453
  0
CIRCLE
  5
9C
330
81
100
AcDbEntity
  8
CSOLID
100
AcDbCircle
 10
18.96924999999999
 20
7.093999999999999
 30
0.0
 40
0.453
  0
CIRCLE
  5
9D
330
81
100
AcDbEntity
  8
CSOLID
100
AcDbCircle
 10
18.28125
 20
11.06249999999999
 30
0.0
 40
0.2655
  0
CIRCLE
  5
9E
330
81
100
AcDbEntity
  8
CSOLID
100
AcDbCircle
 10
18.28125
 20
5.9375
 30
0.0
 40
0.2655
  0
CIRCLE
  5
9F
330
81
100
AcDbEntity
  8
CSOLID
100
AcDbCircle
 10
21.90625
 20
11.06249999999999
 30
0.0
 40
0.2655
  0
CIRCLE
  5
A0
330
81
100
AcDbEntity
  8
CSOLID
100
AcDbCircle
 10
21.90625
 20
5.9375
 30
0.0
 40
0.2655
  0
CIRCLE
  5
A1
330
81
100
AcDbEntity
  8
CSOLID
100
AcDbCircle
 10
21.90625
 20
8.96875
 30
0.0
 40
0.2655
  0
CIRCLE
  5
A2
330
81
100
AcDbEntity
  8
CSOLID
100
AcDbCircle
 10
18.28125
 20
8.03125
 30
0.0
 40
0.2655
  0
CIRCLE
  5
A3
330
81
100
AcDbEntity
  8
CSOLID
100
AcDbCircle
 10
19.03125
 20
10.375
 30
0.0
 40
0.5
  0
CIRCLE
  5
A4
330
81
100
AcDbEntity
  8
CSOLID
100
AcDbCircle
 10
21.15625
 20
6.625
 30
0.0
 40
0.5
  0
CIRCLE
  5
A5
330
81
100
AcDbEntity
  8
CSOLID
100
AcDbCircle
 10
18.96875
 20
7.09375
 30
0.0
 40
0.6559999999999999
  0
CIRCLE
  5
A6
330
81
100
AcDbEntity
  8
CSOLID
100
AcDbCircle
 10
21.21875
 20
8.03125
 30
0.0
 40
0.6559999999999999
  0
CIRCLE
  5
A7
330
81
100
AcDbEntity
  8
CSOLID
100
AcDbCircle
 10
21.21875
 20
9.90625
 30
0.0
 40
0.6559999999999999
  0
CIRCLE
  5
A8
330
81
100
AcDbEntity
  8
CSOLID
100
AcDbCircle
 10
18.96875
 20
8.96875
 30
0.0
 40
0.6559999999999999
  0
ENDBLK
  5
A9
330
81
100
AcDbEntity
  8
0
100
AcDbBlockEnd
  0
ENDSEC
  0
SECTION
  2
ENTITIES
  0
LINE
  5
AA
330
1E
100
AcDbEntity
  8
DAMAN
100
AcDbLine
 10
5.25
 20
3.5
 30
0.0
 11
15.125
 21
3.5
 31
0.0
  0
LINE
  5
AB
330
1E
100
AcDbEntity
  8
DAMAN
100
AcDbLine
 10
15.125
 20
3.5
 30
0.0
 11
15.125
 21
9.5
 31
0.0
  0
LINE
  5
AC
330
1E
100
AcDbEntity
  8
DAMAN
100
AcDbLine
 10
15.125
 20
9.5
 30
0.0
 11
5.25
 21
9.5
 31
0.0
  0
LINE
  5
AD
330
1E
100
AcDbEntity
  8
DAMAN
100
AcDbLine
 10
5.25
 20
1.0
 30
0.0
 11
15.125
 21
1.0
 31
0.0
  0
LINE
  5
AE
330
1E
100
AcDbEntity
  8
DAMAN
100
AcDbLine
 10
15.125
 20
1.0
 30
0.0
 11
15.125
 21
2.5
 31
0.0
  0
LINE
  5
AF
330
1E
100
AcDbEntity
  8
DAMAN
100
AcDbLine
 10
15.125
 20
2.5
 30
0.0
 11
5.25
 21
2.5
 31
0.0
  0
LINE
  5
B0
330
1E
100
AcDbEntity
  8
DAMAN
100
AcDbLine
 10
17.625
 20
9.5
 30
0.0
 11
17.625
 21
3.5
 31
0.0
  0
LINE
  5
B1
330
1E
100
AcDbEntity
  8
DAMAN
100
AcDbLine
 10
16.125
 20
3.5
 30
0.0
 11
16.125
 21
9.5
 31
0.0
  0
LINE
  5
B2
330
1E
100
AcDbEntity
  8
DAMAN
100
AcDbLine
 10
17.625
 20
3.5
 30
0.0
 11
16.125
 21
3.5
 31
0.0
  0
LINE
  5
B3
330
1E
100
AcDbEntity
  8
DAMAN
100
AcDbLine
 10
16.125
 20
9.5
 30
0.0
 11
17.625
 21
9.5
 31
0.0
  0
LINE
  5
B4
330
1E
100
AcDbEntity
  8
DAMAN
100
AcDbLine
 10
15.125
 20
10.5
 30
0.0
 11
5.25
 21
10.5
 31
0.0
  0
LINE
  5
B5
330
1E
100
AcDbEntity
  8
DAMAN
100
AcDbLine
 10
5.25
 20
12.0
 30
0.0
 11
15.125
 21
12.0
 31
0.0
  0
LINE
  5
B6
330
1E
100
AcDbEntity
  8
DAMAN
100
AcDbLine
 10
15.125
 20
12.0
 30
0.0
 11
15.125
 21
10.5
 31
0.0
  0
INSERT
  5
B9
330
1E
100
AcDbEntity
  8
DAMAN
100
AcDbBlockReference
  2
050CROSS
 10
5.749949999999999
 20
3.937
 30
0.0
 41
0.6
 42
0.6
  0
CIRCLE
  5
BA
330
1E
100
AcDbEntity
  8
DAMAN
100
AcDbCircle
 10
5.749949999999999
 20
3.937
 30
0.0
 40
0.2655
  0
INSERT
  5
BB
330
1E
100
AcDbEntity
  8
DAMAN
100
AcDbBlockReference
  2
050CROSS
 10
9.37495
 20
3.937
 30
0.0
 41
0.6
 42
0.6
  0
CIRCLE
  5
BC
330
1E
100
AcDbEntity
  8
DAMAN
100
AcDbCircle
 10
9.37495
 20
3.937
 30
0.0
 40
0.2655
  0
INSERT
  5
BD
330
1E
100
AcDbEntity
  8
DAMAN
100
AcDbBlockReference
  2
050CROSS
 10
5.749949999999999
 20
9.062000000000001
 30
0.0
 41
0.6
 42
0.6
  0
INSERT
  5
BE
330
1E
100
AcDbEntity
  8
DAMAN
100
AcDbBlockReference
  2
050CROSS
 10
5.749949999999999
 20
6.03075
 30
0.0
 41
0.6
 42
0.6
  0
CIRCLE
  5
BF
330
1E
100
AcDbEntity
  8
DAMAN
100
AcDbCircle
 10
5.749949999999999
 20
6.03075
 30
0.0
 40
0.2655
  0
CIRCLE
  5
C0
330
1E
100
AcDbEntity
  8
DAMAN
100
AcDbCircle
 10
5.749949999999999
 20
9.062000000000001
 30
0.0
 40
0.2655
  0
INSERT
  5
C1
330
1E
100
AcDbEntity
  8
DAMAN
100
AcDbBlockReference
  2
050CROSS
 10
9.37495
 20
6.96825
 30
0.0
 41
0.6
 42
0.6
  0
CIRCLE
  5
C2
330
1E
100
AcDbEntity
  8
DAMAN
100
AcDbCircle
 10
9.37495
 20
6.96825
 30
0.0
 40
0.2655
  0
INSERT
  5
C3
330
1E
100
AcDbEntity
  8
DAMAN
100
AcDbBlockReference
  2
050CROSS
 10
9.37495
 20
9.062000000000001
 30
0.0
 41
0.6
 42
0.6
  0
CIRCLE
  5
C4
330
1E
100
AcDbEntity
  8
DAMAN
100
AcDbCircle
 10
9.37495
 20
9.062000000000001
 30
0.0
 40
0.2655
  0
CIRCLE
  5
C5
330
1E
100
AcDbEntity
  8
DAMAN
100
AcDbCircle
 10
5.749949999999999
 20
9.062000000000001
 30
0.0
 40
0.40625
  0
CIRCLE
  5
C6
330
1E
100
AcDbEntity
  8
DAMAN
100
AcDbCircle
 10
9.37495
 20
9.062000000000001
 30
0.0
 40
0.40625
  0
CIRCLE
  5
C7
330
1E
100
AcDbEntity
  8
DAMAN
100
AcDbCircle
 10
9.37495
 20
6.96825
 30
0.0
 40
0.40625
  0
CIRCLE
  5
C8
330
1E
100
AcDbEntity
  8
DAMAN
100
AcDbCircle
 10
9.37495
 20
3.937
 30
0.0
 40
0.40625
  0
CIRCLE
  5
C9
330
1E
100
AcDbEntity
  8
DAMAN
100
AcDbCircle
 10
5.749949999999999
 20
3.937
 30
0.0
 40
0.40625
  0
CIRCLE
  5
CA
330
1E
100
AcDbEntity
  8
DAMAN
100
AcDbCircle
 10
5.749949999999999
 20
6.03075
 30
0.0
 40
0.40625
  0
INSERT
  5
CB
330
1E
100
AcDbEntity
  8
DAMAN
100
AcDbBlockReference
  2
04SAET
 10
11.625
 20
10.9375
 30
0.0
  0
TEXT
  5
CC
330
1E
100
AcDbEntity
  8
DAMAN
100
AcDbText
 10
7.0
 20
1.90625
 30
0.0
 40
0.188
  1
DAMAN ****
100
AcDbText
  0
TEXT
  5
CD
330
1E
100
AcDbEntity
  8
DAMAN
100
AcDbText
 10
10.78125
 20
10.78125
 30
0.0
 40
0.188
  1
X
 50
180.0
100
AcDbText
  0
LINE
  5
CE
330
1E
100
AcDbEntity
  8
DAMAN
100
AcDbLine
 10
18.625
 20
9.5
 30
0.0
 11
18.625
 21
3.5
 31
0.0
  0
LINE
  5
CF
330
1E
100
AcDbEntity
  8
DAMAN
100
AcDbLine
 10
18.625
 20
3.5
 30
0.0
 11
28.5
 21
3.5
 31
0.0
  0
LINE
  5
D0
330
1E
100
AcDbEntity
  8
DAMAN
100
AcDbLine
 10
28.5
 20
9.5
 30
0.0
 11
18.625
 21
9.5
 31
0.0
  0
LINE
  5
D1
330
1E
100
AcDbEntity
  8
DAMAN
100
AcDbLine
 10
18.625
 20
9.5
 30
0.0
 11
18.625
 21
3.5
 31
0.0
  0
LINE
  5
D2
330
1E
100
AcDbEntity
  8
DAMAN
100
AcDbLine
 10
5.25
 20
1.0
 30
0.0
 11
5.25
 21
2.5
 31
0.0
  0
LINE
  5
D3
330
1E
100
AcDbEntity
  8
DAMAN
100
AcDbLine
 10
5.25
 20
10.5
 30
0.0
 11
5.25
 21
12.0
 31
0.0
  0
LINE
  5
D4
330
1E
100
AcDbEntity
  8
DAMAN
100
AcDbLine
 10
5.25
 20
3.5
 30
0.0
 11
5.25
 21
9.5
 31
0.0
  0
LINE
  5
D5
330
1E
100
AcDbEntity
  8
DAMAN
100
AcDbLine
 10
28.5
 20
9.5
 30
0.0
 11
28.5
 21
3.5
 31
0.0
  0
INSERT
  5
DC
330
1E
100
AcDbEntity
  8
DAMAN
100
AcDbBlockReference
  2
100CROSS
 10
22.74999999999999
 20
7.9058
 30
0.0
 41
-0.25
 42
0.25
  0
INSERT
  5
DD
330
1E
100
AcDbEntity
  8
DAMAN
100
AcDbBlockReference
  2
100CROSS
 10
18.93799999999999
 20
5.343799999999999
 30
0.0
 41
-0.25
 42
0.25
  0
INSERT
  5
DE
330
1E
100
AcDbEntity
  8
DAMAN
100
AcDbBlockReference
  2
100CROSS
 10
22.0625
 20
5.0933
 30
0.0
 41
-1.03
 42
1.03
  0
INSERT
  5
DF
330
1E
100
AcDbEntity
  8
DAMAN
100
AcDbBlockReference
  2
100CROSS
 10
19.875
 20
4.62455
 30
0.0
 41
-0.875
 42
0.875
  0
INSERT
  5
E0
330
1E
100
AcDbEntity
  8
DAMAN
100
AcDbBlockReference
  2
100CROSS
 10
19.8125
 20
6.0308
 30
0.0
 41
-1.03
 42
1.03
  0
INSERT
  5
E1
330
1E
100
AcDbEntity
  8
DAMAN
100
AcDbBlockReference
  2
100CROSS
 10
19.8125
 20
7.9058
 30
0.0
 41
-1.03
 42
1.03
  0
INSERT
  5
E2
330
1E
100
AcDbEntity
  8
DAMAN
100
AcDbBlockReference
  2
100CROSS
 10
22.0625
 20
6.9683
 30
0.0
 41
-1.03
 42
1.03
  0
INSERT
  5
E3
330
1E
100
AcDbEntity
  8
DAMAN
100
AcDbBlockReference
  2
100CROSS
 10
22.0
 20
8.374549999999999
 30
0.0
 41
-0.875
 42
0.875
  0
CIRCLE
  5
E4
330
1E
100
AcDbEntity
  8
DAMAN
100
AcDbCircle
 10
18.93799999999999
 20
5.343799999999999
 30
0.0
 40
0.1405
  0
CIRCLE
  5
E5
330
1E
100
AcDbEntity
  8
DAMAN
100
AcDbCircle
 10
22.74999999999999
 20
7.9058
 30
0.0
 40
0.1405
  0
CIRCLE
  5
E6
330
1E
100
AcDbEntity
  8
DAMAN
100
AcDbCircle
 10
19.812
 20
7.906049999999999
 30
0.0
 40
0.453
  0
CIRCLE
  5
E7
330
1E
100
AcDbEntity
  8
DAMAN
100
AcDbCircle
 10
19.812
 20
6.031049999999999
 30
0.0
 40
0.453
  0
CIRCLE
  5
E8
330
1E
100
AcDbEntity
  8
DAMAN
100
AcDbCircle
 10
22.06199999999999
 20
6.968549999999999
 30
0.0
 40
0.453
  0
CIRCLE
  5
E9
330
1E
100
AcDbEntity
  8
DAMAN
100
AcDbCircle
 10
22.06199999999999
 20
5.093549999999999
 30
0.0
 40
0.453
  0
CIRCLE
  5
EA
330
1E
100
AcDbEntity
  8
DAMAN
100
AcDbCircle
 10
22.74999999999999
 20
9.062049999999999
 30
0.0
 40
0.2655
  0
CIRCLE
  5
EB
330
1E
100
AcDbEntity
  8
DAMAN
100
AcDbCircle
 10
22.74999999999999
 20
3.937049999999999
 30
0.0
 40
0.2655
  0
CIRCLE
  5
EC
330
1E
100
AcDbEntity
  8
DAMAN
100
AcDbCircle
 10
19.125
 20
9.062049999999999
 30
0.0
 40
0.2655
  0
CIRCLE
  5
ED
330
1E
100
AcDbEntity
  8
DAMAN
100
AcDbCircle
 10
19.125
 20
3.937049999999999
 30
0.0
 40
0.2655
  0
CIRCLE
  5
EE
330
1E
100
AcDbEntity
  8
DAMAN
100
AcDbCircle
 10
19.125
 20
6.9683
 30
0.0
 40
0.2655
  0
CIRCLE
  5
EF
330
1E
100
AcDbEntity
  8
DAMAN
100
AcDbCircle
 10
22.74999999999999
 20
6.0308
 30
0.0
 40
0.2655
  0
CIRCLE
  5
F0
330
1E
100
AcDbEntity
  8
DAMAN
100
AcDbCircle
 10
22.0
 20
8.374549999999999
 30
0.0
 40
0.5
  0
CIRCLE
  5
F1
330
1E
100
AcDbEntity
  8
DAMAN
100
AcDbCircle
 10
19.875
 20
4.62455
 30
0.0
 40
0.5
  0
CIRCLE
  5
F2
330
1E
100
AcDbEntity
  8
DAMAN
100
AcDbCircle
 10
22.0625
 20
5.0933
 30
0.0
 40
0.6559999999999999
  0
CIRCLE
  5
F3
330
1E
100
AcDbEntity
  8
DAMAN
100
AcDbCircle
 10
19.8125
 20
6.0308
 30
0.0
 40
0.6559999999999999
  0
CIRCLE
  5
F4
330
1E
100
AcDbEntity
  8
DAMAN
100
AcDbCircle
 10
19.8125
 20
7.9058
 30
0.0
 40
0.6559999999999999
  0
CIRCLE
  5
F5
330
1E
100
AcDbEntity
  8
DAMAN
100
AcDbCircle
 10
22.0625
 20
6.9683
 30
0.0
 40
0.6559999999999999
  0
INSERT
  5
F6
330
1E
100
AcDbEntity
  8
DAMAN
100
AcDbBlockReference
  2
100CROSS
 10
27.31249999999999
 20
6.9683
 30
0.0
 41
-1.03
 42
1.03
  0
CIRCLE
  5
F7
330
1E
100
AcDbEntity
  8
DAMAN
100
AcDbCircle
 10
27.31249999999999
 20
6.9683
 30
0.0
 40
0.6559999999999999
  0
INSERT
  5
F9
330
1E
100
AcDbEntity
  8
DAMAN
100
AcDbBlockReference
  2
100CROSS
 10
25.06249999999999
 20
7.9058
 30
0.0
 41
-1.03
 42
1.03
  0
CIRCLE
  5
FA
330
1E
100
AcDbEntity
  8
DAMAN
100
AcDbCircle
 10
25.06199999999999
 20
7.906049999999999
 30
0.0
 40
0.453
  0
CIRCLE
  5
FB
330
1E
100
AcDbEntity
  8
DAMAN
100
AcDbCircle
 10
25.06249999999999
 20
7.9058
 30
0.0
 40
0.6559999999999999
  0
INSERT
  5
FC
330
1E
100
AcDbEntity
  8
DAMAN
100
AcDbBlockReference
  2
100CROSS
 10
24.188
 20
5.343799999999999
 30
0.0
 41
-0.25
 42
0.25
  0
INSERT
  5
FD
330
1E
100
AcDbEntity
  8
DAMAN
100
AcDbBlockReference
  2
100CROSS
 10
27.31249999999999
 20
5.0933
 30
0.0
 41
-1.03
 42
1.03
  0
INSERT
  5
FE
330
1E
100
AcDbEntity
  8
DAMAN
100
AcDbBlockReference
  2
100CROSS
 10
25.125
 20
4.62455
 30
0.0
 41
-0.875
 42
0.875
  0
CIRCLE
  5
FF
330
1E
100
AcDbEntity
  8
DAMAN
100
AcDbCircle
 10
27.31199999999999
 20
5.093549999999999
 30
0.0
 40
0.453
  0
CIRCLE
  5
100
330
1E
100
AcDbEntity
  8
DAMAN
100
AcDbCircle
 10
27.31249999999999
 20
5.0933
 30
0.0
 40
0.6559999999999999
  0
CIRCLE
  5
101
330
1E
100
AcDbEntity
  8
DAMAN
100
AcDbCircle
 10
24.375
 20
3.937049999999999
 30
0.0
 40
0.2655
  0
CIRCLE
  5
103
330
1E
100
AcDbEntity
  8
DAMAN
100
AcDbCircle
 10
25.125
 20
4.62455
 30
0.0
 40
0.5
  0
CIRCLE
  5
105
330
1E
100
AcDbEntity
  8
DAMAN
100
AcDbCircle
 10
28.0
 20
3.937049999999999
 30
0.0
 40
0.2655
  0
INSERT
  5
106
330
1E
100
AcDbEntity
  8
DAMAN
100
AcDbBlockReference
  2
100CROSS
 10
25.06249999999999
 20
6.0308
 30
0.0
 41
-1.03
 42
1.03
  0
CIRCLE
  5
107
330
1E
100
AcDbEntity
  8
DAMAN
100
AcDbCircle
 10
25.06249999999999
 20
6.0308
 30
0.0
 40
0.6559999999999999
  0
CIRCLE
  5
108
330
1E
100
AcDbEntity
  8
DAMAN
100
AcDbCircle
 10
25.06199999999999
 20
6.031049999999999
 30
0.0
 40
0.453
  0
CIRCLE
  5
109
330
1E
100
AcDbEntity
  8
DAMAN
100
AcDbCircle
 10
24.188
 20
5.343799999999999
 30
0.0
 40
0.1405
  0
CIRCLE
  5
10A
330
1E
100
AcDbEntity
  8
DAMAN
100
AcDbCircle
 10
24.375
 20
6.9683
 30
0.0
 40
0.2655
  0
CIRCLE
  5
10C
330
1E
100
AcDbEntity
  8
DAMAN
100
AcDbCircle
 10
28.0
 20
6.0308
 30
0.0
 40
0.2655
  0
CIRCLE
  5
10D
330
1E
100
AcDbEntity
  8
DAMAN
100
AcDbCircle
 10
27.31199999999999
 20
6.968549999999999
 30
0.0
 40
0.453
  0
CIRCLE
  5
10F
330
1E
100
AcDbEntity
  8
DAMAN
100
AcDbCircle
 10
24.375
 20
9.062049999999999
 30
0.0
 40
0.2655
  0
INSERT
  5
110
330
1E
100
AcDbEntity
  8
DAMAN
100
AcDbBlockReference
  2
100CROSS
 10
27.25
 20
8.374549999999999
 30
0.0
 41
-0.875
 42
0.875
  0
CIRCLE
  5
111
330
1E
100
AcDbEntity
  8
DAMAN
100
AcDbCircle
 10
27.25
 20
8.374549999999999
 30
0.0
 40
0.5
  0
INSERT
  5
113
330
1E
100
AcDbEntity
  8
DAMAN
100
AcDbBlockReference
  2
100CROSS
 10
28.0
 20
7.9058
 30
0.0
 41
-0.25
 42
0.25
  0
CIRCLE
  5
114
330
1E
100
AcDbEntity
  8
DAMAN
100
AcDbCircle
 10
28.0
 20
7.9058
 30
0.0
 40
0.1405
  0
CIRCLE
  5
115
330
1E
100
AcDbEntity
  8
DAMAN
100
AcDbCircle
 10
28.0
 20
9.062049999999999
 30
0.0
 40
0.2655
  0
INSERT
  5
118
330
1E
100
AcDbEntity
  8
DAMAN
100
AcDbBlockReference
  2
100CROSS
 10
11.68749999999999
 20
5.093250000000001
 30
0.0
 41
0.7724999999999996
 42
0.7724999999999996
 43
0.75
  0
CIRCLE
  5
119
330
1E
100
AcDbEntity
  8
DAMAN
100
AcDbCircle
 10
13.875
 20
4.624000000000001
 30
0.0
 40
0.2189999999999999
  0
CIRCLE
  5
11A
330
1E
100
AcDbEntity
  8
DAMAN
100
AcDbCircle
 10
11.688
 20
5.0935
 30
0.0
 40
0.453
  0
INSERT
  5
11B
330
1E
100
AcDbEntity
  8
DAMAN
100
AcDbBlockReference
  2
050CROSS
 10
13.875
 20
4.624000000000001
 30
0.0
 41
0.4375
 42
0.4375
  0
INSERT
  5
11C
330
1E
100
AcDbEntity
  8
DAMAN
100
AcDbBlockReference
  2
050CROSS
 10
11.0
 20
3.937000000000001
 30
0.0
 41
0.4499999999999998
 42
0.4499999999999998
 43
0.75
  0
CIRCLE
  5
11D
330
1E
100
AcDbEntity
  8
DAMAN
100
AcDbCircle
 10
11.0
 20
3.937000000000001
 30
0.0
 40
0.2655
  0
INSERT
  5
120
330
1E
100
AcDbEntity
  8
DAMAN
100
AcDbBlockReference
  2
050CROSS
 10
14.625
 20
3.937000000000001
 30
0.0
 41
0.4499999999999998
 42
0.4499999999999998
 43
0.75
  0
CIRCLE
  5
121
330
1E
100
AcDbEntity
  8
DAMAN
100
AcDbCircle
 10
14.625
 20
3.937000000000001
 30
0.0
 40
0.2655
  0
INSERT
  5
122
330
1E
100
AcDbEntity
  8
DAMAN
100
AcDbBlockReference
  2
100CROSS
 10
11.68749999999999
 20
6.968250000000001
 30
0.0
 41
0.7724999999999996
 42
0.7724999999999996
 43
0.75
  0
CIRCLE
  5
123
330
1E
100
AcDbEntity
  8
DAMAN
100
AcDbCircle
 10
11.688
 20
6.9685
 30
0.0
 40
0.453
  0
INSERT
  5
124
330
1E
100
AcDbEntity
  8
DAMAN
100
AcDbBlockReference
  2
050CROSS
 10
11.0
 20
9.062000000000001
 30
0.0
 41
0.4499999999999998
 42
0.4499999999999998
 43
0.75
  0
INSERT
  5
125
330
1E
100
AcDbEntity
  8
DAMAN
100
AcDbBlockReference
  2
050CROSS
 10
11.0
 20
6.030750000000001
 30
0.0
 41
0.4499999999999998
 42
0.4499999999999998
 43
0.75
  0
CIRCLE
  5
126
330
1E
100
AcDbEntity
  8
DAMAN
100
AcDbCircle
 10
11.0
 20
6.030750000000001
 30
0.0
 40
0.2655
  0
INSERT
  5
127
330
1E
100
AcDbEntity
  8
DAMAN
100
AcDbBlockReference
  2
100CROSS
 10
11.0
 20
7.905750000000001
 30
0.0
 41
0.25
 42
0.25
  0
CIRCLE
  5
128
330
1E
100
AcDbEntity
  8
DAMAN
100
AcDbCircle
 10
11.0
 20
7.905750000000001
 30
0.0
 40
0.1405
  0
CIRCLE
  5
129
330
1E
100
AcDbEntity
  8
DAMAN
100
AcDbCircle
 10
11.0
 20
9.062000000000001
 30
0.0
 40
0.2655
  0
INSERT
  5
12A
330
1E
100
AcDbEntity
  8
DAMAN
100
AcDbBlockReference
  2
100CROSS
 10
13.937625
 20
7.905812500000001
 30
0.0
 41
0.7724999999999996
 42
0.7724999999999996
 43
0.75
  0
INSERT
  5
12B
330
1E
100
AcDbEntity
  8
DAMAN
100
AcDbBlockReference
  2
050CROSS
 10
14.625
 20
6.968250000000001
 30
0.0
 41
0.4499999999999998
 42
0.4499999999999998
 43
0.75
  0
INSERT
  5
12C
330
1E
100
AcDbEntity
  8
DAMAN
100
AcDbBlockReference
  2
100CROSS
 10
13.937625
 20
6.030812500000001
 30
0.0
 41
0.7724999999999996
 42
0.7724999999999996
 43
0.75
  0
CIRCLE
  5
12D
330
1E
100
AcDbEntity
  8
DAMAN
100
AcDbCircle
 10
13.938
 20
6.031
 30
0.0
 40
0.453
  0
INSERT
  5
12E
330
1E
100
AcDbEntity
  8
DAMAN
100
AcDbBlockReference
  2
100CROSS
 10
14.812
 20
5.343750000000001
 30
0.0
 41
0.25
 42
0.25
  0
CIRCLE
  5
12F
330
1E
100
AcDbEntity
  8
DAMAN
100
AcDbCircle
 10
14.812
 20
5.343750000000001
 30
0.0
 40
0.1405
  0
CIRCLE
  5
130
330
1E
100
AcDbEntity
  8
DAMAN
100
AcDbCircle
 10
14.625
 20
6.968250000000001
 30
0.0
 40
0.2655
  0
CIRCLE
  5
131
330
1E
100
AcDbEntity
  8
DAMAN
100
AcDbCircle
 10
13.938
 20
7.906000000000001
 30
0.0
 40
0.453
  0
INSERT
  5
132
330
1E
100
AcDbEntity
  8
DAMAN
100
AcDbBlockReference
  2
050CROSS
 10
12.8125
 20
8.837591000000001
 30
0.0
 41
0.25
 42
0.25
  0
INSERT
  5
133
330
1E
100
AcDbEntity
  8
DAMAN
100
AcDbBlockReference
  2
050CROSS
 10
11.75
 20
8.374
 30
0.0
 41
0.4375
 42
0.4375
  0
CIRCLE
  5
134
330
1E
100
AcDbEntity
  8
DAMAN
100
AcDbCircle
 10
11.75
 20
8.374
 30
0.0
 40
0.2189999999999999
  0
CIRCLE
  5
135
330
1E
100
AcDbEntity
  8
DAMAN
100
AcDbCircle
 10
12.8125
 20
8.837591000000001
 30
0.0
 40
0.09845
  0
INSERT
  5
136
330
1E
100
AcDbEntity
  8
DAMAN
100
AcDbBlockReference
  2
050CROSS
 10
14.625
 20
9.062000000000001
 30
0.0
 41
0.4499999999999998
 42
0.4499999999999998
 43
0.75
  0
CIRCLE
  5
137
330
1E
100
AcDbEntity
  8
DAMAN
100
AcDbCircle
 10
14.625
 20
9.062000000000001
 30
0.0
 40
0.2655
  0
INSERT
  5
138
330
1E
100
AcDbEntity
  8
DAMAN
100
AcDbBlockReference
  2
050CROSS
 10
19.125
 20
9.062049999999999
 30
0.0
 41
0.4499999999999998
 42
0.4499999999999998
 43
0.75
  0
INSERT
  5
139
330
1E
100
AcDbEntity
  8
DAMAN
100
AcDbBlockReference
  2
050CROSS
 10
22.74999999999999
 20
9.062049999999999
 30
0.0
 41
0.4499999999999998
 42
0.4499999999999998
 43
0.75
  0
INSERT
  5
13A
330
1E
100
AcDbEntity
  8
DAMAN
100
AcDbBlockReference
  2
050CROSS
 10
24.375
 20
9.062049999999999
 30
0.0
 41
0.4499999999999998
 42
0.4499999999999998
 43
0.75
  0
INSERT
  5
13B
330
1E
100
AcDbEntity
  8
DAMAN
100
AcDbBlockReference
  2
050CROSS
 10
28.0
 20
9.062049999999999
 30
0.0
 41
0.4499999999999998
 42
0.4499999999999998
 43
0.75
  0
INSERT
  5
13C
330
1E
100
AcDbEntity
  8
DAMAN
100
AcDbBlockReference
  2
050CROSS
 10
28.0
 20
6.0308
 30
0.0
 41
0.4499999999999998
 42
0.4499999999999998
 43
0.75
  0
INSERT
  5
13D
330
1E
100
AcDbEntity
  8
DAMAN
100
AcDbBlockReference
  2
050CROSS
 10
24.375
 20
6.9683
 30
0.0
 41
0.4499999999999998
 42
0.4499999999999998
 43
0.75
  0
INSERT
  5
13E
330
1E
100
AcDbEntity
  8
DAMAN
100
AcDbBlockReference
  2
050CROSS
 10
24.375
 20
3.937049999999999
 30
0.0
 41
0.4499999999999998
 42
0.4499999999999998
 43
0.75
  0
INSERT
  5
13F
330
1E
100
AcDbEntity
  8
DAMAN
100
AcDbBlockReference
  2
050CROSS
 10
28.0
 20
3.937049999999999
 30
0.0
 41
0.4499999999999998
 42
0.4499999999999998
 43
0.75
  0
INSERT
  5
140
330
1E
100
AcDbEntity
  8
DAMAN
100
AcDbBlockReference
  2
050CROSS
 10
22.74999999999999
 20
6.0308
 30
0.0
 41
0.4499999999999998
 42
0.4499999999999998
 43
0.75
  0
INSERT
  5
141
330
1E
100
AcDbEntity
  8
DAMAN
100
AcDbBlockReference
  2
050CROSS
 10
19.125
 20
6.9683
 30
0.0
 41
0.4499999999999998
 42
0.4499999999999998
 43
0.75
  0
INSERT
  5
142
330
1E
100
AcDbEntity
  8
DAMAN
100
AcDbBlockReference
  2
050CROSS
 10
19.125
 20
3.937049999999999
 30
0.0
 41
0.4499999999999998
 42
0.4499999999999998
 43
0.75
  0
INSERT
  5
143
330
1E
100
AcDbEntity
  8
DAMAN
100
AcDbBlockReference
  2
050CROSS
 10
22.74999999999999
 20
3.937049999999999
 30
0.0
 41
0.4499999999999998
 42
0.4499999999999998
 43
0.75
  0
INSERT
  5
144
330
1E
100
AcDbEntity
  8
DAMAN
100
AcDbBlockReference
  2
100CROSS
 10
7.672950000000001
 20
7.156499999999999
 30
0.0
 41
0.25
 42
0.25
  0
INSERT
  5
145
330
1E
100
AcDbEntity
  8
DAMAN
100
AcDbBlockReference
  2
100CROSS
 10
7.672950000000001
 20
7.843999999999999
 30
0.0
 41
0.25
 42
0.25
  0
CIRCLE
  5
146
330
1E
100
AcDbEntity
  8
DAMAN
100
AcDbCircle
 10
7.672950000000001
 20
7.843999999999999
 30
0.0
 40
0.141125
  0
CIRCLE
  5
147
330
1E
100
AcDbEntity
  8
DAMAN
100
AcDbCircle
 10
7.672950000000001
 20
7.156499999999999
 30
0.0
 40
0.141125
  0
INSERT
  5
148
330
1E
100
AcDbEntity
  8
DAMAN
100
AcDbBlockReference
  2
100CROSS
 10
7.26645
 20
7.499999999999999
 30
0.0
 41
0.25
 42
0.25
  0
CIRCLE
  5
149
330
1E
100
AcDbEntity
  8
DAMAN
100
AcDbCircle
 10
7.26645
 20
7.499999999999999
 30
0.0
 40
0.141375
  0
INSERT
  5
14A
330
1E
100
AcDbEntity
  8
DAMAN
100
AcDbBlockReference
  2
100CROSS
 10
7.03295
 20
7.043999999999999
 30
0.0
 41
0.1710000000000003
 42
0.1709999999999994
  0
INSERT
  5
14B
330
1E
100
AcDbEntity
  8
DAMAN
100
AcDbBlockReference
  2
100CROSS
 10
7.03295
 20
6.749999999999999
 30
0.0
 41
0.1879999999999997
 42
0.1880000000000006
  0
CIRCLE
  5
14C
330
1E
100
AcDbEntity
  8
DAMAN
  6
HIDDEN
100
AcDbCircle
 10
7.03295
 20
6.749999999999999
 30
0.0
 40
0.095
  0
CIRCLE
  5
14D
330
1E
100
AcDbEntity
  8
DAMAN
100
AcDbCircle
 10
7.03295
 20
6.750249999999999
 30
0.0
 40
0.078
  0
CIRCLE
  5
14E
330
1E
100
AcDbEntity
  8
DAMAN
100
AcDbCircle
 10
7.03295
 20
7.043999999999999
 30
0.0
 40
0.0855
  0
POINT
  5
14F
330
1E
100
AcDbEntity
  8
DAMAN
  6
BYBLOCK
 62
     0
100
AcDbPoint
 10
7.2672
 20
7.593999999999999
 30
0.0
  0
POINT
  5
150
330
1E
100
AcDbEntity
  8
DAMAN
  6
BYBLOCK
 62
     0
100
AcDbPoint
 10
7.2672
 20
7.593999999999999
 30
0.0
  0
INSERT
  5
151
330
1E
100
AcDbEntity
  8
DAMAN
100
AcDbBlockReference
  2
100CROSS
 10
7.06295
 20
8.343999999999999
 30
0.0
 41
0.1879999999999997
 42
0.1880000000000006
  0
CIRCLE
  5
152
330
1E
100
AcDbEntity
  8
DAMAN
100
AcDbCircle
 10
7.06295
 20
8.343999999999999
 30
0.0
 40
0.078
  0
CIRCLE
  5
153
330
1E
100
AcDbEntity
  8
DAMAN
  6
HIDDEN
100
AcDbCircle
 10
7.06295
 20
8.343999999999999
 30
0.0
 40
0.095
  0
INSERT
  5
154
330
1E
100
AcDbEntity
  8
DAMAN
100
AcDbBlockReference
  2
100CROSS
 10
8.07895
 20
7.499999999999999
 30
0.0
 41
0.25
 42
0.25
  0
CIRCLE
  5
155
330
1E
100
AcDbEntity
  8
DAMAN
100
AcDbCircle
 10
8.07895
 20
7.499999999999999
 30
0.0
 40
0.141375
  0
INSERT
  5
156
330
1E
100
AcDbEntity
  8
DAMAN
100
AcDbBlockReference
  2
100CROSS
 10
8.312949999999998
 20
6.749999999999999
 30
0.0
 41
0.1879999999999997
 42
0.1880000000000006
  0
CIRCLE
  5
157
330
1E
100
AcDbEntity
  8
DAMAN
  6
HIDDEN
100
AcDbCircle
 10
8.312949999999998
 20
6.749999999999999
 30
0.0
 40
0.095
  0
CIRCLE
  5
158
330
1E
100
AcDbEntity
  8
DAMAN
100
AcDbCircle
 10
8.312949999999998
 20
6.750249999999999
 30
0.0
 40
0.078
  0
CIRCLE
  5
159
330
1E
100
AcDbEntity
  8
DAMAN
100
AcDbCircle
 10
8.282949999999999
 20
8.343999999999999
 30
0.0
 40
0.078
  0
INSERT
  5
15A
330
1E
100
AcDbEntity
  8
DAMAN
100
AcDbBlockReference
  2
100CROSS
 10
8.282949999999999
 20
8.343999999999999
 30
0.0
 41
0.1879999999999997
 42
0.1880000000000006
  0
CIRCLE
  5
15B
330
1E
100
AcDbEntity
  8
DAMAN
  6
HIDDEN
100
AcDbCircle
 10
8.282949999999999
 20
8.343999999999999
 30
0.0
 40
0.095
  0
ENDSEC
  0
SECTION
  2
OBJECTS
  0
DICTIONARY
  5
C
330
0
100
AcDbDictionary
  3
ACAD_GROUP
350
D
  3
ACAD_LAYOUT
350
19
  3
ACAD_MLINESTYLE
350
16
  3
ACAD_PLOTSETTINGS
350
18
  3
ACAD_PLOTSTYLENAME
350
E
  3
ACDBHEADERROUNDTRIPXREC
350
15D
  0
DICTIONARY
  5
17F
330
1E
100
AcDbDictionary
280
     1
  3
ACAD_LAYOUTSELFREF
360
180
  0
DICTIONARY
  5
17D
330
1A
100
AcDbDictionary
280
     1
  3
ACAD_LAYOUTSELFREF
360
17E
  0
DICTIONARY
  5
D
102
{ACAD_REACTORS
330
C
102
}
330
C
100
AcDbDictionary
  0
DICTIONARY
  5
19
102
{ACAD_REACTORS
330
C
102
}
330
C
100
AcDbDictionary
  0
DICTIONARY
  5
16
102
{ACAD_REACTORS
330
C
102
}
330
C
100
AcDbDictionary
  3
STANDARD
350
17
  0
DICTIONARY
  5
18
102
{ACAD_REACTORS
330
C
102
}
330
C
100
AcDbDictionary
  0
ACDBDICTIONARYWDFLT
  5
E
102
{ACAD_REACTORS
330
C
102
}
330
C
100
AcDbDictionary
281
     1
  3
Normal
350
F
100
AcDbDictionaryWithDefault
340
F
  0
DICTIONARY
  5
15D
102
{ACAD_REACTORS
330
C
102
}
330
C
100
AcDbDictionary
  3
CEPSNTYPE
350
167
  3
FINGERPRINTGUID
350
168
  3
HYPERLINKBASE
350
160
  3
INSUNITS
350
166
  3
LAYOUTDICT
350
162
  3
LWETCUNION
350
165
  3
PLOTSETDICT
350
163
  3
PLOTSTYLNAMDICT
350
164
  3
PSVPSCALE
350
16A
  3
PUCSBASE
350
16D
  3
PUCSORGBACK
350
173
  3
PUCSORGBOTTOM
350
16F
  3
PUCSORGFRONT
350
172
  3
PUCSORGLEFT
350
170
  3
PUCSORGRIGHT
350
171
  3
PUCSORGTOP
350
16E
  3
PUCSORTHOREF
350
16B
  3
PUCSORTHOVIEW
350
16C
  3
STYLESHEET
350
161
  3
TSTACKALIGN
350
15E
  3
TSTACKSIZE
350
15F
  3
UCSBASE
350
176
  3
UCSORGBACK
350
17C
  3
UCSORGBOTTOM
350
178
  3
UCSORGFRONT
350
17B
  3
UCSORGLEFT
350
179
  3
UCSORGRIGHT
350
17A
  3
UCSORGTOP
350
177
  3
UCSORTHOREF
350
174
  3
UCSORTHOVIEW
350
175
  3
VERSIONGUID
350
169
  0
XRECORD
  5
180
102
{ACAD_REACTORS
330
17F
102
}
330
17F
100
AcDbXrecord
340
1E
  0
XRECORD
  5
17E
102
{ACAD_REACTORS
330
17D
102
}
330
17D
100
AcDbXrecord
340
1A
  0
MLINESTYLE
  5
17
102
{ACAD_REACTORS
330
16
102
}
330
16
100
AcDbMlineStyle
  2
STANDARD
 70
     0
  3

 62
   256
 51
90.0
 52
90.0
 71
     2
 49
0.5
 62
   256
  6
BYLAYER
 49
-0.5
 62
   256
  6
BYLAYER
  0
ACDBPLACEHOLDER
  5
F
102
{ACAD_REACTORS
330
E
102
}
330
E
100
AcDbPlaceHolder
280
     0
  0
XRECORD
  5
167
102
{ACAD_REACTORS
330
15D
102
}
330
15D
100
AcDbXrecord
 90
        0
  0
XRECORD
  5
168
102
{ACAD_REACTORS
330
15D
102
}
330
15D
100
AcDbXrecord
  1
{C95855DE-4F7F-4470-AB8F-9B884C700AF8}
  0
XRECORD
  5
160
102
{ACAD_REACTORS
330
15D
102
}
330
15D
100
AcDbXrecord
  1

  0
XRECORD
  5
166
102
{ACAD_REACTORS
330
15D
102
}
330
15D
100
AcDbXrecord
 90
        0
  0
XRECORD
  5
162
102
{ACAD_REACTORS
330
15D
102
}
330
15D
100
AcDbXrecord
340
19
  0
XRECORD
  5
165
102
{ACAD_REACTORS
330
15D
102
}
330
15D
100
AcDbXrecord
 90
    10781
  0
XRECORD
  5
163
102
{ACAD_REACTORS
330
15D
102
}
330
15D
100
AcDbXrecord
340
18
  0
XRECORD
  5
164
102
{ACAD_REACTORS
330
15D
102
}
330
15D
100
AcDbXrecord
340
E
  0
XRECORD
  5
16A
102
{ACAD_REACTORS
330
15D
102
}
330
15D
100
AcDbXrecord
 40
0.0
  0
XRECORD
  5
16D
102
{ACAD_REACTORS
330
15D
102
}
330
15D
100
AcDbXrecord
340
0
  0
XRECORD
  5
173
102
{ACAD_REACTORS
330
15D
102
}
330
15D
100
AcDbXrecord
 10
0.0
 20
0.0
 30
0.0
  0
XRECORD
  5
16F
102
{ACAD_REACTORS
330
15D
102
}
330
15D
100
AcDbXrecord
 10
0.0
 20
0.0
 30
0.0
  0
XRECORD
  5
172
102
{ACAD_REACTORS
330
15D
102
}
330
15D
100
AcDbXrecord
 10
0.0
 20
0.0
 30
0.0
  0
XRECORD
  5
170
102
{ACAD_REACTORS
330
15D
102
}
330
15D
100
AcDbXrecord
 10
0.0
 20
0.0
 30
0.0
  0
XRECORD
  5
171
102
{ACAD_REACTORS
330
15D
102
}
330
15D
100
AcDbXrecord
 10
0.0
 20
0.0
 30
0.0
  0
XRECORD
  5
16E
102
{ACAD_REACTORS
330
15D
102
}
330
15D
100
AcDbXrecord
 10
0.0
 20
0.0
 30
0.0
  0
XRECORD
  5
16B
102
{ACAD_REACTORS
330
15D
102
}
330
15D
100
AcDbXrecord
340
0
  0
XRECORD
  5
16C
102
{ACAD_REACTORS
330
15D
102
}
330
15D
100
AcDbXrecord
 70
     0
  0
XRECORD
  5
161
102
{ACAD_REACTORS
330
15D
102
}
330
15D
100
AcDbXrecord
  1

  0
XRECORD
  5
15E
102
{ACAD_REACTORS
330
15D
102
}
330
15D
100
AcDbXrecord
 90
        1
  0
XRECORD
  5
15F
102
{ACAD_REACTORS
330
15D
102
}
330
15D
100
AcDbXrecord
 90
       70
  0
XRECORD
  5
176
102
{ACAD_REACTORS
330
15D
102
}
330
15D
100
AcDbXrecord
340
0
  0
XRECORD
  5
17C
102
{ACAD_REACTORS
330
15D
102
}
330
15D
100
AcDbXrecord
 10
0.0
 20
0.0
 30
0.0
  0
XRECORD
  5
178
102
{ACAD_REACTORS
330
15D
102
}
330
15D
100
AcDbXrecord
 10
0.0
 20
0.0
 30
0.0
  0
XRECORD
  5
17B
102
{ACAD_REACTORS
330
15D
102
}
330
15D
100
AcDbXrecord
 10
0.0
 20
0.0
 30
0.0
  0
XRECORD
  5
179
102
{ACAD_REACTORS
330
15D
102
}
330
15D
100
AcDbXrecord
 10
0.0
 20
0.0
 30
0.0
  0
XRECORD
  5
17A
102
{ACAD_REACTORS
330
15D
102
}
330
15D
100
AcDbXrecord
 10
0.0
 20
0.0
 30
0.0
  0
XRECORD
  5
177
102
{ACAD_REACTORS
330
15D
102
}
330
15D
100
AcDbXrecord
 10
0.0
 20
0.0
 30
0.0
  0
XRECORD
  5
174
102
{ACAD_REACTORS
330
15D
102
}
330
15D
100
AcDbXrecord
340
0
  0
XRECORD
  5
175
102
{ACAD_REACTORS
330
15D
102
}
330
15D
100
AcDbXrecord
 70
     0
  0
XRECORD
  5
169
102
{ACAD_REACTORS
330
15D
102
}
330
15D
100
AcDbXrecord
  1
{C90CBB2C-91F8-4EB1-AB2E-3454497E5E03}
  0
ENDSEC
  0
EOF
