  0
SECTION
  2
HEADER
  9
$ACADVER
  1
AC1009
  9
$INSBASE
 10
0.0
 20
0.0
 30
0.0
  9
$EXTMIN
 10
-0.15625
 20
1.0
 30
0.0
  9
$EXTMAX
 10
19.113375
 20
12.0625
 30
0.0
  9
$LIMMIN
 10
0.0
 20
0.0
  9
$LIMMAX
 10
12.0
 20
9.0
  9
$ORTHOMODE
 70
     1
  9
$REGENMODE
 70
     1
  9
$FILLMODE
 70
     1
  9
$QTEXTMODE
 70
     0
  9
$MIRRTEXT
 70
     1
  9
$DRAGMODE
 70
     2
  9
$LTSCALE
 40
1.0
  9
$OSMODE
 70
     0
  9
$ATTMODE
 70
     1
  9
$TEXTSIZE
 40
0.188
  9
$TRACEWID
 40
0.05
  9
$TEXTSTYLE
  7
STANDARD
  9
$CLAYER
  8
DAMAN
  9
$CELTYPE
  6
BYLAYER
  9
$CECOLOR
 62
   256
  9
$DIMSCALE
 40
1.0
  9
$DIMASZ
 40
0.18
  9
$DIMEXO
 40
0.0625
  9
$DIMDLI
 40
0.38
  9
$DIMRND
 40
0.0
  9
$DIMDLE
 40
0.0
  9
$DIMEXE
 40
0.18
  9
$DIMTP
 40
0.0
  9
$DIMTM
 40
0.0
  9
$DIMTXT
 40
0.18
  9
$DIMCEN
 40
0.09
  9
$DIMTSZ
 40
0.0
  9
$DIMTOL
 70
     0
  9
$DIMLIM
 70
     0
  9
$DIMTIH
 70
     1
  9
$DIMTOH
 70
     1
  9
$DIMSE1
 70
     0
  9
$DIMSE2
 70
     0
  9
$DIMTAD
 70
     0
  9
$DIMZIN
 70
     0
  9
$DIMBLK
  1

  9
$DIMASO
 70
     1
  9
$DIMSHO
 70
     1
  9
$DIMPOST
  1

  9
$DIMAPOST
  1

  9
$DIMALT
 70
     0
  9
$DIMALTD
 70
     2
  9
$DIMALTF
 40
25.4
  9
$DIMLFAC
 40
1.0
  9
$DIMTOFL
 70
     0
  9
$DIMTVP
 40
0.0
  9
$DIMTIX
 70
     0
  9
$DIMSOXD
 70
     0
  9
$DIMSAH
 70
     0
  9
$DIMBLK1
  1

  9
$DIMBLK2
  1

  9
$DIMSTYLE
  2
*UNNAMED
  9
$DIMCLRD
 70
     0
  9
$DIMCLRE
 70
     0
  9
$DIMCLRT
 70
     0
  9
$DIMTFAC
 40
1.0
  9
$DIMGAP
 40
0.09
  9
$LUNITS
 70
     2
  9
$LUPREC
 70
     4
  9
$SKETCHINC
 40
0.1
  9
$FILLETRAD
 40
0.0
  9
$AUNITS
 70
     0
  9
$AUPREC
 70
     0
  9
$MENU
  1
tom
  9
$ELEVATION
 40
0.0
  9
$PELEVATION
 40
0.0
  9
$THICKNESS
 40
0.0
  9
$LIMCHECK
 70
     0
  9
$BLIPMODE
 70
     1
  9
$CHAMFERA
 40
0.0
  9
$CHAMFERB
 40
0.0
  9
$SKPOLY
 70
     0
  9
$TDCREATE
 40
2449755.252300463
  9
$TDUPDATE
 40
2449755.252300463
  9
$TDINDWG
 40
0.0000000000
  9
$TDUSRTIMER
 40
0.0000000000
  9
$USRTIMER
 70
     1
  9
$ANGBASE
 50
0.0
  9
$ANGDIR
 70
     0
  9
$PDMODE
 70
     0
  9
$PDSIZE
 40
0.0
  9
$PLINEWID
 40
0.0
  9
$COORDS
 70
     1
  9
$SPLFRAME
 70
     0
  9
$SPLINETYPE
 70
     6
  9
$SPLINESEGS
 70
     8
  9
$ATTDIA
 70
     0
  9
$ATTREQ
 70
     1
  9
$HANDLING
 70
     0
  9
$HANDSEED
  5
0
  9
$SURFTAB1
 70
     6
  9
$SURFTAB2
 70
     6
  9
$SURFTYPE
 70
     6
  9
$SURFU
 70
     6
  9
$SURFV
 70
     6
  9
$UCSNAME
  2

  9
$UCSORG
 10
0.0
 20
0.0
 30
0.0
  9
$UCSXDIR
 10
1.0
 20
0.0
 30
0.0
  9
$UCSYDIR
 10
0.0
 20
1.0
 30
0.0
  9
$PUCSNAME
  2

  9
$PUCSORG
 10
0.0
 20
0.0
 30
0.0
  9
$PUCSXDIR
 10
1.0
 20
0.0
 30
0.0
  9
$PUCSYDIR
 10
0.0
 20
1.0
 30
0.0
  9
$USERI1
 70
     0
  9
$USERI2
 70
     0
  9
$USERI3
 70
     0
  9
$USERI4
 70
     0
  9
$USERI5
 70
     0
  9
$USERR1
 40
0.0
  9
$USERR2
 40
0.0
  9
$USERR3
 40
0.0
  9
$USERR4
 40
0.0
  9
$USERR5
 40
0.0
  9
$WORLDVIEW
 70
     1
  9
$SHADEDGE
 70
     3
  9
$SHADEDIF
 70
    70
  9
$TILEMODE
 70
     1
  9
$MAXACTVP
 70
    16
  9
$PINSBASE
 10
0.0
 20
0.0
 30
0.0
  9
$PLIMCHECK
 70
     0
  9
$PEXTMIN
 10
1.000000E+20
 20
1.000000E+20
 30
1.000000E+20
  9
$PEXTMAX
 10
-1.000000E+20
 20
-1.000000E+20
 30
-1.000000E+20
  9
$PLIMMIN
 10
0.0
 20
0.0
  9
$PLIMMAX
 10
12.0
 20
9.0
  9
$UNITMODE
 70
     0
  9
$VISRETAIN
 70
     0
  9
$PLINEGEN
 70
     0
  9
$PSLTSCALE
 70
     1
  9
$TREEDEPTH
 70
  3020
  9
$DWGCODEPAGE
  3
ascii
  0
ENDSEC
  0
SECTION
  2
TABLES
  0
TABLE
  2
VPORT
 70
     2
  0
VPORT
  2
*ACTIVE
 70
     0
 10
0.0
 20
0.0
 11
1.0
 21
1.0
 12
5.5
 22
6.9375
 13
0.0
 23
0.0
 14
0.03125
 24
0.03125
 15
0.0
 25
0.0
 16
0.0
 26
0.0
 36
1.0
 17
0.0
 27
0.0
 37
0.0
 40
13.995686
 41
1.365662
 42
50.0
 43
0.0
 44
0.0
 50
0.0
 51
0.0
 71
     0
 72
   100
 73
     1
 74
     1
 75
     1
 76
     0
 77
     0
 78
     0
  0
ENDTAB
  0
TABLE
  2
LTYPE
 70
     3
  0
LTYPE
  2
CONTINUOUS
 70
    64
  3
Solid line
 72
    65
 73
     0
 40
0.0
  0
LTYPE
  2
HIDDEN
 70
    64
  3
_ _ _ _ _ _ _ _ _ _ _ _ _ _ _ _ _ _ _ _ _ _ _
 72
    65
 73
     2
 40
0.375
 49
0.25
 49
-0.125
  0
LTYPE
  2
CENTER
 70
    64
  3
____ _ ____ _ ____ _ ____ _ ____ _ ____ _ ____
 72
    65
 73
     4
 40
2.0
 49
1.25
 49
-0.25
 49
0.25
 49
-0.25
  0
ENDTAB
  0
TABLE
  2
LAYER
 70
     8
  0
LAYER
  2
0
 70
     0
 62
     7
  6
CONTINUOUS
  0
LAYER
  2
DAMAN
 70
     0
 62
     5
  6
CONTINUOUS
  0
LAYER
  2
BORDER
 70
    64
 62
     7
  6
CONTINUOUS
  0
LAYER
  2
CSOLID
 70
    64
 62
     3
  6
CONTINUOUS
  0
LAYER
  2
CHIDDEN
 70
    64
 62
     3
  6
HIDDEN
  0
LAYER
  2
CDIM
 70
    64
 62
     2
  6
CONTINUOUS
  0
LAYER
  2
CCENTER
 70
    64
 62
     4
  6
CENTER
  0
LAYER
  2
3
 70
    64
 62
     3
  6
CONTINUOUS
  0
ENDTAB
  0
TABLE
  2
STYLE
 70
     2
  0
STYLE
  2
STANDARD
 70
    64
 40
0.0
 41
1.0
 50
0.0
 71
     0
 42
0.188
  3
txt
  4

  0
STYLE
  2
STR
 70
    64
 40
0.0
 41
1.0
 50
0.0
 71
     0
 42
0.12
  3
romans
  4

  0
ENDTAB
  0
TABLE
  2
VIEW
 70
     0
  0
ENDTAB
  0
TABLE
  2
UCS
 70
     0
  0
ENDTAB
  0
TABLE
  2
APPID
 70
     1
  0
APPID
  2
ACAD
 70
    64
  0
ENDTAB
  0
TABLE
  2
DIMSTYLE
 70
     0
  0
ENDTAB
  0
ENDSEC
  0
SECTION
  2
BLOCKS
  0
BLOCK
  8
0
  2
D03D07
 70
    64
 10
0.0
 20
0.0
 30
0.0
  3
D03D07
  0
POLYLINE
  8
BORDER
 66
     1
 10
0.0
 20
0.0
 30
0.0
 70
     1
  0
VERTEX
  8
BORDER
 10
9.0
 20
3.0
 30
0.0
  0
VERTEX
  8
BORDER
 10
9.0
 20
8.5
 30
0.0
  0
VERTEX
  8
BORDER
 10
10.25
 20
8.5
 30
0.0
  0
VERTEX
  8
BORDER
 10
10.25
 20
3.0
 30
0.0
  0
SEQEND
  8
BORDER
  0
POLYLINE
  8
BORDER
 66
     1
 10
0.0
 20
0.0
 30
0.0
 70
     1
  0
VERTEX
  8
BORDER
 10
2.75
 20
3.0
 30
0.0
  0
VERTEX
  8
BORDER
 10
2.75
 20
8.5
 30
0.0
  0
VERTEX
  8
BORDER
 10
6.25
 20
8.5
 30
0.0
  0
VERTEX
  8
BORDER
 10
6.25
 20
3.0
 30
0.0
  0
SEQEND
  8
BORDER
  0
POLYLINE
  8
BORDER
 66
     1
 10
0.0
 20
0.0
 30
0.0
 70
     1
  0
VERTEX
  8
BORDER
 10
13.75
 20
3.0
 30
0.0
  0
VERTEX
  8
BORDER
 10
13.75
 20
8.5
 30
0.0
  0
VERTEX
  8
BORDER
 10
17.25
 20
8.5
 30
0.0
  0
VERTEX
  8
BORDER
 10
17.25
 20
3.0
 30
0.0
  0
SEQEND
  8
BORDER
  0
CIRCLE
  8
CSOLID
 10
16.875
 20
7.03125
 30
0.0
 40
0.0855
  0
CIRCLE
  8
CSOLID
 10
16.875
 20
7.75
 30
0.0
 40
0.203
  0
CIRCLE
  8
CSOLID
 10
14.125
 20
7.75
 30
0.0
 40
0.203
  0
CIRCLE
  8
CSOLID
 10
14.6875
 20
7.03125
 30
0.0
 40
0.5
  0
CIRCLE
  8
CSOLID
 10
14.688
 20
7.031
 30
0.0
 40
0.344
  0
CIRCLE
  8
CSOLID
 10
14.125
 20
4.73425
 30
0.0
 40
0.0855
  0
CIRCLE
  8
CSOLID
 10
14.0625
 20
6.40625
 30
0.0
 40
0.1405
  0
CIRCLE
  8
CSOLID
 10
14.6875
 20
5.78125
 30
0.0
 40
0.5
  0
CIRCLE
  8
CSOLID
 10
14.688
 20
5.781
 30
0.0
 40
0.344
  0
CIRCLE
  8
CSOLID
 10
16.313
 20
6.406
 30
0.0
 40
0.344
  0
CIRCLE
  8
CSOLID
 10
16.3125
 20
6.40625
 30
0.0
 40
0.5
  0
CIRCLE
  8
CSOLID
 10
16.9375
 20
5.78125
 30
0.0
 40
0.1405
  0
CIRCLE
  8
CSOLID
 10
16.3125
 20
5.15625
 30
0.0
 40
0.5
  0
CIRCLE
  8
CSOLID
 10
16.313
 20
5.156
 30
0.0
 40
0.344
  0
CIRCLE
  8
CSOLID
 10
16.375
 20
4.282
 30
0.0
 40
0.125
  0
CIRCLE
  8
CSOLID
 10
14.75
 20
4.735
 30
0.0
 40
0.125
  0
CIRCLE
  8
CSOLID
 10
14.75
 20
4.73425
 30
0.0
 40
0.219
  0
CIRCLE
  8
CSOLID
 10
14.125
 20
3.75
 30
0.0
 40
0.203
  0
CIRCLE
  8
CSOLID
 10
16.375
 20
4.28125
 30
0.0
 40
0.219
  0
CIRCLE
  8
CSOLID
 10
16.875
 20
3.75
 30
0.0
 40
0.203
  0
INSERT
  8
CCENTER
  2
100CROSS
 10
14.688
 20
5.781
 30
0.0
 41
-0.688
 42
0.688
 43
0.0
  0
INSERT
  8
CCENTER
  2
100CROSS
 10
14.688
 20
7.031
 30
0.0
 41
-0.688
 42
0.688
 43
0.0
  0
INSERT
  8
CCENTER
  2
100CROSS
 10
14.125
 20
7.75
 30
0.0
 41
-0.375
 42
0.375
 43
0.0
  0
INSERT
  8
CCENTER
  2
100CROSS
 10
14.062
 20
6.406
 30
0.0
 41
-0.25
 42
0.25
 43
0.0
  0
INSERT
  8
CCENTER
  2
100CROSS
 10
14.125
 20
4.73425
 30
0.0
 41
-0.171
 42
0.171
 43
0.0
  0
INSERT
  8
CCENTER
  2
100CROSS
 10
14.75
 20
4.73425
 30
0.0
 41
-0.378
 42
0.378
 43
0.0
  0
INSERT
  8
CCENTER
  2
100CROSS
 10
14.125
 20
3.75
 30
0.0
 41
-0.375
 42
0.375
 43
0.0
  0
INSERT
  8
CCENTER
  2
100CROSS
 10
16.875
 20
3.75
 30
0.0
 41
-0.375
 42
0.375
 43
0.0
  0
INSERT
  8
CCENTER
  2
100CROSS
 10
16.375
 20
4.28125
 30
0.0
 41
-0.378
 42
0.378
 43
0.0
  0
INSERT
  8
CCENTER
  2
100CROSS
 10
16.313
 20
5.156
 30
0.0
 41
-0.688
 42
0.688
 43
0.0
  0
INSERT
  8
CCENTER
  2
100CROSS
 10
16.313
 20
6.406
 30
0.0
 41
-0.688
 42
0.688
 43
0.0
  0
INSERT
  8
CCENTER
  2
100CROSS
 10
16.937
 20
5.781
 30
0.0
 41
-0.25
 42
0.25
 43
0.0
  0
INSERT
  8
CCENTER
  2
100CROSS
 10
16.875
 20
7.03125
 30
0.0
 41
-0.171
 42
0.171
 43
0.0
  0
INSERT
  8
CCENTER
  2
100CROSS
 10
16.875
 20
7.75
 30
0.0
 41
-0.375
 42
0.375
 43
0.0
  0
CIRCLE
  8
CSOLID
 10
5.875
 20
7.75
 30
0.0
 40
0.203
  0
CIRCLE
  8
CSOLID
 10
5.875
 20
7.75
 30
0.0
 40
0.3125
  0
INSERT
  8
CCENTER
  2
100CROSS
 10
5.875
 20
7.75
 30
0.0
 41
0.5625
 42
0.5625
 43
0.0
  0
INSERT
  8
CCENTER
  2
100CROSS
 10
5.93825
 20
6.405875
 30
0.0
 41
0.375
 42
0.375
 43
0.0
  0
CIRCLE
  8
CSOLID
 10
5.9375
 20
6.40625
 30
0.0
 40
0.1405
  0
CIRCLE
  8
CSOLID
 10
5.9375
 20
6.40625
 30
0.0
 40
0.203125
  0
CIRCLE
  8
CSOLID
 10
5.875
 20
3.75
 30
0.0
 40
0.203
  0
CIRCLE
  8
CSOLID
 10
5.875
 20
3.75
 30
0.0
 40
0.3125
  0
INSERT
  8
CCENTER
  2
100CROSS
 10
5.875
 20
3.75
 30
0.0
 41
0.5625
 42
0.5625
 43
0.0
  0
INSERT
  8
CCENTER
  2
100CROSS
 10
3.125
 20
3.75
 30
0.0
 41
0.5625
 42
0.5625
 43
0.0
  0
CIRCLE
  8
CSOLID
 10
3.125
 20
3.75
 30
0.0
 40
0.203
  0
CIRCLE
  8
CSOLID
 10
3.125
 20
3.75
 30
0.0
 40
0.3125
  0
INSERT
  8
CCENTER
  2
100CROSS
 10
3.06325
 20
5.780875
 30
0.0
 41
0.375
 42
0.375
 43
0.0
  0
CIRCLE
  8
CSOLID
 10
3.0625
 20
5.78125
 30
0.0
 40
0.1405
  0
CIRCLE
  8
CSOLID
 10
3.0625
 20
5.78125
 30
0.0
 40
0.203125
  0
INSERT
  8
CCENTER
  2
100CROSS
 10
3.125
 20
7.75
 30
0.0
 41
0.5625
 42
0.5625
 43
0.0
  0
CIRCLE
  8
CSOLID
 10
3.125
 20
7.75
 30
0.0
 40
0.203
  0
CIRCLE
  8
CSOLID
 10
3.125
 20
7.75
 30
0.0
 40
0.3125
  0
CIRCLE
  8
CSOLID
 10
3.50125
 20
5.325
 30
0.0
 40
0.0855
  0
INSERT
  8
CCENTER
  2
100CROSS
 10
3.50125
 20
5.325
 30
0.0
 41
0.171
 42
0.171
 43
0.0
  0
INSERT
  8
CCENTER
  2
100CROSS
 10
4.14125
 20
5.4375
 30
0.0
 41
0.25
 42
0.25
 43
0.0
  0
CIRCLE
  8
CSOLID
 10
4.14125
 20
5.4375
 30
0.0
 40
0.125
  0
CIRCLE
  8
CSOLID
 10
3.73475
 20
5.781
 30
0.0
 40
0.125
  0
INSERT
  8
CCENTER
  2
100CROSS
 10
3.73475
 20
5.781
 30
0.0
 41
0.25
 42
0.25
 43
0.0
  0
INSERT
  8
CCENTER
  2
100CROSS
 10
4.54725
 20
5.781
 30
0.0
 41
0.25
 42
0.25
 43
0.0
  0
CIRCLE
  8
CSOLID
 10
4.54725
 20
5.781
 30
0.0
 40
0.125
  0
CIRCLE
  8
CSOLID
 10
4.14125
 20
6.125
 30
0.0
 40
0.125
  0
INSERT
  8
CCENTER
  2
100CROSS
 10
4.14125
 20
6.125
 30
0.0
 41
0.25
 42
0.25
 43
0.0
  0
CIRCLE
  8
CSOLID
 10
3.50125
 20
5.03125
 30
0.0
 40
0.078
  0
CIRCLE
  8
CSOLID
 10
4.78125
 20
5.03125
 30
0.0
 40
0.078
  0
CIRCLE
  8
CSOLID
 10
4.75125
 20
6.625
 30
0.0
 40
0.078
  0
CIRCLE
  8
CSOLID
 10
3.53125
 20
6.625
 30
0.0
 40
0.078
  0
INSERT
  8
CCENTER
  2
100CROSS
 10
3.50125
 20
5.031
 30
0.0
 41
0.188
 42
0.188
 43
0.0
  0
INSERT
  8
CCENTER
  2
100CROSS
 10
4.78125
 20
5.031
 30
0.0
 41
0.188
 42
0.188
 43
0.0
  0
INSERT
  8
CCENTER
  2
100CROSS
 10
4.75125
 20
6.625
 30
0.0
 41
0.188
 42
0.188
 43
0.0
  0
INSERT
  8
CCENTER
  2
100CROSS
 10
3.53125
 20
6.625
 30
0.0
 41
0.188
 42
0.188
 43
0.0
  0
CIRCLE
  8
CHIDDEN
 10
3.50125
 20
5.031
 30
0.0
 40
0.095
  0
CIRCLE
  8
CHIDDEN
 10
4.78125
 20
5.031
 30
0.0
 40
0.095
  0
CIRCLE
  8
CHIDDEN
 10
3.53125
 20
6.625
 30
0.0
 40
0.095
  0
CIRCLE
  8
CHIDDEN
 10
4.75125
 20
6.625
 30
0.0
 40
0.095
  0
LINE
  8
CDIM
 10
17.25
 20
8.692406
 30
0.0
 11
17.25
 21
9.634813
 31
0.0
  0
LINE
  8
CDIM
 10
14.6875
 20
7.442406
 30
0.0
 11
14.6875
 21
9.634813
 31
0.0
  0
LINE
  8
CDIM
 10
14.302688
 20
9.25
 30
0.0
 11
13.917875
 21
9.25
 31
0.0
  0
LINE
  8
CDIM
 10
17.634813
 20
9.25
 30
0.0
 11
18.019625
 21
9.25
 31
0.0
  0
SOLID
  8
CDIM
 10
14.302688
 20
9.185865
 30
0.0
 11
14.302688
 21
9.314135
 31
0.0
 12
14.6875
 22
9.25
 32
0.0
 13
14.6875
 23
9.25
 33
0.0
  0
SOLID
  8
CDIM
 10
17.634813
 20
9.185865
 30
0.0
 11
17.634813
 21
9.314135
 31
0.0
 12
17.25
 22
9.25
 32
0.0
 13
17.25
 23
9.25
 33
0.0
  0
TEXT
  8
CDIM
 10
15.282069
 20
9.034505
 30
0.0
 40
0.43099
  1
2.56
  7
STR
  0
LINE
  8
CDIM
 10
17.25
 20
8.692406
 30
0.0
 11
17.25
 21
10.78925
 31
0.0
  0
LINE
  8
CDIM
 10
13.75
 20
8.692406
 30
0.0
 11
13.75
 21
10.78925
 31
0.0
  0
LINE
  8
CDIM
 10
16.865188
 20
10.404438
 30
0.0
 11
16.541559
 21
10.404438
 31
0.0
  0
LINE
  8
CDIM
 10
14.134813
 20
10.404438
 30
0.0
 11
14.458441
 21
10.404438
 31
0.0
  0
SOLID
  8
CDIM
 10
16.865188
 20
10.340302
 30
0.0
 11
16.865188
 21
10.468573
 31
0.0
 12
17.25
 22
10.404438
 32
0.0
 13
17.25
 23
10.404438
 33
0.0
  0
SOLID
  8
CDIM
 10
14.134813
 20
10.340302
 30
0.0
 11
14.134813
 21
10.468573
 31
0.0
 12
13.75
 22
10.404438
 32
0.0
 13
13.75
 23
10.404438
 33
0.0
  0
TEXT
  8
CDIM
 10
14.843253
 20
10.188943
 30
0.0
 40
0.43099
  1
3.50
  7
STR
  0
LINE
  8
CDIM
 10
13.557594
 20
8.5
 30
0.0
 11
12.427688
 21
8.5
 31
0.0
  0
LINE
  8
CDIM
 10
14.151594
 20
5.781
 30
0.0
 11
12.427688
 21
5.781
 31
0.0
  0
LINE
  8
CDIM
 10
12.8125
 20
8.115187
 30
0.0
 11
12.8125
 21
7.740807
 31
0.0
  0
LINE
  8
CDIM
 10
12.8125
 20
6.165812
 30
0.0
 11
12.8125
 21
6.540192
 31
0.0
  0
SOLID
  8
CDIM
 10
12.876635
 20
8.115187
 30
0.0
 11
12.748365
 21
8.115187
 31
0.0
 12
12.8125
 22
8.5
 32
0.0
 13
12.8125
 23
8.5
 33
0.0
  0
SOLID
  8
CDIM
 10
12.876635
 20
6.165812
 30
0.0
 11
12.748365
 21
6.165812
 31
0.0
 12
12.8125
 22
5.781
 32
0.0
 13
12.8125
 23
5.781
 33
0.0
  0
TEXT
  8
CDIM
 10
12.155753
 20
6.925005
 30
0.0
 40
0.43099
  1
2.72
  7
STR
  0
LINE
  8
CDIM
 10
13.557594
 20
8.5
 30
0.0
 11
11.27325
 21
8.5
 31
0.0
  0
LINE
  8
CDIM
 10
13.557594
 20
3.0
 30
0.0
 11
11.27325
 21
3.0
 31
0.0
  0
LINE
  8
CDIM
 10
11.658063
 20
8.115187
 30
0.0
 11
11.658063
 21
5.725308
 31
0.0
  0
LINE
  8
CDIM
 10
11.658063
 20
3.384813
 30
0.0
 11
11.658063
 21
4.524693
 31
0.0
  0
SOLID
  8
CDIM
 10
11.722198
 20
8.115187
 30
0.0
 11
11.593927
 21
8.115187
 31
0.0
 12
11.658063
 22
8.5
 32
0.0
 13
11.658063
 23
8.5
 33
0.0
  0
SOLID
  8
CDIM
 10
11.722198
 20
3.384813
 30
0.0
 11
11.593927
 21
3.384813
 31
0.0
 12
11.658063
 22
3.0
 32
0.0
 13
11.658063
 23
3.0
 33
0.0
  0
TEXT
  8
CDIM
 10
11.001316
 20
4.909505
 30
0.0
 40
0.43099
  1
5.50
  7
STR
  0
LINE
  8
CDIM
 10
9.0
 20
8.692406
 30
0.0
 11
9.0
 21
9.634813
 31
0.0
  0
LINE
  8
CDIM
 10
10.25
 20
8.692406
 30
0.0
 11
10.25
 21
9.634813
 31
0.0
  0
LINE
  8
CDIM
 10
10.634813
 20
9.25
 30
0.0
 11
11.019625
 21
9.25
 31
0.0
  0
LINE
  8
CDIM
 10
8.615187
 20
9.25
 30
0.0
 11
8.230375
 21
9.25
 31
0.0
  0
SOLID
  8
CDIM
 10
10.634813
 20
9.185865
 30
0.0
 11
10.634813
 21
9.314135
 31
0.0
 12
10.25
 22
9.25
 32
0.0
 13
10.25
 23
9.25
 33
0.0
  0
SOLID
  8
CDIM
 10
8.615187
 20
9.185865
 30
0.0
 11
8.615187
 21
9.314135
 31
0.0
 12
9.0
 22
9.25
 32
0.0
 13
9.0
 23
9.25
 33
0.0
  0
TEXT
  8
CDIM
 10
11.123188
 20
9.034505
 30
0.0
 40
0.43099
  1
1.25
  7
STR
  0
LINE
  8
CDIM
 10
2.75
 20
8.692406
 30
0.0
 11
2.75
 21
9.634813
 31
0.0
  0
LINE
  8
CDIM
 10
3.73475
 20
5.973406
 30
0.0
 11
3.73475
 21
9.634813
 31
0.0
  0
LINE
  8
CDIM
 10
4.119562
 20
9.25
 30
0.0
 11
4.504375
 21
9.25
 31
0.0
  0
LINE
  8
CDIM
 10
2.365188
 20
9.25
 30
0.0
 11
1.980375
 21
9.25
 31
0.0
  0
SOLID
  8
CDIM
 10
4.119562
 20
9.185865
 30
0.0
 11
4.119562
 21
9.314135
 31
0.0
 12
3.73475
 22
9.25
 32
0.0
 13
3.73475
 23
9.25
 33
0.0
  0
SOLID
  8
CDIM
 10
2.365188
 20
9.185865
 30
0.0
 11
2.365188
 21
9.314135
 31
0.0
 12
2.75
 22
9.25
 32
0.0
 13
2.75
 23
9.25
 33
0.0
  0
TEXT
  8
CDIM
 10
4.889187
 20
9.034505
 30
0.0
 40
0.43099
  1
0.98
  7
STR
  0
LINE
  8
CDIM
 10
6.442406
 20
8.5
 30
0.0
 11
7.603563
 21
8.5
 31
0.0
  0
LINE
  8
CDIM
 10
4.739656
 20
5.781
 30
0.0
 11
7.603563
 21
5.781
 31
0.0
  0
LINE
  8
CDIM
 10
7.21875
 20
8.115187
 30
0.0
 11
7.21875
 21
7.740807
 31
0.0
  0
LINE
  8
CDIM
 10
7.21875
 20
6.165812
 30
0.0
 11
7.21875
 21
6.540192
 31
0.0
  0
SOLID
  8
CDIM
 10
7.282885
 20
8.115187
 30
0.0
 11
7.154615
 21
8.115187
 31
0.0
 12
7.21875
 22
8.5
 32
0.0
 13
7.21875
 23
8.5
 33
0.0
  0
SOLID
  8
CDIM
 10
7.282885
 20
6.165812
 30
0.0
 11
7.154615
 21
6.165812
 31
0.0
 12
7.21875
 22
5.781
 32
0.0
 13
7.21875
 23
5.781
 33
0.0
  0
TEXT
  8
CDIM
 10
6.562003
 20
6.925005
 30
0.0
 40
0.43099
  1
2.72
  7
STR
  0
ENDBLK
  8
0
  0
BLOCK
  8
3
  2
100CROSS
 70
    64
 10
5.625
 20
4.59375
 30
0.0
  0
INSERT
  8
0
  2
050CROSS
 10
5.625
 20
4.59375
 30
0.0
 43
0.0
  0
ENDBLK
  8
0
  0
BLOCK
  8
0
  2
050CROSS
 70
    64
 10
5.0
 20
5.0
 30
0.0
  0
LINE
  8
0
 10
5.0
 20
5.28125
 30
0.0
 11
5.0
 21
5.78125
 31
0.0
  0
LINE
  8
0
 10
5.0
 20
4.875
 30
0.0
 11
5.0
 21
5.125
 31
0.0
  0
LINE
  8
0
 10
5.0
 20
4.15625
 30
0.0
 11
5.0
 21
4.71875
 31
0.0
  0
LINE
  8
0
 10
5.25
 20
5.0
 30
0.0
 11
5.8125
 21
5.0
 31
0.0
  0
LINE
  8
0
 10
4.90625
 20
5.0
 30
0.0
 11
5.09375
 21
5.0
 31
0.0
  0
LINE
  8
0
 10
4.1875
 20
5.0
 30
0.0
 11
4.75
 21
5.0
 31
0.0
  0
ENDBLK
  8
0
  0
ENDSEC
  0
SECTION
  2
ENTITIES
  0
POLYLINE
  8
DAMAN
 66
     1
 10
0.0
 20
0.0
 30
0.0
 70
     1
  0
VERTEX
  8
DAMAN
 10
9.09375
 20
4.15625
 30
0.0
  0
VERTEX
  8
DAMAN
 10
9.09375
 20
9.65625
 30
0.0
  0
VERTEX
  8
DAMAN
 10
10.34375
 20
9.65625
 30
0.0
  0
VERTEX
  8
DAMAN
 10
10.34375
 20
4.15625
 30
0.0
  0
SEQEND
  8
DAMAN
  0
POLYLINE
  8
DAMAN
 66
     1
 10
0.0
 20
0.0
 30
0.0
 70
     1
  0
VERTEX
  8
DAMAN
 10
3.84375
 20
4.15625
 30
0.0
  0
VERTEX
  8
DAMAN
 10
3.84375
 20
9.65625
 30
0.0
  0
VERTEX
  8
DAMAN
 10
7.34375
 20
9.65625
 30
0.0
  0
VERTEX
  8
DAMAN
 10
7.34375
 20
4.15625
 30
0.0
  0
SEQEND
  8
DAMAN
  0
CIRCLE
  8
DAMAN
 10
6.96875
 20
8.90625
 30
0.0
 40
0.203
  0
CIRCLE
  8
DAMAN
 10
6.96875
 20
8.90625
 30
0.0
 40
0.3125
  0
INSERT
  8
DAMAN
  2
100CROSS
 10
6.96875
 20
8.90625
 30
0.0
 41
0.5625
 42
0.5625
 43
0.0
  0
INSERT
  8
DAMAN
  2
100CROSS
 10
7.032
 20
7.562125
 30
0.0
 41
0.375
 42
0.375
 43
0.0
  0
CIRCLE
  8
DAMAN
 10
7.03125
 20
7.5625
 30
0.0
 40
0.1405
  0
CIRCLE
  8
DAMAN
 10
7.03125
 20
7.5625
 30
0.0
 40
0.203125
  0
CIRCLE
  8
DAMAN
 10
6.96875
 20
4.90625
 30
0.0
 40
0.203
  0
CIRCLE
  8
DAMAN
 10
6.96875
 20
4.90625
 30
0.0
 40
0.3125
  0
INSERT
  8
DAMAN
  2
100CROSS
 10
6.96875
 20
4.90625
 30
0.0
 41
0.5625
 42
0.5625
 43
0.0
  0
INSERT
  8
DAMAN
  2
100CROSS
 10
4.21875
 20
4.90625
 30
0.0
 41
0.5625
 42
0.5625
 43
0.0
  0
CIRCLE
  8
DAMAN
 10
4.21875
 20
4.90625
 30
0.0
 40
0.203
  0
CIRCLE
  8
DAMAN
 10
4.21875
 20
4.90625
 30
0.0
 40
0.3125
  0
INSERT
  8
DAMAN
  2
100CROSS
 10
4.157
 20
6.937125
 30
0.0
 41
0.375
 42
0.375
 43
0.0
  0
CIRCLE
  8
DAMAN
 10
4.15625
 20
6.9375
 30
0.0
 40
0.1405
  0
CIRCLE
  8
DAMAN
 10
4.15625
 20
6.9375
 30
0.0
 40
0.203125
  0
INSERT
  8
DAMAN
  2
100CROSS
 10
4.21875
 20
8.90625
 30
0.0
 41
0.5625
 42
0.5625
 43
0.0
  0
CIRCLE
  8
DAMAN
 10
4.21875
 20
8.90625
 30
0.0
 40
0.203
  0
CIRCLE
  8
DAMAN
 10
4.21875
 20
8.90625
 30
0.0
 40
0.3125
  0
CIRCLE
  8
DAMAN
 10
4.595
 20
6.48125
 30
0.0
 40
0.0855
  0
INSERT
  8
DAMAN
  2
100CROSS
 10
4.595
 20
6.48125
 30
0.0
 41
0.171
 42
0.171
 43
0.0
  0
INSERT
  8
DAMAN
  2
100CROSS
 10
5.235
 20
6.59375
 30
0.0
 41
0.25
 42
0.25
 43
0.0
  0
CIRCLE
  8
DAMAN
 10
5.235
 20
6.59375
 30
0.0
 40
0.125
  0
CIRCLE
  8
DAMAN
 10
4.8285
 20
6.93725
 30
0.0
 40
0.125
  0
INSERT
  8
DAMAN
  2
100CROSS
 10
4.8285
 20
6.93725
 30
0.0
 41
0.25
 42
0.25
 43
0.0
  0
INSERT
  8
DAMAN
  2
100CROSS
 10
5.641
 20
6.93725
 30
0.0
 41
0.25
 42
0.25
 43
0.0
  0
CIRCLE
  8
DAMAN
 10
5.641
 20
6.93725
 30
0.0
 40
0.125
  0
CIRCLE
  8
DAMAN
 10
5.235
 20
7.28125
 30
0.0
 40
0.125
  0
INSERT
  8
DAMAN
  2
100CROSS
 10
5.235
 20
7.28125
 30
0.0
 41
0.25
 42
0.25
 43
0.0
  0
CIRCLE
  8
DAMAN
 10
4.595
 20
6.1875
 30
0.0
 40
0.078
  0
CIRCLE
  8
DAMAN
 10
5.875
 20
6.1875
 30
0.0
 40
0.078
  0
CIRCLE
  8
DAMAN
 10
5.845
 20
7.78125
 30
0.0
 40
0.078
  0
CIRCLE
  8
DAMAN
 10
4.625
 20
7.78125
 30
0.0
 40
0.078
  0
INSERT
  8
DAMAN
  2
100CROSS
 10
4.595
 20
6.18725
 30
0.0
 41
0.188
 42
0.188
 43
0.0
  0
INSERT
  8
DAMAN
  2
100CROSS
 10
5.875
 20
6.18725
 30
0.0
 41
0.188
 42
0.188
 43
0.0
  0
INSERT
  8
DAMAN
  2
100CROSS
 10
5.845
 20
7.78125
 30
0.0
 41
0.188
 42
0.188
 43
0.0
  0
INSERT
  8
DAMAN
  2
100CROSS
 10
4.625
 20
7.78125
 30
0.0
 41
0.188
 42
0.188
 43
0.0
  0
CIRCLE
  8
DAMAN
 10
4.595
 20
6.18725
 30
0.0
 40
0.095
  0
CIRCLE
  8
DAMAN
 10
5.875
 20
6.18725
 30
0.0
 40
0.095
  0
CIRCLE
  8
DAMAN
 10
4.625
 20
7.78125
 30
0.0
 40
0.095
  0
CIRCLE
  8
DAMAN
 10
5.845
 20
7.78125
 30
0.0
 40
0.095
  0
LINE
  8
DAMAN
 10
3.8125
 20
1.75
 30
0.0
 11
7.3125
 21
1.75
 31
0.0
  0
LINE
  8
DAMAN
 10
7.3125
 20
1.75
 30
0.0
 11
7.3125
 21
3.0
 31
0.0
  0
LINE
  8
DAMAN
 10
7.3125
 20
3.0
 30
0.0
 11
3.8125
 21
3.0
 31
0.0
  0
LINE
  8
DAMAN
 10
3.8125
 20
3.0
 30
0.0
 11
3.8125
 21
1.75
 31
0.0
  0
LINE
  8
DAMAN
 10
7.3125
 20
12.0625
 30
0.0
 11
7.3125
 21
10.8125
 31
0.0
  0
LINE
  8
DAMAN
 10
3.8125
 20
10.8125
 30
0.0
 11
3.8125
 21
12.0625
 31
0.0
  0
LINE
  8
DAMAN
 10
3.8125
 20
12.0625
 30
0.0
 11
7.3125
 21
12.0625
 31
0.0
  0
LINE
  8
DAMAN
 10
7.3125
 20
10.8125
 30
0.0
 11
3.8125
 21
10.8125
 31
0.0
  0
POLYLINE
  8
DAMAN
 66
     1
 10
0.0
 20
0.0
 30
0.0
 70
     1
  0
VERTEX
  8
DAMAN
 10
2.09375
 20
4.15625
 30
0.0
  0
VERTEX
  8
DAMAN
 10
2.09375
 20
9.65625
 30
0.0
  0
VERTEX
  8
DAMAN
 10
0.84375
 20
9.65625
 30
0.0
  0
VERTEX
  8
DAMAN
 10
0.84375
 20
4.15625
 30
0.0
  0
SEQEND
  8
DAMAN
  0
TEXT
  8
DAMAN
 10
4.40625
 20
2.6875
 30
0.0
 40
0.188
  1
DAMAN ****
  0
ENDSEC
  0
EOF
