  0
SECTION
  2
HEADER
  9
$ACADVER
  1
AC1009
  9
$INSBASE
 10
0.0
 20
0.0
 30
0.0
  9
$EXTMIN
 10
-1.46875
 20
1.287154
 30
0.0
  9
$EXTMAX
 10
17.75
 20
8.337846
 30
0.0
  9
$LIMMIN
 10
0.0
 20
0.0
  9
$LIMMAX
 10
12.0
 20
9.0
  9
$ORTHOMODE
 70
     1
  9
$REGENMODE
 70
     1
  9
$FILLMODE
 70
     1
  9
$QTEXTMODE
 70
     0
  9
$MIRRTEXT
 70
     1
  9
$DRAGMODE
 70
     2
  9
$LTSCALE
 40
1.0
  9
$OSMODE
 70
     0
  9
$ATTMODE
 70
     1
  9
$TEXTSIZE
 40
0.188
  9
$TRACEWID
 40
0.05
  9
$TEXTSTYLE
  7
STANDARD
  9
$CLAYER
  8
DAMAN
  9
$CELTYPE
  6
BYLAYER
  9
$CECOLOR
 62
   256
  9
$DIMSCALE
 40
1.0
  9
$DIMASZ
 40
0.18
  9
$DIMEXO
 40
0.0625
  9
$DIMDLI
 40
0.38
  9
$DIMRND
 40
0.0
  9
$DIMDLE
 40
0.0
  9
$DIMEXE
 40
0.18
  9
$DIMTP
 40
0.0
  9
$DIMTM
 40
0.0
  9
$DIMTXT
 40
0.18
  9
$DIMCEN
 40
0.09
  9
$DIMTSZ
 40
0.0
  9
$DIMTOL
 70
     0
  9
$DIMLIM
 70
     0
  9
$DIMTIH
 70
     1
  9
$DIMTOH
 70
     1
  9
$DIMSE1
 70
     0
  9
$DIMSE2
 70
     0
  9
$DIMTAD
 70
     0
  9
$DIMZIN
 70
     0
  9
$DIMBLK
  1

  9
$DIMASO
 70
     1
  9
$DIMSHO
 70
     1
  9
$DIMPOST
  1

  9
$DIMAPOST
  1

  9
$DIMALT
 70
     0
  9
$DIMALTD
 70
     2
  9
$DIMALTF
 40
25.4
  9
$DIMLFAC
 40
1.0
  9
$DIMTOFL
 70
     0
  9
$DIMTVP
 40
0.0
  9
$DIMTIX
 70
     0
  9
$DIMSOXD
 70
     0
  9
$DIMSAH
 70
     0
  9
$DIMBLK1
  1

  9
$DIMBLK2
  1

  9
$DIMSTYLE
  2
*UNNAMED
  9
$DIMCLRD
 70
     0
  9
$DIMCLRE
 70
     0
  9
$DIMCLRT
 70
     0
  9
$DIMTFAC
 40
1.0
  9
$DIMGAP
 40
0.09
  9
$LUNITS
 70
     2
  9
$LUPREC
 70
     4
  9
$SKETCHINC
 40
0.1
  9
$FILLETRAD
 40
0.0
  9
$AUNITS
 70
     0
  9
$AUPREC
 70
     0
  9
$MENU
  1
tom
  9
$ELEVATION
 40
0.0
  9
$PELEVATION
 40
0.0
  9
$THICKNESS
 40
0.0
  9
$LIMCHECK
 70
     0
  9
$BLIPMODE
 70
     1
  9
$CHAMFERA
 40
0.0
  9
$CHAMFERB
 40
0.0
  9
$SKPOLY
 70
     0
  9
$TDCREATE
 40
2449753.441780543
  9
$TDUPDATE
 40
2449753.441780543
  9
$TDINDWG
 40
0.0000000000
  9
$TDUSRTIMER
 40
0.0000000000
  9
$USRTIMER
 70
     1
  9
$ANGBASE
 50
0.0
  9
$ANGDIR
 70
     0
  9
$PDMODE
 70
     0
  9
$PDSIZE
 40
0.0
  9
$PLINEWID
 40
0.0
  9
$COORDS
 70
     1
  9
$SPLFRAME
 70
     0
  9
$SPLINETYPE
 70
     6
  9
$SPLINESEGS
 70
     8
  9
$ATTDIA
 70
     0
  9
$ATTREQ
 70
     1
  9
$HANDLING
 70
     0
  9
$HANDSEED
  5
0
  9
$SURFTAB1
 70
     6
  9
$SURFTAB2
 70
     6
  9
$SURFTYPE
 70
     6
  9
$SURFU
 70
     6
  9
$SURFV
 70
     6
  9
$UCSNAME
  2

  9
$UCSORG
 10
0.0
 20
0.0
 30
0.0
  9
$UCSXDIR
 10
1.0
 20
0.0
 30
0.0
  9
$UCSYDIR
 10
0.0
 20
1.0
 30
0.0
  9
$PUCSNAME
  2

  9
$PUCSORG
 10
0.0
 20
0.0
 30
0.0
  9
$PUCSXDIR
 10
1.0
 20
0.0
 30
0.0
  9
$PUCSYDIR
 10
0.0
 20
1.0
 30
0.0
  9
$USERI1
 70
     0
  9
$USERI2
 70
     0
  9
$USERI3
 70
     0
  9
$USERI4
 70
     0
  9
$USERI5
 70
     0
  9
$USERR1
 40
0.0
  9
$USERR2
 40
0.0
  9
$USERR3
 40
0.0
  9
$USERR4
 40
0.0
  9
$USERR5
 40
0.0
  9
$WORLDVIEW
 70
     1
  9
$SHADEDGE
 70
     3
  9
$SHADEDIF
 70
    70
  9
$TILEMODE
 70
     1
  9
$MAXACTVP
 70
    16
  9
$PINSBASE
 10
0.0
 20
0.0
 30
0.0
  9
$PLIMCHECK
 70
     0
  9
$PEXTMIN
 10
1.000000E+20
 20
1.000000E+20
 30
1.000000E+20
  9
$PEXTMAX
 10
-1.000000E+20
 20
-1.000000E+20
 30
-1.000000E+20
  9
$PLIMMIN
 10
0.0
 20
0.0
  9
$PLIMMAX
 10
12.0
 20
9.0
  9
$UNITMODE
 70
     0
  9
$VISRETAIN
 70
     0
  9
$PLINEGEN
 70
     0
  9
$PSLTSCALE
 70
     1
  9
$TREEDEPTH
 70
  3020
  9
$DWGCODEPAGE
  3
ascii
  0
ENDSEC
  0
SECTION
  2
TABLES
  0
TABLE
  2
VPORT
 70
     2
  0
VPORT
  2
*ACTIVE
 70
     0
 10
0.0
 20
0.0
 11
1.0
 21
1.0
 12
3.03125
 22
4.8125
 13
0.0
 23
0.0
 14
0.03125
 24
0.03125
 15
0.0
 25
0.0
 16
0.0
 26
0.0
 36
1.0
 17
0.0
 27
0.0
 37
0.0
 40
9.07545
 41
1.365662
 42
50.0
 43
0.0
 44
0.0
 50
0.0
 51
0.0
 71
     0
 72
   100
 73
     1
 74
     1
 75
     1
 76
     0
 77
     0
 78
     0
  0
ENDTAB
  0
TABLE
  2
LTYPE
 70
     3
  0
LTYPE
  2
CONTINUOUS
 70
    64
  3
Solid line
 72
    65
 73
     0
 40
0.0
  0
LTYPE
  2
HIDDEN
 70
    64
  3
_ _ _ _ _ _ _ _ _ _ _ _ _ _ _ _ _ _ _ _ _ _ _
 72
    65
 73
     2
 40
0.375
 49
0.25
 49
-0.125
  0
LTYPE
  2
CENTER
 70
    64
  3
____ _ ____ _ ____ _ ____ _ ____ _ ____ _ ____
 72
    65
 73
     4
 40
2.0
 49
1.25
 49
-0.25
 49
0.25
 49
-0.25
  0
ENDTAB
  0
TABLE
  2
LAYER
 70
     7
  0
LAYER
  2
0
 70
    64
 62
     7
  6
CONTINUOUS
  0
LAYER
  2
DAMAN
 70
    64
 62
     5
  6
CONTINUOUS
  0
LAYER
  2
BORDER
 70
    64
 62
     7
  6
CONTINUOUS
  0
LAYER
  2
CSOLID
 70
    64
 62
     3
  6
CONTINUOUS
  0
LAYER
  2
CHIDDEN
 70
    64
 62
     3
  6
HIDDEN
  0
LAYER
  2
CDIM
 70
    64
 62
     2
  6
CONTINUOUS
  0
LAYER
  2
CCENTER
 70
    64
 62
     4
  6
CENTER
  0
ENDTAB
  0
TABLE
  2
STYLE
 70
     2
  0
STYLE
  2
STANDARD
 70
    64
 40
0.0
 41
1.0
 50
0.0
 71
     0
 42
0.188
  3
txt
  4

  0
STYLE
  2
STR
 70
    64
 40
0.0
 41
1.0
 50
0.0
 71
     0
 42
0.0625
  3
SIMPLEX
  4

  0
ENDTAB
  0
TABLE
  2
VIEW
 70
     0
  0
ENDTAB
  0
TABLE
  2
UCS
 70
     0
  0
ENDTAB
  0
TABLE
  2
APPID
 70
     1
  0
APPID
  2
ACAD
 70
    64
  0
ENDTAB
  0
TABLE
  2
DIMSTYLE
 70
     0
  0
ENDTAB
  0
ENDSEC
  0
SECTION
  2
BLOCKS
  0
BLOCK
  8
0
  2
D01D02BA
 70
     0
 10
0.0
 20
0.0
 30
0.0
  3
D01D02BA
  0
POLYLINE
  8
BORDER
 66
     1
 10
0.0
 20
0.0
 30
0.0
 70
     1
  0
VERTEX
  8
BORDER
 10
4.84375
 20
0.53125
 30
0.0
  0
VERTEX
  8
BORDER
 10
4.84375
 20
3.28125
 30
0.0
  0
VERTEX
  8
BORDER
 10
5.59375
 20
3.28125
 30
0.0
  0
VERTEX
  8
BORDER
 10
5.59375
 20
0.53125
 30
0.0
  0
SEQEND
  8
BORDER
  0
POLYLINE
  8
BORDER
 66
     1
 10
0.0
 20
0.0
 30
0.0
 70
     1
  0
VERTEX
  8
BORDER
 10
0.59375
 20
0.53125
 30
0.0
  0
VERTEX
  8
BORDER
 10
0.59375
 20
3.28125
 30
0.0
  0
VERTEX
  8
BORDER
 10
3.09375
 20
3.28125
 30
0.0
  0
VERTEX
  8
BORDER
 10
3.09375
 20
0.53125
 30
0.0
  0
SEQEND
  8
BORDER
  0
POLYLINE
  8
BORDER
 66
     1
 10
0.0
 20
0.0
 30
0.0
 70
     1
  0
VERTEX
  8
BORDER
 10
7.84375
 20
0.53125
 30
0.0
  0
VERTEX
  8
BORDER
 10
7.84375
 20
3.28125
 30
0.0
  0
VERTEX
  8
BORDER
 10
10.34375
 20
3.28125
 30
0.0
  0
VERTEX
  8
BORDER
 10
10.34375
 20
0.53125
 30
0.0
  0
SEQEND
  8
BORDER
  0
CIRCLE
  8
CSOLID
 10
2.51575
 20
2.36225
 30
0.0
 40
0.0855
  0
INSERT
  8
CCENTER
  2
100CROSS
 10
2.51575
 20
2.36225
 30
0.0
 41
0.171
 42
0.171
 50
180.0
 43
0.0
  0
INSERT
  8
CCENTER
  2
100CROSS
 10
1.87575
 20
2.24975
 30
0.0
 41
0.25
 42
0.25
 50
180.0
 43
0.0
  0
CIRCLE
  8
CSOLID
 10
1.87575
 20
2.24975
 30
0.0
 40
0.125
  0
CIRCLE
  8
CSOLID
 10
2.28225
 20
1.90625
 30
0.0
 40
0.125
  0
INSERT
  8
CCENTER
  2
100CROSS
 10
2.28225
 20
1.90625
 30
0.0
 41
0.25
 42
0.25
 50
180.0
 43
0.0
  0
INSERT
  8
CCENTER
  2
100CROSS
 10
1.46975
 20
1.90625
 30
0.0
 41
0.25
 42
0.25
 50
180.0
 43
0.0
  0
CIRCLE
  8
CSOLID
 10
1.46975
 20
1.90625
 30
0.0
 40
0.125
  0
CIRCLE
  8
CSOLID
 10
1.87575
 20
1.56225
 30
0.0
 40
0.125
  0
INSERT
  8
CCENTER
  2
100CROSS
 10
1.87575
 20
1.56225
 30
0.0
 41
0.25
 42
0.25
 50
180.0
 43
0.0
  0
CIRCLE
  8
CSOLID
 10
2.51575
 20
2.656
 30
0.0
 40
0.078
  0
CIRCLE
  8
CSOLID
 10
1.23575
 20
2.656
 30
0.0
 40
0.078
  0
CIRCLE
  8
CSOLID
 10
1.26575
 20
1.06225
 30
0.0
 40
0.078
  0
CIRCLE
  8
CSOLID
 10
2.48575
 20
1.06225
 30
0.0
 40
0.078
  0
INSERT
  8
CCENTER
  2
100CROSS
 10
2.51575
 20
2.65625
 30
0.0
 41
0.188
 42
0.188
 50
180.0
 43
0.0
  0
INSERT
  8
CCENTER
  2
100CROSS
 10
1.23575
 20
2.65625
 30
0.0
 41
0.188
 42
0.188
 50
180.0
 43
0.0
  0
INSERT
  8
CCENTER
  2
100CROSS
 10
1.26575
 20
1.06225
 30
0.0
 41
0.188
 42
0.188
 50
180.0
 43
0.0
  0
INSERT
  8
CCENTER
  2
100CROSS
 10
2.48575
 20
1.06225
 30
0.0
 41
0.188
 42
0.188
 50
180.0
 43
0.0
  0
CIRCLE
  8
CHIDDEN
 10
2.51575
 20
2.65625
 30
0.0
 40
0.095
  0
CIRCLE
  8
CHIDDEN
 10
1.23575
 20
2.65625
 30
0.0
 40
0.095
  0
CIRCLE
  8
CHIDDEN
 10
2.48575
 20
1.06225
 30
0.0
 40
0.095
  0
CIRCLE
  8
CHIDDEN
 10
1.26575
 20
1.06225
 30
0.0
 40
0.095
  0
CIRCLE
  8
CHIDDEN
 10
8.15625
 20
2.96875
 30
0.0
 40
0.203125
  0
INSERT
  8
CCENTER
  2
100CROSS
 10
8.15625
 20
2.96875
 30
0.0
 41
-0.406
 42
0.406
 43
0.406
  0
CIRCLE
  8
CHIDDEN
 10
8.15625
 20
0.84375
 30
0.0
 40
0.203125
  0
INSERT
  8
CCENTER
  2
100CROSS
 10
8.15625
 20
0.84375
 30
0.0
 41
-0.406
 42
0.406
 43
0.406
  0
CIRCLE
  8
CHIDDEN
 10
9.96875
 20
2.96875
 30
0.0
 40
0.203125
  0
INSERT
  8
CCENTER
  2
100CROSS
 10
9.96875
 20
2.96875
 30
0.0
 41
-0.406
 42
0.406
 43
0.406
  0
INSERT
  8
CCENTER
  2
100CROSS
 10
9.96875
 20
0.84375
 30
0.0
 41
-0.406
 42
0.406
 43
0.406
  0
CIRCLE
  8
CHIDDEN
 10
9.96875
 20
0.84375
 30
0.0
 40
0.203125
  0
INSERT
  8
CCENTER
  2
100CROSS
 10
9.43775
 20
0.96875
 30
0.0
 41
-0.438
 42
0.438
 43
0.0
  0
INSERT
  8
CCENTER
  2
100CROSS
 10
9.00025
 20
1.50025
 30
0.0
 41
-0.438
 42
0.438
 43
0.0
  0
INSERT
  8
CCENTER
  2
100CROSS
 10
8.40625
 20
1.9065
 30
0.0
 41
-0.438
 42
0.438
 43
0.0
  0
INSERT
  8
CCENTER
  2
100CROSS
 10
9.00025
 20
2.31275
 30
0.0
 41
-0.438
 42
0.438
 43
0.0
  0
INSERT
  8
CCENTER
  2
100CROSS
 10
9.43775
 20
2.84375
 30
0.0
 41
-0.438
 42
0.438
 43
0.0
  0
CIRCLE
  8
CSOLID
 10
8.40625
 20
1.9065
 30
0.0
 40
0.21875
  0
CIRCLE
  8
CSOLID
 10
9.96875
 20
2.96875
 30
0.0
 40
0.1405
  0
CIRCLE
  8
CSOLID
 10
9.96875
 20
0.84375
 30
0.0
 40
0.1405
  0
CIRCLE
  8
CSOLID
 10
8.15625
 20
2.96875
 30
0.0
 40
0.1405
  0
CIRCLE
  8
CSOLID
 10
8.15625
 20
0.84375
 30
0.0
 40
0.1405
  0
CIRCLE
  8
CSOLID
 10
9.4375
 20
2.84375
 30
0.0
 40
0.3125
  0
CIRCLE
  8
CSOLID
 10
9.0
 20
2.3125
 30
0.0
 40
0.3125
  0
CIRCLE
  8
CSOLID
 10
8.40625
 20
1.90625
 30
0.0
 40
0.3125
  0
CIRCLE
  8
CSOLID
 10
9.0
 20
1.5
 30
0.0
 40
0.3125
  0
CIRCLE
  8
CSOLID
 10
9.4375
 20
0.96875
 30
0.0
 40
0.3125
  0
CIRCLE
  8
CSOLID
 10
9.34375
 20
2.84375
 30
0.0
 40
0.125
  0
CIRCLE
  8
CSOLID
 10
9.34375
 20
0.96875
 30
0.0
 40
0.125
  0
INSERT
  8
CCENTER
  2
100CROSS
 10
9.06175
 20
1.56225
 30
0.0
 41
-0.25
 42
0.25
 50
180.0
 43
0.0
  0
CIRCLE
  8
CSOLID
 10
9.06175
 20
1.56225
 30
0.0
 40
0.125
  0
CIRCLE
  8
CSOLID
 10
9.06175
 20
2.24975
 30
0.0
 40
0.125
  0
INSERT
  8
CCENTER
  2
100CROSS
 10
9.06175
 20
2.24975
 30
0.0
 41
-0.25
 42
0.25
 50
180.0
 43
0.0
  0
INSERT
  8
CCENTER
  2
100CROSS
 10
8.65525
 20
1.90625
 30
0.0
 41
-0.25
 42
0.25
 50
180.0
 43
0.0
  0
ARC
  8
CSOLID
 10
8.65525
 20
1.90625
 30
0.0
 40
0.125
 50
118.51723
 51
241.367718
  0
CIRCLE
  8
CSOLID
 10
2.78125
 20
2.96875
 30
0.0
 40
0.1405
  0
INSERT
  8
CCENTER
  2
100CROSS
 10
2.78125
 20
2.96875
 30
0.0
 41
0.406
 42
0.406
 50
360.0
 43
0.406
  0
CIRCLE
  8
CSOLID
 10
2.78125
 20
2.96875
 30
0.0
 40
0.203125
  0
CIRCLE
  8
CSOLID
 10
0.96875
 20
2.96875
 30
0.0
 40
0.1405
  0
INSERT
  8
CCENTER
  2
100CROSS
 10
0.96875
 20
2.96875
 30
0.0
 41
0.406
 42
0.406
 50
360.0
 43
0.406
  0
CIRCLE
  8
CSOLID
 10
0.96875
 20
2.96875
 30
0.0
 40
0.203125
  0
CIRCLE
  8
CSOLID
 10
0.96875
 20
0.84375
 30
0.0
 40
0.1405
  0
CIRCLE
  8
CSOLID
 10
0.96875
 20
0.84375
 30
0.0
 40
0.203125
  0
INSERT
  8
CCENTER
  2
100CROSS
 10
0.96875
 20
0.84375
 30
0.0
 41
0.406
 42
0.406
 50
360.0
 43
0.406
  0
CIRCLE
  8
CSOLID
 10
2.78125
 20
0.84375
 30
0.0
 40
0.1405
  0
INSERT
  8
CCENTER
  2
100CROSS
 10
2.78125
 20
0.84375
 30
0.0
 41
0.406
 42
0.406
 50
360.0
 43
0.406
  0
CIRCLE
  8
CSOLID
 10
2.78125
 20
0.84375
 30
0.0
 40
0.203125
  0
INSERT
  8
CCENTER
  2
100CROSS
 10
9.34375
 20
0.96875
 30
0.0
 41
0.25
 42
0.25
 43
0.25
  0
INSERT
  8
CCENTER
  2
100CROSS
 10
9.34375
 20
2.84375
 30
0.0
 41
0.25
 42
0.25
 43
0.25
  0
LINE
  8
CDIM
 10
0.59375
 20
3.383525
 30
0.0
 11
0.59375
 21
3.9858
 31
0.0
  0
LINE
  8
CDIM
 10
2.28125
 20
2.102275
 30
0.0
 11
2.28125
 21
3.9858
 31
0.0
  0
LINE
  8
CDIM
 10
0.7983
 20
3.78125
 30
0.0
 11
0.911125
 21
3.78125
 31
0.0
  0
LINE
  8
CDIM
 10
2.0767
 20
3.78125
 30
0.0
 11
1.963875
 21
3.78125
 31
0.0
  0
SOLID
  8
CDIM
 10
0.7983
 20
3.747158
 30
0.0
 11
0.7983
 21
3.815342
 31
0.0
 12
0.59375
 22
3.78125
 32
0.0
 13
0.59375
 23
3.78125
 33
0.0
  0
SOLID
  8
CDIM
 10
2.0767
 20
3.747158
 30
0.0
 11
2.0767
 21
3.815342
 31
0.0
 12
2.28125
 22
3.78125
 32
0.0
 13
2.28125
 23
3.78125
 33
0.0
  0
TEXT
  8
CDIM
 10
1.115675
 20
3.666702
 30
0.0
 40
0.229096
  1
1.69
  7
STR
  0
LINE
  8
CDIM
 10
3.196025
 20
3.28125
 30
0.0
 11
3.7983
 21
3.28125
 31
0.0
  0
LINE
  8
CDIM
 10
2.477275
 20
1.90625
 30
0.0
 11
3.7983
 21
1.90625
 31
0.0
  0
LINE
  8
CDIM
 10
3.59375
 20
3.0767
 30
0.0
 11
3.59375
 21
2.912848
 31
0.0
  0
LINE
  8
CDIM
 10
3.59375
 20
2.1108
 30
0.0
 11
3.59375
 21
2.274652
 31
0.0
  0
SOLID
  8
CDIM
 10
3.627842
 20
3.0767
 30
0.0
 11
3.559658
 21
3.0767
 31
0.0
 12
3.59375
 22
3.28125
 32
0.0
 13
3.59375
 23
3.28125
 33
0.0
  0
SOLID
  8
CDIM
 10
3.627842
 20
2.1108
 30
0.0
 11
3.559658
 21
2.1108
 31
0.0
 12
3.59375
 22
1.90625
 32
0.0
 13
3.59375
 23
1.90625
 33
0.0
  0
TEXT
  8
CDIM
 10
3.26647
 20
2.479202
 30
0.0
 40
0.229096
  1
1.37
  7
STR
  0
LINE
  8
CDIM
 10
4.84375
 20
3.383525
 30
0.0
 11
4.84375
 21
3.9858
 31
0.0
  0
LINE
  8
CDIM
 10
5.59375
 20
3.383525
 30
0.0
 11
5.59375
 21
3.9858
 31
0.0
  0
LINE
  8
CDIM
 10
5.7983
 20
3.78125
 30
0.0
 11
6.00285
 21
3.78125
 31
0.0
  0
LINE
  8
CDIM
 10
4.6392
 20
3.78125
 30
0.0
 11
4.43465
 21
3.78125
 31
0.0
  0
SOLID
  8
CDIM
 10
5.7983
 20
3.747158
 30
0.0
 11
5.7983
 21
3.815342
 31
0.0
 12
5.59375
 22
3.78125
 32
0.0
 13
5.59375
 23
3.78125
 33
0.0
  0
SOLID
  8
CDIM
 10
4.6392
 20
3.747158
 30
0.0
 11
4.6392
 21
3.815342
 31
0.0
 12
4.84375
 22
3.78125
 32
0.0
 13
4.84375
 23
3.78125
 33
0.0
  0
TEXT
  8
CDIM
 10
6.2074
 20
3.666702
 30
0.0
 40
0.229096
  1
0.75
  7
STR
  0
LINE
  8
CDIM
 10
10.34375
 20
3.383525
 30
0.0
 11
10.34375
 21
3.9858
 31
0.0
  0
LINE
  8
CDIM
 10
8.40625
 20
2.258525
 30
0.0
 11
8.40625
 21
3.9858
 31
0.0
  0
LINE
  8
CDIM
 10
10.1392
 20
3.78125
 30
0.0
 11
9.912285
 21
3.78125
 31
0.0
  0
LINE
  8
CDIM
 10
8.6108
 20
3.78125
 30
0.0
 11
8.837715
 21
3.78125
 31
0.0
  0
SOLID
  8
CDIM
 10
10.1392
 20
3.747158
 30
0.0
 11
10.1392
 21
3.815342
 31
0.0
 12
10.34375
 22
3.78125
 32
0.0
 13
10.34375
 23
3.78125
 33
0.0
  0
SOLID
  8
CDIM
 10
8.6108
 20
3.747158
 30
0.0
 11
8.6108
 21
3.815342
 31
0.0
 12
8.40625
 22
3.78125
 32
0.0
 13
8.40625
 23
3.78125
 33
0.0
  0
TEXT
  8
CDIM
 10
9.042265
 20
3.666702
 30
0.0
 40
0.229096
  1
1.94
  7
STR
  0
LINE
  8
CDIM
 10
10.34375
 20
3.383525
 30
0.0
 11
10.34375
 21
4.5682
 31
0.0
  0
LINE
  8
CDIM
 10
7.84375
 20
3.383525
 30
0.0
 11
7.84375
 21
4.5682
 31
0.0
  0
LINE
  8
CDIM
 10
10.1392
 20
4.36365
 30
0.0
 11
9.647399
 21
4.36365
 31
0.0
  0
LINE
  8
CDIM
 10
8.0483
 20
4.36365
 30
0.0
 11
8.540101
 21
4.36365
 31
0.0
  0
SOLID
  8
CDIM
 10
10.1392
 20
4.329558
 30
0.0
 11
10.1392
 21
4.397742
 31
0.0
 12
10.34375
 22
4.36365
 32
0.0
 13
10.34375
 23
4.36365
 33
0.0
  0
SOLID
  8
CDIM
 10
8.0483
 20
4.329558
 30
0.0
 11
8.0483
 21
4.397742
 31
0.0
 12
7.84375
 22
4.36365
 32
0.0
 13
7.84375
 23
4.36365
 33
0.0
  0
TEXT
  8
CDIM
 10
8.744651
 20
4.249102
 30
0.0
 40
0.229096
  1
2.50
  7
STR
  0
LINE
  8
CDIM
 10
7.741475
 20
3.28125
 30
0.0
 11
7.1392
 21
3.28125
 31
0.0
  0
LINE
  8
CDIM
 10
8.147725
 20
1.90625
 30
0.0
 11
7.1392
 21
1.90625
 31
0.0
  0
LINE
  8
CDIM
 10
7.34375
 20
3.0767
 30
0.0
 11
7.34375
 21
2.912848
 31
0.0
  0
LINE
  8
CDIM
 10
7.34375
 20
2.1108
 30
0.0
 11
7.34375
 21
2.274652
 31
0.0
  0
SOLID
  8
CDIM
 10
7.377842
 20
3.0767
 30
0.0
 11
7.309658
 21
3.0767
 31
0.0
 12
7.34375
 22
3.28125
 32
0.0
 13
7.34375
 23
3.28125
 33
0.0
  0
SOLID
  8
CDIM
 10
7.377842
 20
2.1108
 30
0.0
 11
7.309658
 21
2.1108
 31
0.0
 12
7.34375
 22
1.90625
 32
0.0
 13
7.34375
 23
1.90625
 33
0.0
  0
TEXT
  8
CDIM
 10
7.01647
 20
2.479202
 30
0.0
 40
0.229096
  1
1.37
  7
STR
  0
LINE
  8
CDIM
 10
7.741475
 20
3.28125
 30
0.0
 11
6.52555
 21
3.28125
 31
0.0
  0
LINE
  8
CDIM
 10
7.741475
 20
0.53125
 30
0.0
 11
6.52555
 21
0.53125
 31
0.0
  0
LINE
  8
CDIM
 10
6.7301
 20
3.0767
 30
0.0
 11
6.7301
 21
1.944098
 31
0.0
  0
LINE
  8
CDIM
 10
6.7301
 20
0.7358
 30
0.0
 11
6.7301
 21
1.305902
 31
0.0
  0
SOLID
  8
CDIM
 10
6.764192
 20
3.0767
 30
0.0
 11
6.696008
 21
3.0767
 31
0.0
 12
6.7301
 22
3.28125
 32
0.0
 13
6.7301
 23
3.28125
 33
0.0
  0
SOLID
  8
CDIM
 10
6.764192
 20
0.7358
 30
0.0
 11
6.696008
 21
0.7358
 31
0.0
 12
6.7301
 22
0.53125
 32
0.0
 13
6.7301
 23
0.53125
 33
0.0
  0
TEXT
  8
CDIM
 10
6.381001
 20
1.510452
 30
0.0
 40
0.229096
  1
2.75
  7
STR
  0
ENDBLK
  8
0
  0
BLOCK
  8
0
  2
100CROSS
 70
    64
 10
5.625
 20
4.59375
 30
0.0
  3
100CROSS
  0
INSERT
  8
0
  2
050CROSS
 10
5.625
 20
4.59375
 30
0.0
 43
0.0
  0
ENDBLK
  8
0
  0
BLOCK
  8
0
  2
050CROSS
 70
    64
 10
5.0
 20
5.0
 30
0.0
  3
050CROSS
  0
LINE
  8
0
 10
5.0
 20
5.28125
 30
0.0
 11
5.0
 21
5.78125
 31
0.0
  0
LINE
  8
0
 10
5.0
 20
4.875
 30
0.0
 11
5.0
 21
5.125
 31
0.0
  0
LINE
  8
0
 10
5.0
 20
4.15625
 30
0.0
 11
5.0
 21
4.71875
 31
0.0
  0
LINE
  8
0
 10
5.25
 20
5.0
 30
0.0
 11
5.8125
 21
5.0
 31
0.0
  0
LINE
  8
0
 10
4.90625
 20
5.0
 30
0.0
 11
5.09375
 21
5.0
 31
0.0
  0
LINE
  8
0
 10
4.1875
 20
5.0
 30
0.0
 11
4.75
 21
5.0
 31
0.0
  0
ENDBLK
  8
0
  0
BLOCK
  8
0
  2
D01D02AB
 70
    64
 10
0.0
 20
0.0
 30
0.0
  3
D01D02AB
  0
POLYLINE
  8
BORDER
 66
     1
 10
0.0
 20
0.0
 30
0.0
 70
     1
  0
VERTEX
  8
BORDER
 10
4.84375
 20
0.53125
 30
0.0
  0
VERTEX
  8
BORDER
 10
4.84375
 20
3.28125
 30
0.0
  0
VERTEX
  8
BORDER
 10
6.34375
 20
3.28125
 30
0.0
  0
VERTEX
  8
BORDER
 10
6.34375
 20
0.53125
 30
0.0
  0
SEQEND
  8
BORDER
  0
POLYLINE
  8
BORDER
 66
     1
 10
0.0
 20
0.0
 30
0.0
 70
     1
  0
VERTEX
  8
BORDER
 10
0.59375
 20
0.53125
 30
0.0
  0
VERTEX
  8
BORDER
 10
0.59375
 20
3.28125
 30
0.0
  0
VERTEX
  8
BORDER
 10
3.09375
 20
3.28125
 30
0.0
  0
VERTEX
  8
BORDER
 10
3.09375
 20
0.53125
 30
0.0
  0
SEQEND
  8
BORDER
  0
POLYLINE
  8
BORDER
 66
     1
 10
0.0
 20
0.0
 30
0.0
 70
     1
  0
VERTEX
  8
BORDER
 10
8.59375
 20
0.53125
 30
0.0
  0
VERTEX
  8
BORDER
 10
8.59375
 20
3.28125
 30
0.0
  0
VERTEX
  8
BORDER
 10
11.09375
 20
3.28125
 30
0.0
  0
VERTEX
  8
BORDER
 10
11.09375
 20
0.53125
 30
0.0
  0
SEQEND
  8
BORDER
  0
CIRCLE
  8
CSOLID
 10
1.203
 20
1.45025
 30
0.0
 40
0.0855
  0
INSERT
  8
CCENTER
  2
100CROSS
 10
1.203
 20
1.45025
 30
0.0
 41
0.171
 42
0.171
 43
0.0
  0
INSERT
  8
CCENTER
  2
100CROSS
 10
1.843
 20
1.56275
 30
0.0
 41
0.25
 42
0.25
 43
0.0
  0
CIRCLE
  8
CSOLID
 10
1.843
 20
1.56275
 30
0.0
 40
0.125
  0
CIRCLE
  8
CSOLID
 10
1.4365
 20
1.90625
 30
0.0
 40
0.125
  0
INSERT
  8
CCENTER
  2
100CROSS
 10
1.4365
 20
1.90625
 30
0.0
 41
0.25
 42
0.25
 43
0.0
  0
INSERT
  8
CCENTER
  2
100CROSS
 10
2.249
 20
1.90625
 30
0.0
 41
0.25
 42
0.25
 43
0.0
  0
CIRCLE
  8
CSOLID
 10
2.249
 20
1.90625
 30
0.0
 40
0.125
  0
CIRCLE
  8
CSOLID
 10
1.843
 20
2.25025
 30
0.0
 40
0.125
  0
INSERT
  8
CCENTER
  2
100CROSS
 10
1.843
 20
2.25025
 30
0.0
 41
0.25
 42
0.25
 43
0.0
  0
CIRCLE
  8
CSOLID
 10
1.203
 20
1.1565
 30
0.0
 40
0.078
  0
CIRCLE
  8
CSOLID
 10
2.483
 20
1.1565
 30
0.0
 40
0.078
  0
CIRCLE
  8
CSOLID
 10
2.453
 20
2.75025
 30
0.0
 40
0.078
  0
CIRCLE
  8
CSOLID
 10
1.233
 20
2.75025
 30
0.0
 40
0.078
  0
INSERT
  8
CCENTER
  2
100CROSS
 10
1.203
 20
1.15625
 30
0.0
 41
0.188
 42
0.188
 43
0.0
  0
INSERT
  8
CCENTER
  2
100CROSS
 10
2.483
 20
1.15625
 30
0.0
 41
0.188
 42
0.188
 43
0.0
  0
INSERT
  8
CCENTER
  2
100CROSS
 10
2.453
 20
2.75025
 30
0.0
 41
0.188
 42
0.188
 43
0.0
  0
INSERT
  8
CCENTER
  2
100CROSS
 10
1.233
 20
2.75025
 30
0.0
 41
0.188
 42
0.188
 43
0.0
  0
CIRCLE
  8
CHIDDEN
 10
1.203
 20
1.15625
 30
0.0
 40
0.095
  0
CIRCLE
  8
CHIDDEN
 10
2.483
 20
1.15625
 30
0.0
 40
0.095
  0
CIRCLE
  8
CHIDDEN
 10
1.233
 20
2.75025
 30
0.0
 40
0.095
  0
CIRCLE
  8
CHIDDEN
 10
2.453
 20
2.75025
 30
0.0
 40
0.095
  0
CIRCLE
  8
CHIDDEN
 10
8.9375
 20
2.96875
 30
0.0
 40
0.203125
  0
INSERT
  8
CCENTER
  2
100CROSS
 10
8.9375
 20
2.96875
 30
0.0
 41
-0.406
 42
0.406
 43
0.406
  0
CIRCLE
  8
CHIDDEN
 10
8.9375
 20
0.84375
 30
0.0
 40
0.203125
  0
INSERT
  8
CCENTER
  2
100CROSS
 10
8.9375
 20
0.84375
 30
0.0
 41
-0.406
 42
0.406
 43
0.406
  0
CIRCLE
  8
CHIDDEN
 10
10.75
 20
2.96875
 30
0.0
 40
0.203125
  0
INSERT
  8
CCENTER
  2
100CROSS
 10
10.75
 20
2.96875
 30
0.0
 41
-0.406
 42
0.406
 43
0.406
  0
INSERT
  8
CCENTER
  2
100CROSS
 10
10.75
 20
0.84375
 30
0.0
 41
-0.406
 42
0.406
 43
0.406
  0
CIRCLE
  8
CHIDDEN
 10
10.75
 20
0.84375
 30
0.0
 40
0.203125
  0
INSERT
  8
CCENTER
  2
100CROSS
 10
10.219
 20
0.96875
 30
0.0
 41
-0.438
 42
0.438
 43
0.0
  0
INSERT
  8
CCENTER
  2
100CROSS
 10
9.7815
 20
1.50025
 30
0.0
 41
-0.438
 42
0.438
 43
0.0
  0
INSERT
  8
CCENTER
  2
100CROSS
 10
9.1875
 20
1.9065
 30
0.0
 41
-0.438
 42
0.438
 43
0.0
  0
INSERT
  8
CCENTER
  2
100CROSS
 10
9.7815
 20
2.31275
 30
0.0
 41
-0.438
 42
0.438
 43
0.0
  0
INSERT
  8
CCENTER
  2
100CROSS
 10
10.219
 20
2.84375
 30
0.0
 41
-0.438
 42
0.438
 43
0.0
  0
CIRCLE
  8
CSOLID
 10
9.1875
 20
1.9065
 30
0.0
 40
0.125
  0
CIRCLE
  8
CSOLID
 10
10.75
 20
2.96875
 30
0.0
 40
0.1405
  0
CIRCLE
  8
CSOLID
 10
10.75
 20
0.84375
 30
0.0
 40
0.1405
  0
CIRCLE
  8
CSOLID
 10
8.9375
 20
2.96875
 30
0.0
 40
0.1405
  0
CIRCLE
  8
CSOLID
 10
8.9375
 20
0.84375
 30
0.0
 40
0.1405
  0
CIRCLE
  8
CSOLID
 10
10.21875
 20
2.84375
 30
0.0
 40
0.3125
  0
CIRCLE
  8
CSOLID
 10
9.78125
 20
2.3125
 30
0.0
 40
0.3125
  0
CIRCLE
  8
CSOLID
 10
9.1875
 20
1.90625
 30
0.0
 40
0.3125
  0
CIRCLE
  8
CSOLID
 10
9.78125
 20
1.5
 30
0.0
 40
0.3125
  0
CIRCLE
  8
CSOLID
 10
10.21875
 20
0.96875
 30
0.0
 40
0.3125
  0
CIRCLE
  8
CSOLID
 10
10.21875
 20
2.84375
 30
0.0
 40
0.21875
  0
CIRCLE
  8
CSOLID
 10
10.21875
 20
0.96875
 30
0.0
 40
0.21875
  0
INSERT
  8
CCENTER
  2
100CROSS
 10
9.843
 20
1.56225
 30
0.0
 41
-0.25
 42
0.25
 50
180.0
 43
0.0
  0
CIRCLE
  8
CSOLID
 10
9.843
 20
1.56225
 30
0.0
 40
0.125
  0
CIRCLE
  8
CSOLID
 10
9.843
 20
2.24975
 30
0.0
 40
0.125
  0
INSERT
  8
CCENTER
  2
100CROSS
 10
9.843
 20
2.24975
 30
0.0
 41
-0.25
 42
0.25
 50
180.0
 43
0.0
  0
CIRCLE
  8
CSOLID
 10
2.75
 20
2.96875
 30
0.0
 40
0.1405
  0
INSERT
  8
CCENTER
  2
100CROSS
 10
2.75
 20
2.96875
 30
0.0
 41
0.406
 42
0.406
 43
0.406
  0
CIRCLE
  8
CSOLID
 10
2.75
 20
2.96875
 30
0.0
 40
0.203125
  0
CIRCLE
  8
CSOLID
 10
0.9375
 20
2.96875
 30
0.0
 40
0.1405
  0
INSERT
  8
CCENTER
  2
100CROSS
 10
0.9375
 20
2.96875
 30
0.0
 41
0.406
 42
0.406
 43
0.406
  0
CIRCLE
  8
CSOLID
 10
0.9375
 20
2.96875
 30
0.0
 40
0.203125
  0
CIRCLE
  8
CSOLID
 10
0.9375
 20
0.84375
 30
0.0
 40
0.1405
  0
CIRCLE
  8
CSOLID
 10
0.9375
 20
0.84375
 30
0.0
 40
0.203125
  0
INSERT
  8
CCENTER
  2
100CROSS
 10
0.9375
 20
0.84375
 30
0.0
 41
0.406
 42
0.406
 43
0.406
  0
CIRCLE
  8
CSOLID
 10
2.75
 20
0.84375
 30
0.0
 40
0.1405
  0
INSERT
  8
CCENTER
  2
100CROSS
 10
2.75
 20
0.84375
 30
0.0
 41
0.406
 42
0.406
 43
0.406
  0
CIRCLE
  8
CSOLID
 10
2.75
 20
0.84375
 30
0.0
 40
0.203125
  0
LINE
  8
CDIM
 10
3.196025
 20
3.28125
 30
0.0
 11
3.7983
 21
3.28125
 31
0.0
  0
LINE
  8
CDIM
 10
2.40625
 20
1.90625
 30
0.0
 11
3.7983
 21
1.90625
 31
0.0
  0
LINE
  8
CDIM
 10
3.59375
 20
3.0767
 30
0.0
 11
3.59375
 21
2.912848
 31
0.0
  0
LINE
  8
CDIM
 10
3.59375
 20
2.1108
 30
0.0
 11
3.59375
 21
2.274652
 31
0.0
  0
SOLID
  8
CDIM
 10
3.627842
 20
3.0767
 30
0.0
 11
3.559658
 21
3.0767
 31
0.0
 12
3.59375
 22
3.28125
 32
0.0
 13
3.59375
 23
3.28125
 33
0.0
  0
SOLID
  8
CDIM
 10
3.627842
 20
2.1108
 30
0.0
 11
3.559658
 21
2.1108
 31
0.0
 12
3.59375
 22
1.90625
 32
0.0
 13
3.59375
 23
1.90625
 33
0.0
  0
TEXT
  8
CDIM
 10
3.26647
 20
2.479202
 30
0.0
 40
0.229096
  1
1.37
  7
STR
  0
LINE
  8
CDIM
 10
4.84375
 20
3.383525
 30
0.0
 11
4.84375
 21
3.9858
 31
0.0
  0
LINE
  8
CDIM
 10
6.34375
 20
3.383525
 30
0.0
 11
6.34375
 21
3.9858
 31
0.0
  0
LINE
  8
CDIM
 10
6.5483
 20
3.78125
 30
0.0
 11
6.75285
 21
3.78125
 31
0.0
  0
LINE
  8
CDIM
 10
4.6392
 20
3.78125
 30
0.0
 11
4.43465
 21
3.78125
 31
0.0
  0
SOLID
  8
CDIM
 10
6.5483
 20
3.747158
 30
0.0
 11
6.5483
 21
3.815342
 31
0.0
 12
6.34375
 22
3.78125
 32
0.0
 13
6.34375
 23
3.78125
 33
0.0
  0
SOLID
  8
CDIM
 10
4.6392
 20
3.747158
 30
0.0
 11
4.6392
 21
3.815342
 31
0.0
 12
4.84375
 22
3.78125
 32
0.0
 13
4.84375
 23
3.78125
 33
0.0
  0
TEXT
  8
CDIM
 10
5.2699
 20
3.666702
 30
0.0
 40
0.229096
  1
1.50
  7
STR
  0
LINE
  8
CDIM
 10
11.09375
 20
3.383525
 30
0.0
 11
11.09375
 21
3.9858
 31
0.0
  0
LINE
  8
CDIM
 10
9.1875
 20
2.258525
 30
0.0
 11
9.1875
 21
3.9858
 31
0.0
  0
LINE
  8
CDIM
 10
10.8892
 20
3.78125
 30
0.0
 11
10.662285
 21
3.78125
 31
0.0
  0
LINE
  8
CDIM
 10
9.39205
 20
3.78125
 30
0.0
 11
9.618965
 21
3.78125
 31
0.0
  0
SOLID
  8
CDIM
 10
10.8892
 20
3.747158
 30
0.0
 11
10.8892
 21
3.815342
 31
0.0
 12
11.09375
 22
3.78125
 32
0.0
 13
11.09375
 23
3.78125
 33
0.0
  0
SOLID
  8
CDIM
 10
9.39205
 20
3.747158
 30
0.0
 11
9.39205
 21
3.815342
 31
0.0
 12
9.1875
 22
3.78125
 32
0.0
 13
9.1875
 23
3.78125
 33
0.0
  0
TEXT
  8
CDIM
 10
9.792265
 20
3.666702
 30
0.0
 40
0.229096
  1
1.91
  7
STR
  0
LINE
  8
CDIM
 10
11.09375
 20
3.383525
 30
0.0
 11
11.09375
 21
4.5682
 31
0.0
  0
LINE
  8
CDIM
 10
8.59375
 20
3.383525
 30
0.0
 11
8.59375
 21
4.5682
 31
0.0
  0
LINE
  8
CDIM
 10
10.8892
 20
4.36365
 30
0.0
 11
10.397399
 21
4.36365
 31
0.0
  0
LINE
  8
CDIM
 10
8.7983
 20
4.36365
 30
0.0
 11
9.290101
 21
4.36365
 31
0.0
  0
SOLID
  8
CDIM
 10
10.8892
 20
4.329558
 30
0.0
 11
10.8892
 21
4.397742
 31
0.0
 12
11.09375
 22
4.36365
 32
0.0
 13
11.09375
 23
4.36365
 33
0.0
  0
SOLID
  8
CDIM
 10
8.7983
 20
4.329558
 30
0.0
 11
8.7983
 21
4.397742
 31
0.0
 12
8.59375
 22
4.36365
 32
0.0
 13
8.59375
 23
4.36365
 33
0.0
  0
TEXT
  8
CDIM
 10
9.494651
 20
4.249102
 30
0.0
 40
0.229096
  1
2.50
  7
STR
  0
LINE
  8
CDIM
 10
8.491475
 20
3.28125
 30
0.0
 11
7.8892
 21
3.28125
 31
0.0
  0
LINE
  8
CDIM
 10
8.897725
 20
1.90625
 30
0.0
 11
7.8892
 21
1.90625
 31
0.0
  0
LINE
  8
CDIM
 10
8.09375
 20
3.0767
 30
0.0
 11
8.09375
 21
2.912848
 31
0.0
  0
LINE
  8
CDIM
 10
8.09375
 20
2.1108
 30
0.0
 11
8.09375
 21
2.274652
 31
0.0
  0
SOLID
  8
CDIM
 10
8.127842
 20
3.0767
 30
0.0
 11
8.059658
 21
3.0767
 31
0.0
 12
8.09375
 22
3.28125
 32
0.0
 13
8.09375
 23
3.28125
 33
0.0
  0
SOLID
  8
CDIM
 10
8.127842
 20
2.1108
 30
0.0
 11
8.059658
 21
2.1108
 31
0.0
 12
8.09375
 22
1.90625
 32
0.0
 13
8.09375
 23
1.90625
 33
0.0
  0
TEXT
  8
CDIM
 10
7.76647
 20
2.479202
 30
0.0
 40
0.229096
  1
1.37
  7
STR
  0
LINE
  8
CDIM
 10
8.491475
 20
3.28125
 30
0.0
 11
7.27555
 21
3.28125
 31
0.0
  0
LINE
  8
CDIM
 10
8.491475
 20
0.53125
 30
0.0
 11
7.27555
 21
0.53125
 31
0.0
  0
LINE
  8
CDIM
 10
7.4801
 20
3.0767
 30
0.0
 11
7.4801
 21
1.944098
 31
0.0
  0
LINE
  8
CDIM
 10
7.4801
 20
0.7358
 30
0.0
 11
7.4801
 21
1.305902
 31
0.0
  0
SOLID
  8
CDIM
 10
7.514192
 20
3.0767
 30
0.0
 11
7.446008
 21
3.0767
 31
0.0
 12
7.4801
 22
3.28125
 32
0.0
 13
7.4801
 23
3.28125
 33
0.0
  0
SOLID
  8
CDIM
 10
7.514192
 20
0.7358
 30
0.0
 11
7.446008
 21
0.7358
 31
0.0
 12
7.4801
 22
0.53125
 32
0.0
 13
7.4801
 23
0.53125
 33
0.0
  0
TEXT
  8
CDIM
 10
7.131001
 20
1.510452
 30
0.0
 40
0.229096
  1
2.75
  7
STR
  0
LINE
  8
CDIM
 10
0.59375
 20
3.383525
 30
0.0
 11
0.59375
 21
3.9858
 31
0.0
  0
LINE
  8
CDIM
 10
1.4375
 20
2.133525
 30
0.0
 11
1.4375
 21
3.9858
 31
0.0
  0
LINE
  8
CDIM
 10
1.64205
 20
3.78125
 30
0.0
 11
1.8466
 21
3.78125
 31
0.0
  0
LINE
  8
CDIM
 10
0.3892
 20
3.78125
 30
0.0
 11
0.18465
 21
3.78125
 31
0.0
  0
SOLID
  8
CDIM
 10
1.64205
 20
3.747158
 30
0.0
 11
1.64205
 21
3.815342
 31
0.0
 12
1.4375
 22
3.78125
 32
0.0
 13
1.4375
 23
3.78125
 33
0.0
  0
SOLID
  8
CDIM
 10
0.3892
 20
3.747158
 30
0.0
 11
0.3892
 21
3.815342
 31
0.0
 12
0.59375
 22
3.78125
 32
0.0
 13
0.59375
 23
3.78125
 33
0.0
  0
TEXT
  8
CDIM
 10
2.05115
 20
3.666702
 30
0.0
 40
0.229096
  1
0.84
  7
STR
  0
ENDBLK
  8
0
  0
ENDSEC
  0
SECTION
  2
ENTITIES
  0
POLYLINE
  8
DAMAN
 66
     1
 10
0.0
 20
0.0
 30
0.0
 70
     1
  0
VERTEX
  8
DAMAN
 10
6.03125
 20
3.4375
 30
0.0
  0
VERTEX
  8
DAMAN
 10
6.03125
 20
6.1875
 30
0.0
  0
VERTEX
  8
DAMAN
 10
7.53125
 20
6.1875
 30
0.0
  0
VERTEX
  8
DAMAN
 10
7.53125
 20
3.4375
 30
0.0
  0
SEQEND
  8
DAMAN
  0
POLYLINE
  8
DAMAN
 66
     1
 10
0.0
 20
0.0
 30
0.0
 70
     1
  0
VERTEX
  8
DAMAN
 10
1.78125
 20
3.4375
 30
0.0
  0
VERTEX
  8
DAMAN
 10
1.78125
 20
6.1875
 30
0.0
  0
VERTEX
  8
DAMAN
 10
4.28125
 20
6.1875
 30
0.0
  0
VERTEX
  8
DAMAN
 10
4.28125
 20
3.4375
 30
0.0
  0
SEQEND
  8
DAMAN
  0
CIRCLE
  8
DAMAN
 10
2.39025
 20
4.2545
 30
0.0
 40
0.0855
  0
INSERT
  8
DAMAN
  2
100CROSS
 10
2.39025
 20
4.2545
 30
0.0
 41
0.171
 42
0.171
 43
0.0
  0
INSERT
  8
DAMAN
  2
100CROSS
 10
3.03025
 20
4.367
 30
0.0
 41
0.25
 42
0.25
 43
0.0
  0
CIRCLE
  8
DAMAN
 10
3.03025
 20
4.367
 30
0.0
 40
0.125
  0
CIRCLE
  8
DAMAN
 10
2.62375
 20
4.7105
 30
0.0
 40
0.125
  0
INSERT
  8
DAMAN
  2
100CROSS
 10
2.62375
 20
4.7105
 30
0.0
 41
0.25
 42
0.25
 43
0.0
  0
INSERT
  8
DAMAN
  2
100CROSS
 10
3.43625
 20
4.7105
 30
0.0
 41
0.25
 42
0.25
 43
0.0
  0
CIRCLE
  8
DAMAN
 10
3.43625
 20
4.7105
 30
0.0
 40
0.125
  0
CIRCLE
  8
DAMAN
 10
3.03025
 20
5.0545
 30
0.0
 40
0.125
  0
INSERT
  8
DAMAN
  2
100CROSS
 10
3.03025
 20
5.0545
 30
0.0
 41
0.25
 42
0.25
 43
0.0
  0
CIRCLE
  8
DAMAN
 10
2.39025
 20
3.96075
 30
0.0
 40
0.078
  0
CIRCLE
  8
DAMAN
 10
3.67025
 20
3.96075
 30
0.0
 40
0.078
  0
CIRCLE
  8
DAMAN
 10
3.64025
 20
5.5545
 30
0.0
 40
0.078
  0
CIRCLE
  8
DAMAN
 10
2.42025
 20
5.5545
 30
0.0
 40
0.078
  0
INSERT
  8
DAMAN
  2
100CROSS
 10
2.39025
 20
3.9605
 30
0.0
 41
0.188
 42
0.188
 43
0.0
  0
INSERT
  8
DAMAN
  2
100CROSS
 10
3.67025
 20
3.9605
 30
0.0
 41
0.188
 42
0.188
 43
0.0
  0
INSERT
  8
DAMAN
  2
100CROSS
 10
3.64025
 20
5.5545
 30
0.0
 41
0.188
 42
0.188
 43
0.0
  0
INSERT
  8
DAMAN
  2
100CROSS
 10
2.42025
 20
5.5545
 30
0.0
 41
0.188
 42
0.188
 43
0.0
  0
CIRCLE
  8
DAMAN
 10
2.39025
 20
3.9605
 30
0.0
 40
0.095
  0
CIRCLE
  8
DAMAN
 10
3.67025
 20
3.9605
 30
0.0
 40
0.095
  0
CIRCLE
  8
DAMAN
 10
2.42025
 20
5.5545
 30
0.0
 40
0.095
  0
CIRCLE
  8
DAMAN
 10
3.64025
 20
5.5545
 30
0.0
 40
0.095
  0
CIRCLE
  8
DAMAN
 10
3.96875
 20
5.875
 30
0.0
 40
0.1405
  0
INSERT
  8
DAMAN
  2
100CROSS
 10
3.96875
 20
5.875
 30
0.0
 41
0.406
 42
0.406
 43
0.406
  0
CIRCLE
  8
DAMAN
 10
3.96875
 20
5.875
 30
0.0
 40
0.203125
  0
CIRCLE
  8
DAMAN
 10
2.15625
 20
5.875
 30
0.0
 40
0.1405
  0
INSERT
  8
DAMAN
  2
100CROSS
 10
2.15625
 20
5.875
 30
0.0
 41
0.406
 42
0.406
 43
0.406
  0
CIRCLE
  8
DAMAN
 10
2.15625
 20
5.875
 30
0.0
 40
0.203125
  0
CIRCLE
  8
DAMAN
 10
2.15625
 20
3.75
 30
0.0
 40
0.1405
  0
CIRCLE
  8
DAMAN
 10
2.15625
 20
3.75
 30
0.0
 40
0.203125
  0
INSERT
  8
DAMAN
  2
100CROSS
 10
2.15625
 20
3.75
 30
0.0
 41
0.406
 42
0.406
 43
0.406
  0
CIRCLE
  8
DAMAN
 10
3.96875
 20
3.75
 30
0.0
 40
0.1405
  0
INSERT
  8
DAMAN
  2
100CROSS
 10
3.96875
 20
3.75
 30
0.0
 41
0.406
 42
0.406
 43
0.406
  0
CIRCLE
  8
DAMAN
 10
3.96875
 20
3.75
 30
0.0
 40
0.203125
  0
POLYLINE
  8
DAMAN
 66
     1
 10
0.0
 20
0.0
 30
0.0
 70
     1
  0
VERTEX
  8
DAMAN
 10
0.03125
 20
3.4375
 30
0.0
  0
VERTEX
  8
DAMAN
 10
0.03125
 20
6.1875
 30
0.0
  0
VERTEX
  8
DAMAN
 10
-1.46875
 20
6.1875
 30
0.0
  0
VERTEX
  8
DAMAN
 10
-1.46875
 20
3.4375
 30
0.0
  0
SEQEND
  8
DAMAN
  0
LINE
  8
DAMAN
 10
1.771649
 20
1.287154
 30
0.0
 11
4.271649
 21
1.287154
 31
0.0
  0
LINE
  8
DAMAN
 10
4.271649
 20
1.287154
 30
0.0
 11
4.271649
 21
2.787154
 31
0.0
  0
LINE
  8
DAMAN
 10
4.271649
 20
2.787154
 30
0.0
 11
1.771649
 21
2.787154
 31
0.0
  0
LINE
  8
DAMAN
 10
1.771649
 20
2.787154
 30
0.0
 11
1.771649
 21
1.287154
 31
0.0
  0
LINE
  8
DAMAN
 10
1.771649
 20
8.337846
 30
0.0
 11
4.271649
 21
8.337846
 31
0.0
  0
LINE
  8
DAMAN
 10
4.271649
 20
6.837846
 30
0.0
 11
1.771649
 21
6.837846
 31
0.0
  0
LINE
  8
DAMAN
 10
1.771649
 20
6.837846
 30
0.0
 11
1.771649
 21
8.337846
 31
0.0
  0
LINE
  8
DAMAN
 10
4.271649
 20
8.337846
 30
0.0
 11
4.271649
 21
6.837846
 31
0.0
  0
TEXT
  8
DAMAN
 10
2.21875
 20
2.46875
 30
0.0
 40
0.188
  1
DAMAN ****
  0
ENDSEC
  0
EOF
