  0
SECTION
  2
HEADER
  9
$ACADVER
  1
AC1014
  9
$ACADMAINTVER
 70
     9
  9
$DWGCODEPAGE
  3
ANSI_1252
  9
$INSBASE
 10
0.0
 20
0.0
 30
0.0
  9
$EXTMIN
 10
2.771757961044457
 20
3.238738777118332
 30
0.0
  9
$EXTMAX
 10
38.77175796104445
 20
21.23873877711833
 30
0.0
  9
$LIMMIN
 10
0.0
 20
0.0
  9
$LIMMAX
 10
30.0
 20
30.0
  9
$ORTHOMODE
 70
     0
  9
$REGENMODE
 70
     1
  9
$FILLMODE
 70
     1
  9
$QTEXTMODE
 70
     0
  9
$MIRRTEXT
 70
     1
  9
$DRAGMODE
 70
     2
  9
$LTSCALE
 40
1.0
  9
$OSMODE
 70
   548
  9
$ATTMODE
 70
     1
  9
$TEXTSIZE
 40
0.2
  9
$TRACEWID
 40
0.05
  9
$TEXTSTYLE
  7
STANDARD
  9
$CLAYER
  8
DAMAN
  9
$CELTYPE
  6
BYLAYER
  9
$CECOLOR
 62
   256
  9
$CELTSCALE
 40
1.0
  9
$DELOBJ
 70
     1
  9
$DISPSILH
 70
     0
  9
$DIMSCALE
 40
1.0
  9
$DIMASZ
 40
0.18
  9
$DIMEXO
 40
0.0625
  9
$DIMDLI
 40
0.38
  9
$DIMRND
 40
0.0
  9
$DIMDLE
 40
0.0
  9
$DIMEXE
 40
0.18
  9
$DIMTP
 40
0.0
  9
$DIMTM
 40
0.0
  9
$DIMTXT
 40
0.18
  9
$DIMCEN
 40
0.09
  9
$DIMTSZ
 40
0.0
  9
$DIMTOL
 70
     0
  9
$DIMLIM
 70
     0
  9
$DIMTIH
 70
     1
  9
$DIMTOH
 70
     1
  9
$DIMSE1
 70
     0
  9
$DIMSE2
 70
     0
  9
$DIMTAD
 70
     0
  9
$DIMZIN
 70
     0
  9
$DIMBLK
  1

  9
$DIMASO
 70
     1
  9
$DIMSHO
 70
     1
  9
$DIMPOST
  1

  9
$DIMAPOST
  1

  9
$DIMALT
 70
     0
  9
$DIMALTD
 70
     2
  9
$DIMALTF
 40
25.4
  9
$DIMLFAC
 40
1.0
  9
$DIMTOFL
 70
     0
  9
$DIMTVP
 40
0.0
  9
$DIMTIX
 70
     0
  9
$DIMSOXD
 70
     0
  9
$DIMSAH
 70
     0
  9
$DIMBLK1
  1

  9
$DIMBLK2
  1

  9
$DIMSTYLE
  2
STANDARD
  9
$DIMCLRD
 70
     0
  9
$DIMCLRE
 70
     0
  9
$DIMCLRT
 70
     0
  9
$DIMTFAC
 40
1.0
  9
$DIMGAP
 40
0.09
  9
$DIMJUST
 70
     0
  9
$DIMSD1
 70
     0
  9
$DIMSD2
 70
     0
  9
$DIMTOLJ
 70
     1
  9
$DIMTZIN
 70
     0
  9
$DIMALTZ
 70
     0
  9
$DIMALTTZ
 70
     0
  9
$DIMFIT
 70
     3
  9
$DIMUPT
 70
     0
  9
$DIMUNIT
 70
     2
  9
$DIMDEC
 70
     4
  9
$DIMTDEC
 70
     4
  9
$DIMALTU
 70
     2
  9
$DIMALTTD
 70
     2
  9
$DIMTXSTY
  7
STANDARD
  9
$DIMAUNIT
 70
     0
  9
$LUNITS
 70
     2
  9
$LUPREC
 70
     4
  9
$SKETCHINC
 40
0.1
  9
$FILLETRAD
 40
0.0
  9
$AUNITS
 70
     0
  9
$AUPREC
 70
     0
  9
$MENU
  1
tom
  9
$ELEVATION
 40
0.0
  9
$PELEVATION
 40
0.0
  9
$THICKNESS
 40
0.0
  9
$LIMCHECK
 70
     0
  9
$BLIPMODE
 70
     0
  9
$CHAMFERA
 40
0.0
  9
$CHAMFERB
 40
0.0
  9
$CHAMFERC
 40
0.0
  9
$CHAMFERD
 40
0.0
  9
$SKPOLY
 70
     0
  9
$TDCREATE
 40
2450455.624683576
  9
$TDUPDATE
 40
2453410.412820058
  9
$TDINDWG
 40
0.0001153704
  9
$TDUSRTIMER
 40
0.0001153704
  9
$USRTIMER
 70
     1
  9
$ANGBASE
 50
0.0
  9
$ANGDIR
 70
     0
  9
$PDMODE
 70
     0
  9
$PDSIZE
 40
0.0
  9
$PLINEWID
 40
0.0
  9
$COORDS
 70
     1
  9
$SPLFRAME
 70
     0
  9
$SPLINETYPE
 70
     6
  9
$SPLINESEGS
 70
     8
  9
$ATTDIA
 70
     0
  9
$ATTREQ
 70
     1
  9
$HANDLING
 70
-16383
  9
$HANDSEED
  5
2D3
  9
$SURFTAB1
 70
     6
  9
$SURFTAB2
 70
     6
  9
$SURFTYPE
 70
     6
  9
$SURFU
 70
     6
  9
$SURFV
 70
     6
  9
$UCSNAME
  2

  9
$UCSORG
 10
0.0
 20
0.0
 30
0.0
  9
$UCSXDIR
 10
1.0
 20
0.0
 30
0.0
  9
$UCSYDIR
 10
0.0
 20
1.0
 30
0.0
  9
$PUCSNAME
  2

  9
$PUCSORG
 10
0.0
 20
0.0
 30
0.0
  9
$PUCSXDIR
 10
1.0
 20
0.0
 30
0.0
  9
$PUCSYDIR
 10
0.0
 20
1.0
 30
0.0
  9
$USERI1
 70
     0
  9
$USERI2
 70
     0
  9
$USERI3
 70
     0
  9
$USERI4
 70
     0
  9
$USERI5
 70
     0
  9
$USERR1
 40
0.0
  9
$USERR2
 40
0.0
  9
$USERR3
 40
0.0
  9
$USERR4
 40
0.0
  9
$USERR5
 40
0.0
  9
$WORLDVIEW
 70
     1
  9
$SHADEDGE
 70
     3
  9
$SHADEDIF
 70
    70
  9
$TILEMODE
 70
     1
  9
$MAXACTVP
 70
    16
  9
$PINSBASE
 10
0.0
 20
0.0
 30
0.0
  9
$PLIMCHECK
 70
     0
  9
$PEXTMIN
 10
1.000000000000000E+20
 20
1.000000000000000E+20
 30
1.000000000000000E+20
  9
$PEXTMAX
 10
-1.000000000000000E+20
 20
-1.000000000000000E+20
 30
-1.000000000000000E+20
  9
$PLIMMIN
 10
0.0
 20
0.0
  9
$PLIMMAX
 10
12.0
 20
9.0
  9
$UNITMODE
 70
     0
  9
$VISRETAIN
 70
     0
  9
$PLINEGEN
 70
     0
  9
$PSLTSCALE
 70
     1
  9
$TREEDEPTH
 70
  3020
  9
$PICKSTYLE
 70
     1
  9
$CMLSTYLE
  2
STANDARD
  9
$CMLJUST
 70
     0
  9
$CMLSCALE
 40
1.0
  9
$PROXYGRAPHICS
 70
     1
  9
$MEASUREMENT
 70
     0
  0
ENDSEC
  0
SECTION
  2
CLASSES
  0
CLASS
  1
ACDBDICTIONARYWDFLT
  2
AcDbDictionaryWithDefault
  3
AutoCAD 2000
 90
        0
280
     0
281
     0
  0
CLASS
  1
ACDBPLACEHOLDER
  2
AcDbPlaceHolder
  3
AutoCAD 2000
 90
        0
280
     0
281
     0
  0
CLASS
  1
LAYOUT
  2
AcDbLayout
  3
AutoCAD 2000
 90
        0
280
     0
281
     0
  0
CLASS
  1
LONG_TRANSACTION
  2
AcDbLongTransaction
  3
AutoCAD 2000
 90
        0
280
     0
281
     0
  0
CLASS
  1
LWPOLYLINE
  2
AcDbPolyline
  3
AutoCAD 2000
 90
        0
280
     0
281
     1
  0
CLASS
  1
HATCH
  2
AcDbHatch
  3
AutoCAD 2000
 90
        0
280
     0
281
     1
  0
CLASS
  1
XRECORD
  2
AcDbXrecord
  3
AutoCAD 2000
 90
        0
280
     0
281
     0
  0
ENDSEC
  0
SECTION
  2
TABLES
  0
TABLE
  2
VPORT
  5
8
330
0
100
AcDbSymbolTable
 70
     2
  0
VPORT
  5
2AE
330
8
100
AcDbSymbolTableRecord
100
AcDbViewportTableRecord
  2
*ACTIVE
 70
     0
 10
0.0
 20
0.0
 11
1.0
 21
1.0
 12
28.03102625298329
 22
16.18651463291342
 13
0.0
 23
0.0
 14
1.0
 24
1.0
 15
0.0
 25
0.0
 16
0.0
 26
0.0
 36
1.0
 17
0.0
 27
0.0
 37
0.0
 40
32.37302926582685
 41
1.731751824817518
 42
50.0
 43
0.0
 44
0.0
 50
0.0
 51
0.0
 71
     0
 72
   100
 73
     1
 74
     1
 75
     0
 76
     0
 77
     0
 78
     1
  0
ENDTAB
  0
TABLE
  2
LTYPE
  5
5
330
0
100
AcDbSymbolTable
 70
     1
  0
LTYPE
  5
12
330
5
100
AcDbSymbolTableRecord
100
AcDbLinetypeTableRecord
  2
BYBLOCK
 70
     0
  3

 72
    65
 73
     0
 40
0.0
  0
LTYPE
  5
13
330
5
100
AcDbSymbolTableRecord
100
AcDbLinetypeTableRecord
  2
BYLAYER
 70
     0
  3

 72
    65
 73
     0
 40
0.0
  0
LTYPE
  5
14
330
5
100
AcDbSymbolTableRecord
100
AcDbLinetypeTableRecord
  2
CONTINUOUS
 70
     0
  3
Solid line
 72
    65
 73
     0
 40
0.0
  0
ENDTAB
  0
TABLE
  2
LAYER
  5
2
330
0
100
AcDbSymbolTable
 70
     2
  0
LAYER
  5
F
330
2
100
AcDbSymbolTableRecord
100
AcDbLayerTableRecord
  2
0
 70
     0
 62
     7
  6
CONTINUOUS
  0
LAYER
  5
44
330
2
100
AcDbSymbolTableRecord
100
AcDbLayerTableRecord
  2
DAMAN
 70
     0
 62
     5
  6
CONTINUOUS
  0
ENDTAB
  0
TABLE
  2
STYLE
  5
3
330
0
100
AcDbSymbolTable
 70
     1
  0
STYLE
  5
10
330
3
100
AcDbSymbolTableRecord
100
AcDbTextStyleTableRecord
  2
STANDARD
 70
     0
 40
0.0
 41
1.0
 50
0.0
 71
     0
 42
0.2
  3
txt
  4

  0
ENDTAB
  0
TABLE
  2
VIEW
  5
6
330
0
100
AcDbSymbolTable
 70
     0
  0
ENDTAB
  0
TABLE
  2
UCS
  5
7
330
0
100
AcDbSymbolTable
 70
     0
  0
ENDTAB
  0
TABLE
  2
APPID
  5
9
330
0
100
AcDbSymbolTable
 70
     1
  0
APPID
  5
11
330
9
100
AcDbSymbolTableRecord
100
AcDbRegAppTableRecord
  2
ACAD
 70
     0
  0
ENDTAB
  0
TABLE
  2
DIMSTYLE
  5
A
330
0
100
AcDbSymbolTable
 70
     1
  0
DIMSTYLE
105
2A0
330
A
100
AcDbSymbolTableRecord
100
AcDbDimStyleTableRecord
  2
STANDARD
 70
     0
  3

  4

  5

  6

  7

 40
1.0
 41
0.18
 42
0.0625
 43
0.38
 44
0.18
 45
0.0
 46
0.0
 47
0.0
 48
0.0
140
0.18
141
0.09
142
0.0
143
25.4
144
1.0
145
0.0
146
1.0
147
0.09
 71
     0
 72
     0
 73
     1
 74
     1
 75
     0
 76
     0
 77
     0
 78
     0
170
     0
171
     2
172
     0
173
     0
174
     0
175
     0
176
     0
177
     0
178
     0
270
     2
271
     4
272
     4
273
     2
274
     2
340
10
275
     0
280
     0
281
     0
282
     0
283
     1
284
     0
285
     0
286
     0
287
     3
288
     0
  0
ENDTAB
  0
TABLE
  2
BLOCK_RECORD
  5
1
330
0
100
AcDbSymbolTable
 70
     4
  0
BLOCK_RECORD
  5
18
102
{ACAD_XDICTIONARY
360
2D1
102
}
330
1
100
AcDbSymbolTableRecord
100
AcDbBlockTableRecord
  2
*MODEL_SPACE
  0
BLOCK_RECORD
  5
15
102
{ACAD_XDICTIONARY
360
2CF
102
}
330
1
100
AcDbSymbolTableRecord
100
AcDbBlockTableRecord
  2
*PAPER_SPACE
  0
BLOCK_RECORD
  5
1E
330
1
100
AcDbSymbolTableRecord
100
AcDbBlockTableRecord
  2
100CROSS
  0
BLOCK_RECORD
  5
1F
330
1
100
AcDbSymbolTableRecord
100
AcDbBlockTableRecord
  2
050CROSS
  0
BLOCK_RECORD
  5
32
330
1
100
AcDbSymbolTableRecord
100
AcDbBlockTableRecord
  2
06SAET
  0
BLOCK_RECORD
  5
3B
330
1
100
AcDbSymbolTableRecord
100
AcDbBlockTableRecord
  2
48CD62
  0
ENDTAB
  0
ENDSEC
  0
SECTION
  2
BLOCKS
  0
BLOCK
  5
4E
330
18
100
AcDbEntity
  8
0
100
AcDbBlockBegin
  2
*MODEL_SPACE
 70
     0
 10
0.0
 20
0.0
 30
0.0
  3
*MODEL_SPACE
  1

  0
ENDBLK
  5
4F
330
18
100
AcDbEntity
  8
0
100
AcDbBlockEnd
  0
BLOCK
  5
4C
330
15
100
AcDbEntity
 67
     1
  8
0
100
AcDbBlockBegin
  2
*PAPER_SPACE
 70
     0
 10
0.0
 20
0.0
 30
0.0
  3
*PAPER_SPACE
  1

  0
ENDBLK
  5
4D
330
15
100
AcDbEntity
 67
     1
  8
0
100
AcDbBlockEnd
  0
BLOCK
  5
82
330
1E
100
AcDbEntity
  8
0
100
AcDbBlockBegin
  2
100CROSS
 70
     0
 10
5.62500000000004
 20
4.593750000000039
 30
0.0
  3
100CROSS
  1

  0
INSERT
  5
83
330
1E
100
AcDbEntity
  8
0
100
AcDbBlockReference
  2
050CROSS
 10
5.62500000000004
 20
4.593750000000039
 30
0.0
  0
ENDBLK
  5
84
330
1E
100
AcDbEntity
  8
0
100
AcDbBlockEnd
  0
BLOCK
  5
85
330
1F
100
AcDbEntity
  8
0
100
AcDbBlockBegin
  2
050CROSS
 70
     0
 10
5.000000000000039
 20
5.000000000000039
 30
0.0
  3
050CROSS
  1

  0
LINE
  5
86
330
1F
100
AcDbEntity
  8
0
100
AcDbLine
 10
5.000000000000039
 20
5.281250000000039
 30
0.0
 11
5.000000000000079
 21
5.78125000000004
 31
0.0
  0
LINE
  5
87
330
1F
100
AcDbEntity
  8
0
100
AcDbLine
 10
5.000000000000039
 20
4.875000000000039
 30
0.0
 11
5.000000000000079
 21
5.125000000000039
 31
0.0
  0
LINE
  5
88
330
1F
100
AcDbEntity
  8
0
100
AcDbLine
 10
5.000000000000039
 20
4.156250000000039
 30
0.0
 11
5.000000000000079
 21
4.718750000000039
 31
0.0
  0
LINE
  5
89
330
1F
100
AcDbEntity
  8
0
100
AcDbLine
 10
5.250000000000039
 20
5.000000000000039
 30
0.0
 11
5.81250000000004
 21
5.000000000000079
 31
0.0
  0
LINE
  5
8A
330
1F
100
AcDbEntity
  8
0
100
AcDbLine
 10
4.906250000000039
 20
5.000000000000039
 30
0.0
 11
5.093750000000039
 21
5.000000000000079
 31
0.0
  0
LINE
  5
8B
330
1F
100
AcDbEntity
  8
0
100
AcDbLine
 10
4.187500000000039
 20
5.000000000000039
 30
0.0
 11
4.750000000000039
 21
5.000000000000079
 31
0.0
  0
ENDBLK
  5
8C
330
1F
100
AcDbEntity
  8
0
100
AcDbBlockEnd
  0
BLOCK
  5
1B2
330
32
100
AcDbEntity
  8
0
100
AcDbBlockBegin
  2
06SAET
 70
     0
 10
0.0
 20
0.0
 30
0.0
  3
06SAET
  1

  0
INSERT
  5
1B3
330
32
100
AcDbEntity
  8
DAMAN
100
AcDbBlockReference
  2
100CROSS
 10
0.0
 20
0.0
 30
0.0
  0
CIRCLE
  5
1B4
330
32
100
AcDbEntity
  8
DAMAN
100
AcDbCircle
 10
0.0
 20
0.0
 30
0.0
 40
0.28125
  0
CIRCLE
  5
1B5
330
32
100
AcDbEntity
  8
DAMAN
100
AcDbCircle
 10
0.0
 20
0.0
 30
0.0
 40
0.5
  0
CIRCLE
  5
1B6
330
32
100
AcDbEntity
  8
DAMAN
100
AcDbCircle
 10
0.0
 20
0.0
 30
0.0
 40
0.25
  0
ENDBLK
  5
1B7
330
32
100
AcDbEntity
  8
0
100
AcDbBlockEnd
  0
BLOCK
  5
23D
330
3B
100
AcDbEntity
  8
0
100
AcDbBlockBegin
  2
48CD62
 70
     0
 10
0.0
 20
0.0
 30
0.0
  3
48CD62
  1

  0
INSERT
  5
23E
330
3B
100
AcDbEntity
  8
DAMAN
100
AcDbBlockReference
  2
100CROSS
 10
3.580699263691385
 20
4.748916424732993
 30
0.0
 41
2.17529296875
 42
2.17529296875
  0
INSERT
  5
23F
330
3B
100
AcDbEntity
  8
DAMAN
100
AcDbBlockReference
  2
100CROSS
 10
4.9866992636914
 20
1.748916424733009
 30
0.0
 41
1.312119388125
 42
1.312119388125
  0
CIRCLE
  5
240
330
3B
100
AcDbEntity
  8
DAMAN
100
AcDbCircle
 10
4.9866992636914
 20
1.748916424733009
 30
0.0
 40
0.6560596940625001
  0
CIRCLE
  5
241
330
3B
100
AcDbEntity
  8
DAMAN
100
AcDbCircle
 10
4.9866992636914
 20
1.748916424733009
 30
0.0
 40
0.5467164117187501
  0
CIRCLE
  5
242
330
3B
100
AcDbEntity
  8
DAMAN
100
AcDbCircle
 10
4.9866992636914
 20
1.748916424733009
 30
0.0
 40
0.5467164117187501
  0
CIRCLE
  5
243
330
3B
100
AcDbEntity
  8
DAMAN
100
AcDbCircle
 10
4.9866992636914
 20
7.74891642473301
 30
0.0
 40
0.6560596940625001
  0
CIRCLE
  5
244
330
3B
100
AcDbEntity
  8
DAMAN
100
AcDbCircle
 10
4.9866992636914
 20
7.74891642473301
 30
0.0
 40
0.5467164117187501
  0
INSERT
  5
245
330
3B
100
AcDbEntity
  8
DAMAN
100
AcDbBlockReference
  2
100CROSS
 10
4.9866992636914
 20
7.74891642473301
 30
0.0
 41
1.312119388125
 42
1.312119388125
  0
CIRCLE
  5
246
330
3B
100
AcDbEntity
  8
DAMAN
100
AcDbCircle
 10
2.174699263691401
 20
7.74891642473301
 30
0.0
 40
0.6560596940625001
  0
CIRCLE
  5
247
330
3B
100
AcDbEntity
  8
DAMAN
100
AcDbCircle
 10
2.174699263691401
 20
7.74891642473301
 30
0.0
 40
0.5467164117187501
  0
INSERT
  5
248
330
3B
100
AcDbEntity
  8
DAMAN
100
AcDbBlockReference
  2
100CROSS
 10
2.174699263691401
 20
7.74891642473301
 30
0.0
 41
1.312119388125
 42
1.312119388125
  0
CIRCLE
  5
249
330
3B
100
AcDbEntity
  8
DAMAN
100
AcDbCircle
 10
2.174699263691401
 20
1.748916424733009
 30
0.0
 40
0.6560596940625001
  0
CIRCLE
  5
24A
330
3B
100
AcDbEntity
  8
DAMAN
100
AcDbCircle
 10
2.174699263691401
 20
1.748916424733009
 30
0.0
 40
0.5467164117187501
  0
INSERT
  5
24B
330
3B
100
AcDbEntity
  8
DAMAN
100
AcDbBlockReference
  2
100CROSS
 10
2.174699263691401
 20
1.748916424733009
 30
0.0
 41
1.312119388125
 42
1.312119388125
  0
CIRCLE
  5
24C
330
3B
100
AcDbEntity
  8
DAMAN
100
AcDbCircle
 10
3.580699263691429
 20
4.748916424733036
 30
0.0
 40
1.5
  0
ENDBLK
  5
24D
330
3B
100
AcDbEntity
  8
0
100
AcDbBlockEnd
  0
ENDSEC
  0
SECTION
  2
ENTITIES
  0
INSERT
  5
24E
330
18
100
AcDbEntity
  8
DAMAN
100
AcDbBlockReference
  2
06SAET
 10
5.521757961044492
 20
16.49373877711832
 30
0.0
  0
INSERT
  5
24F
330
18
100
AcDbEntity
  8
DAMAN
100
AcDbBlockReference
  2
06SAET
 10
23.81175796104445
 20
16.48873877711833
 30
0.0
  0
CIRCLE
  5
250
330
18
100
AcDbEntity
  8
DAMAN
100
AcDbCircle
 10
15.77175796104445
 20
16.48873877711833
 30
0.0
 40
1.475
  0
CIRCLE
  5
251
330
18
100
AcDbEntity
  8
DAMAN
100
AcDbCircle
 10
15.77175796104445
 20
16.48873877711833
 30
0.0
 40
1.08
  0
CIRCLE
  5
252
330
18
100
AcDbEntity
  8
DAMAN
100
AcDbCircle
 10
15.77175796104445
 20
16.48873877711833
 30
0.0
 40
0.7850000000000001
  0
CIRCLE
  5
253
330
18
100
AcDbEntity
  8
DAMAN
100
AcDbCircle
 10
14.10175796104444
 20
18.15873877711831
 30
0.0
 40
0.3740625
  0
CIRCLE
  5
254
330
18
100
AcDbEntity
  8
DAMAN
100
AcDbCircle
 10
14.10175796104444
 20
18.15873877711831
 30
0.0
 40
0.31171875
  0
INSERT
  5
255
330
18
100
AcDbEntity
  8
DAMAN
100
AcDbBlockReference
  2
100CROSS
 10
14.10175796104444
 20
18.15873877711831
 30
0.0
 41
0.7481250000000001
 42
0.7481250000000001
  0
CIRCLE
  5
256
330
18
100
AcDbEntity
  8
DAMAN
100
AcDbCircle
 10
14.10175796104444
 20
14.81873877711832
 30
0.0
 40
0.3740625
  0
CIRCLE
  5
257
330
18
100
AcDbEntity
  8
DAMAN
100
AcDbCircle
 10
14.10175796104444
 20
14.81873877711832
 30
0.0
 40
0.31171875
  0
INSERT
  5
258
330
18
100
AcDbEntity
  8
DAMAN
100
AcDbBlockReference
  2
100CROSS
 10
14.10175796104444
 20
14.81873877711832
 30
0.0
 41
0.7481250000000001
 42
0.7481250000000001
  0
CIRCLE
  5
259
330
18
100
AcDbEntity
  8
DAMAN
100
AcDbCircle
 10
17.44175796104443
 20
14.81873877711831
 30
0.0
 40
0.3740625
  0
CIRCLE
  5
25A
330
18
100
AcDbEntity
  8
DAMAN
100
AcDbCircle
 10
17.44175796104443
 20
14.81873877711831
 30
0.0
 40
0.31171875
  0
INSERT
  5
25B
330
18
100
AcDbEntity
  8
DAMAN
100
AcDbBlockReference
  2
100CROSS
 10
17.44175796104443
 20
14.81873877711831
 30
0.0
 41
0.7481250000000001
 42
0.7481250000000001
  0
CIRCLE
  5
25C
330
18
100
AcDbEntity
  8
DAMAN
100
AcDbCircle
 10
17.44175796104443
 20
18.15873877711831
 30
0.0
 40
0.3740625
  0
CIRCLE
  5
25D
330
18
100
AcDbEntity
  8
DAMAN
100
AcDbCircle
 10
17.44175796104443
 20
18.15873877711831
 30
0.0
 40
0.31171875
  0
INSERT
  5
25E
330
18
100
AcDbEntity
  8
DAMAN
100
AcDbBlockReference
  2
100CROSS
 10
17.44175796104443
 20
18.15873877711831
 30
0.0
 41
0.7481250000000001
 42
0.7481250000000001
  0
CIRCLE
  5
25F
330
18
100
AcDbEntity
  8
DAMAN
100
AcDbCircle
 10
14.86875796104445
 20
18.15873877711833
 30
0.0
 40
0.12
  0
CIRCLE
  5
260
330
18
100
AcDbEntity
  8
DAMAN
100
AcDbCircle
 10
15.77175796104445
 20
18.45373877711833
 30
0.0
 40
0.1965
  0
CIRCLE
  5
261
330
18
100
AcDbEntity
  8
DAMAN
100
AcDbCircle
 10
13.80675796104445
 20
16.48873877711833
 30
0.0
 40
0.1965
  0
CIRCLE
  5
262
330
18
100
AcDbEntity
  8
DAMAN
100
AcDbCircle
 10
15.77175796104445
 20
14.52373877711833
 30
0.0
 40
0.1965
  0
CIRCLE
  5
263
330
18
100
AcDbEntity
  8
DAMAN
100
AcDbCircle
 10
17.73675796104445
 20
16.48873877711833
 30
0.0
 40
0.1965
  0
INSERT
  5
264
330
18
100
AcDbEntity
  8
DAMAN
100
AcDbBlockReference
  2
100CROSS
 10
13.80675796104445
 20
16.48873877711833
 30
0.0
 41
0.6234375000000001
 42
0.6234375000000001
  0
INSERT
  5
265
330
18
100
AcDbEntity
  8
DAMAN
100
AcDbBlockReference
  2
100CROSS
 10
15.77175796104445
 20
18.45373877711833
 30
0.0
 41
0.6234375000000001
 42
0.6234375000000001
  0
INSERT
  5
266
330
18
100
AcDbEntity
  8
DAMAN
100
AcDbBlockReference
  2
100CROSS
 10
17.73675796104445
 20
16.48873877711833
 30
0.0
 41
0.6234375000000001
 42
0.6234375000000001
  0
INSERT
  5
267
330
18
100
AcDbEntity
  8
DAMAN
100
AcDbBlockReference
  2
100CROSS
 10
15.77175796104445
 20
14.52373877711833
 30
0.0
 41
0.4675781250000001
 42
0.4675781250000001
  0
INSERT
  5
268
330
18
100
AcDbEntity
  8
DAMAN
100
AcDbBlockReference
  2
100CROSS
 10
15.77175796104445
 20
16.48873877711833
 30
0.0
 41
1.954811096191406
 42
1.954811096191406
  0
INSERT
  5
269
330
18
100
AcDbEntity
  8
DAMAN
100
AcDbBlockReference
  2
06SAET
 10
7.771757961044457
 20
18.45873877711832
 30
0.0
  0
INSERT
  5
26A
330
18
100
AcDbEntity
  8
DAMAN
100
AcDbBlockReference
  2
06SAET
 10
9.771757961044457
 20
13.73873877711832
 30
0.0
  0
TEXT
  5
26B
330
18
100
AcDbEntity
  8
DAMAN
100
AcDbText
 10
34.19445243374977
 20
12.46116168175217
 30
0.0
 40
0.2
  1
A
100
AcDbText
  0
TEXT
  5
26C
330
18
100
AcDbEntity
  8
DAMAN
100
AcDbText
 10
14.79773630012928
 20
3.768017904938439
 30
0.0
 40
0.2
  1
DAMAN ****
100
AcDbText
  0
TEXT
  5
26D
330
18
100
AcDbEntity
  8
DAMAN
100
AcDbText
 10
19.7361541021464
 20
10.02527031707596
 30
0.0
 40
0.2
  1
B
100
AcDbText
  0
TEXT
  5
26E
330
18
100
AcDbEntity
  8
DAMAN
100
AcDbText
 10
5.9550938828907
 20
15.95770276951281
 30
0.0
 40
0.2
  1
X
 50
270.0
100
AcDbText
  0
TEXT
  5
26F
330
18
100
AcDbEntity
  8
DAMAN
100
AcDbText
 10
9.33077978224432
 20
14.65540538478708
 30
0.0
 40
0.2
  1
Z2
 50
270.0
100
AcDbText
  0
TEXT
  5
270
330
18
100
AcDbEntity
  8
DAMAN
100
AcDbText
 10
8.415874339197728
 20
18.09234235925381
 30
0.0
 40
0.2
  1
Z1
 50
270.0
100
AcDbText
  0
TEXT
  5
271
330
18
100
AcDbEntity
  8
DAMAN
100
AcDbText
 10
23.40429122683516
 20
16.99324328732406
 30
0.0
 40
0.2
  1
Y
 50
90.0
100
AcDbText
  0
LINE
  5
272
330
18
100
AcDbEntity
  8
DAMAN
100
AcDbLine
 10
2.771757961044457
 20
11.73873877711833
 30
0.0
 11
2.771757961044457
 21
21.23873877711833
 31
0.0
  0
LINE
  5
273
330
18
100
AcDbEntity
  8
DAMAN
100
AcDbLine
 10
2.771757961044457
 20
21.23873877711833
 30
0.0
 11
10.27175796104445
 21
21.23873877711833
 31
0.0
  0
LINE
  5
274
330
18
100
AcDbEntity
  8
DAMAN
100
AcDbLine
 10
10.27175796104445
 20
11.73873877711833
 30
0.0
 11
10.27175796104445
 21
21.23873877711833
 31
0.0
  0
LINE
  5
275
330
18
100
AcDbEntity
  8
DAMAN
100
AcDbLine
 10
2.771757961044457
 20
11.73873877711832
 30
0.0
 11
10.27175796104445
 21
11.73873877711833
 31
0.0
  0
LINE
  5
276
330
18
100
AcDbEntity
  8
DAMAN
100
AcDbLine
 10
11.27175796104445
 20
11.73873877711833
 30
0.0
 11
11.27175796104445
 21
21.23873877711833
 31
0.0
  0
LINE
  5
277
330
18
100
AcDbEntity
  8
DAMAN
100
AcDbLine
 10
20.27175796104445
 20
11.73873877711833
 30
0.0
 11
20.27175796104445
 21
21.23873877711833
 31
0.0
  0
LINE
  5
278
330
18
100
AcDbEntity
  8
DAMAN
100
AcDbLine
 10
21.27175796104445
 20
11.73873877711833
 30
0.0
 11
21.27175796104445
 21
21.23873877711833
 31
0.0
  0
LINE
  5
279
330
18
100
AcDbEntity
  8
DAMAN
100
AcDbLine
 10
28.77175796104445
 20
11.73873877711833
 30
0.0
 11
28.77175796104445
 21
21.23873877711833
 31
0.0
  0
LINE
  5
27A
330
18
100
AcDbEntity
  8
DAMAN
100
AcDbLine
 10
29.77175796104445
 20
11.73873877711833
 30
0.0
 11
29.77175796104445
 21
21.23873877711833
 31
0.0
  0
LINE
  5
27B
330
18
100
AcDbEntity
  8
DAMAN
100
AcDbLine
 10
38.77175796104445
 20
11.73873877711833
 30
0.0
 11
38.77175796104445
 21
21.23873877711833
 31
0.0
  0
LINE
  5
27C
330
18
100
AcDbEntity
  8
DAMAN
100
AcDbLine
 10
11.27175796104445
 20
21.23873877711833
 30
0.0
 11
20.27175796104445
 21
21.23873877711833
 31
0.0
  0
LINE
  5
27D
330
18
100
AcDbEntity
  8
DAMAN
100
AcDbLine
 10
11.27175796104445
 20
11.73873877711833
 30
0.0
 11
20.27175796104445
 21
11.73873877711833
 31
0.0
  0
LINE
  5
27E
330
18
100
AcDbEntity
  8
DAMAN
100
AcDbLine
 10
21.27175796104445
 20
11.73873877711833
 30
0.0
 11
28.77175796104445
 21
11.73873877711833
 31
0.0
  0
LINE
  5
27F
330
18
100
AcDbEntity
  8
DAMAN
100
AcDbLine
 10
29.77175796104445
 20
11.73873877711833
 30
0.0
 11
38.77175796104445
 21
11.73873877711833
 31
0.0
  0
LINE
  5
280
330
18
100
AcDbEntity
  8
DAMAN
100
AcDbLine
 10
29.77175796104446
 20
21.23873877711833
 30
0.0
 11
38.77175796104445
 21
21.23873877711833
 31
0.0
  0
LINE
  5
281
330
18
100
AcDbEntity
  8
DAMAN
100
AcDbLine
 10
21.27175796104445
 20
21.23873877711833
 30
0.0
 11
28.77175796104446
 21
21.23873877711833
 31
0.0
  0
LINE
  5
282
330
18
100
AcDbEntity
  8
DAMAN
100
AcDbLine
 10
11.27175796104445
 20
10.73873877711833
 30
0.0
 11
20.27175796104445
 21
10.73873877711833
 31
0.0
  0
LINE
  5
283
330
18
100
AcDbEntity
  8
DAMAN
100
AcDbLine
 10
11.27175796104445
 20
3.238738777118332
 30
0.0
 11
20.27175796104445
 21
3.238738777118332
 31
0.0
  0
LINE
  5
284
330
18
100
AcDbEntity
  8
DAMAN
100
AcDbLine
 10
11.27175796104445
 20
10.73873877711833
 30
0.0
 11
11.27175796104445
 21
3.238738777118332
 31
0.0
  0
LINE
  5
285
330
18
100
AcDbEntity
  8
DAMAN
100
AcDbLine
 10
20.27175796104445
 20
3.238738777118332
 30
0.0
 11
20.27175796104445
 21
10.73873877711833
 31
0.0
  0
CIRCLE
  5
286
330
18
100
AcDbEntity
  8
DAMAN
100
AcDbCircle
 10
22.02175796104445
 20
12.48873877711833
 30
0.0
 40
0.31171875
  0
CIRCLE
  5
287
330
18
100
AcDbEntity
  8
DAMAN
100
AcDbCircle
 10
22.02175796104445
 20
12.48873877711833
 30
0.0
 40
0.3740625
  0
INSERT
  5
288
330
18
100
AcDbEntity
  8
DAMAN
100
AcDbBlockReference
  2
100CROSS
 10
22.02175796104445
 20
12.48873877711833
 30
0.0
 41
0.7481250000000001
 42
0.7481250000000001
  0
INSERT
  5
289
330
18
100
AcDbEntity
  8
DAMAN
100
AcDbBlockReference
  2
100CROSS
 10
28.02175796104446
 20
13.36373877711833
 30
0.0
 41
0.7481250000000001
 42
0.7481250000000001
  0
CIRCLE
  5
28A
330
18
100
AcDbEntity
  8
DAMAN
100
AcDbCircle
 10
28.02175796104446
 20
13.36373877711833
 30
0.0
 40
0.3740625
  0
CIRCLE
  5
28B
330
18
100
AcDbEntity
  8
DAMAN
100
AcDbCircle
 10
28.02175796104446
 20
13.36373877711833
 30
0.0
 40
0.31171875
  0
INSERT
  5
28C
330
18
100
AcDbEntity
  8
DAMAN
100
AcDbBlockReference
  2
100CROSS
 10
28.02175796104446
 20
19.61373877711833
 30
0.0
 41
0.7481250000000001
 42
0.7481250000000001
  0
CIRCLE
  5
28D
330
18
100
AcDbEntity
  8
DAMAN
100
AcDbCircle
 10
28.02175796104446
 20
19.61373877711833
 30
0.0
 40
0.3740625
  0
CIRCLE
  5
28E
330
18
100
AcDbEntity
  8
DAMAN
100
AcDbCircle
 10
28.02175796104446
 20
19.61373877711833
 30
0.0
 40
0.31171875
  0
INSERT
  5
28F
330
18
100
AcDbEntity
  8
DAMAN
100
AcDbBlockReference
  2
100CROSS
 10
22.02175796104445
 20
20.48873877711833
 30
0.0
 41
0.7481250000000001
 42
0.7481250000000001
  0
CIRCLE
  5
290
330
18
100
AcDbEntity
  8
DAMAN
100
AcDbCircle
 10
22.02175796104445
 20
20.48873877711833
 30
0.0
 40
0.3740625
  0
CIRCLE
  5
291
330
18
100
AcDbEntity
  8
DAMAN
100
AcDbCircle
 10
22.02175796104445
 20
20.48873877711833
 30
0.0
 40
0.31171875
  0
INSERT
  5
292
330
18
100
AcDbEntity
  8
DAMAN
100
AcDbBlockReference
  2
100CROSS
 10
30.52175796104446
 20
20.48873877711833
 30
0.0
 41
0.7481250000000001
 42
0.7481250000000001
  0
CIRCLE
  5
293
330
18
100
AcDbEntity
  8
DAMAN
100
AcDbCircle
 10
30.52175796104446
 20
20.48873877711833
 30
0.0
 40
0.3740625
  0
CIRCLE
  5
294
330
18
100
AcDbEntity
  8
DAMAN
100
AcDbCircle
 10
30.52175796104446
 20
20.48873877711833
 30
0.0
 40
0.31171875
  0
INSERT
  5
295
330
18
100
AcDbEntity
  8
DAMAN
100
AcDbBlockReference
  2
100CROSS
 10
38.02175796104446
 20
20.48873877711832
 30
0.0
 41
0.7481250000000001
 42
0.7481250000000001
  0
CIRCLE
  5
296
330
18
100
AcDbEntity
  8
DAMAN
100
AcDbCircle
 10
38.02175796104446
 20
20.48873877711832
 30
0.0
 40
0.3740625
  0
CIRCLE
  5
297
330
18
100
AcDbEntity
  8
DAMAN
100
AcDbCircle
 10
38.02175796104446
 20
20.48873877711832
 30
0.0
 40
0.31171875
  0
INSERT
  5
298
330
18
100
AcDbEntity
  8
DAMAN
100
AcDbBlockReference
  2
100CROSS
 10
38.02175796104446
 20
12.48873877711833
 30
0.0
 41
0.7481250000000001
 42
0.7481250000000001
  0
CIRCLE
  5
299
330
18
100
AcDbEntity
  8
DAMAN
100
AcDbCircle
 10
38.02175796104446
 20
12.48873877711833
 30
0.0
 40
0.3740625
  0
CIRCLE
  5
29A
330
18
100
AcDbEntity
  8
DAMAN
100
AcDbCircle
 10
38.02175796104446
 20
12.48873877711833
 30
0.0
 40
0.31171875
  0
INSERT
  5
29B
330
18
100
AcDbEntity
  8
DAMAN
100
AcDbBlockReference
  2
100CROSS
 10
30.52175796104446
 20
12.48873877711833
 30
0.0
 41
0.7481250000000001
 42
0.7481250000000001
  0
CIRCLE
  5
29C
330
18
100
AcDbEntity
  8
DAMAN
100
AcDbCircle
 10
30.52175796104446
 20
12.48873877711833
 30
0.0
 40
0.3740625
  0
CIRCLE
  5
29D
330
18
100
AcDbEntity
  8
DAMAN
100
AcDbCircle
 10
30.52175796104446
 20
12.48873877711833
 30
0.0
 40
0.31171875
  0
INSERT
  5
29E
330
18
100
AcDbEntity
  8
DAMAN
100
AcDbBlockReference
  2
48CD62
 10
39.02067438577749
 20
12.9080395134269
 30
0.0
 50
90.0
  0
INSERT
  5
29F
330
18
100
AcDbEntity
  8
DAMAN
100
AcDbBlockReference
  2
48CD62
 10
20.52067438577749
 20
3.408039513426902
 30
0.0
 50
90.0
  0
ENDSEC
  0
SECTION
  2
OBJECTS
  0
DICTIONARY
  5
C
330
0
100
AcDbDictionary
  3
ACAD_GROUP
350
D
  3
ACAD_LAYOUT
350
2A8
  3
ACAD_MLINESTYLE
350
E
  3
ACAD_PLOTSETTINGS
350
2A9
  3
ACAD_PLOTSTYLENAME
350
2A6
  3
ACDBHEADERROUNDTRIPXREC
350
2AF
  0
DICTIONARY
  5
2D1
330
18
100
AcDbDictionary
280
     1
  3
ACAD_LAYOUTSELFREF
360
2D2
  0
DICTIONARY
  5
2CF
330
15
100
AcDbDictionary
280
     1
  3
ACAD_LAYOUTSELFREF
360
2D0
  0
DICTIONARY
  5
D
102
{ACAD_REACTORS
330
C
102
}
330
C
100
AcDbDictionary
  0
DICTIONARY
  5
2A8
102
{ACAD_REACTORS
330
C
102
}
330
C
100
AcDbDictionary
  0
DICTIONARY
  5
E
102
{ACAD_REACTORS
330
C
102
}
330
C
100
AcDbDictionary
  3
STANDARD
350
1B
  0
DICTIONARY
  5
2A9
102
{ACAD_REACTORS
330
C
102
}
330
C
100
AcDbDictionary
  0
ACDBDICTIONARYWDFLT
  5
2A6
102
{ACAD_REACTORS
330
C
102
}
330
C
100
AcDbDictionary
281
     1
  3
Normal
350
2A7
100
AcDbDictionaryWithDefault
340
2A7
  0
DICTIONARY
  5
2AF
102
{ACAD_REACTORS
330
C
102
}
330
C
100
AcDbDictionary
  3
CEPSNTYPE
350
2B9
  3
FINGERPRINTGUID
350
2BA
  3
HYPERLINKBASE
350
2B2
  3
INSUNITS
350
2B8
  3
LAYOUTDICT
350
2B4
  3
LWETCUNION
350
2B7
  3
PLOTSETDICT
350
2B5
  3
PLOTSTYLNAMDICT
350
2B6
  3
PSVPSCALE
350
2BC
  3
PUCSBASE
350
2BF
  3
PUCSORGBACK
350
2C5
  3
PUCSORGBOTTOM
350
2C1
  3
PUCSORGFRONT
350
2C4
  3
PUCSORGLEFT
350
2C2
  3
PUCSORGRIGHT
350
2C3
  3
PUCSORGTOP
350
2C0
  3
PUCSORTHOREF
350
2BD
  3
PUCSORTHOVIEW
350
2BE
  3
STYLESHEET
350
2B3
  3
TSTACKALIGN
350
2B0
  3
TSTACKSIZE
350
2B1
  3
UCSBASE
350
2C8
  3
UCSORGBACK
350
2CE
  3
UCSORGBOTTOM
350
2CA
  3
UCSORGFRONT
350
2CD
  3
UCSORGLEFT
350
2CB
  3
UCSORGRIGHT
350
2CC
  3
UCSORGTOP
350
2C9
  3
UCSORTHOREF
350
2C6
  3
UCSORTHOVIEW
350
2C7
  3
VERSIONGUID
350
2BB
  0
XRECORD
  5
2D2
102
{ACAD_REACTORS
330
2D1
102
}
330
2D1
100
AcDbXrecord
340
18
  0
XRECORD
  5
2D0
102
{ACAD_REACTORS
330
2CF
102
}
330
2CF
100
AcDbXrecord
340
15
  0
MLINESTYLE
  5
1B
102
{ACAD_REACTORS
330
E
102
}
330
E
100
AcDbMlineStyle
  2
STANDARD
 70
     0
  3

 62
     0
 51
90.0
 52
90.0
 71
     2
 49
0.5
 62
   256
  6
BYLAYER
 49
-0.5
 62
   256
  6
BYLAYER
  0
ACDBPLACEHOLDER
  5
2A7
102
{ACAD_REACTORS
330
2A6
102
}
330
2A6
100
AcDbPlaceHolder
280
     0
  0
XRECORD
  5
2B9
102
{ACAD_REACTORS
330
2AF
102
}
330
2AF
100
AcDbXrecord
 90
        0
  0
XRECORD
  5
2BA
102
{ACAD_REACTORS
330
2AF
102
}
330
2AF
100
AcDbXrecord
  1
{B51DD373-08FF-4533-9C68-5CD05590BCC0}
  0
XRECORD
  5
2B2
102
{ACAD_REACTORS
330
2AF
102
}
330
2AF
100
AcDbXrecord
  1

  0
XRECORD
  5
2B8
102
{ACAD_REACTORS
330
2AF
102
}
330
2AF
100
AcDbXrecord
 90
        0
  0
XRECORD
  5
2B4
102
{ACAD_REACTORS
330
2AF
102
}
330
2AF
100
AcDbXrecord
340
2A8
  0
XRECORD
  5
2B7
102
{ACAD_REACTORS
330
2AF
102
}
330
2AF
100
AcDbXrecord
 90
    14877
  0
XRECORD
  5
2B5
102
{ACAD_REACTORS
330
2AF
102
}
330
2AF
100
AcDbXrecord
340
2A9
  0
XRECORD
  5
2B6
102
{ACAD_REACTORS
330
2AF
102
}
330
2AF
100
AcDbXrecord
340
2A6
  0
XRECORD
  5
2BC
102
{ACAD_REACTORS
330
2AF
102
}
330
2AF
100
AcDbXrecord
 40
0.0
  0
XRECORD
  5
2BF
102
{ACAD_REACTORS
330
2AF
102
}
330
2AF
100
AcDbXrecord
340
0
  0
XRECORD
  5
2C5
102
{ACAD_REACTORS
330
2AF
102
}
330
2AF
100
AcDbXrecord
 10
0.0
 20
0.0
 30
0.0
  0
XRECORD
  5
2C1
102
{ACAD_REACTORS
330
2AF
102
}
330
2AF
100
AcDbXrecord
 10
0.0
 20
0.0
 30
0.0
  0
XRECORD
  5
2C4
102
{ACAD_REACTORS
330
2AF
102
}
330
2AF
100
AcDbXrecord
 10
0.0
 20
0.0
 30
0.0
  0
XRECORD
  5
2C2
102
{ACAD_REACTORS
330
2AF
102
}
330
2AF
100
AcDbXrecord
 10
0.0
 20
0.0
 30
0.0
  0
XRECORD
  5
2C3
102
{ACAD_REACTORS
330
2AF
102
}
330
2AF
100
AcDbXrecord
 10
0.0
 20
0.0
 30
0.0
  0
XRECORD
  5
2C0
102
{ACAD_REACTORS
330
2AF
102
}
330
2AF
100
AcDbXrecord
 10
0.0
 20
0.0
 30
0.0
  0
XRECORD
  5
2BD
102
{ACAD_REACTORS
330
2AF
102
}
330
2AF
100
AcDbXrecord
340
0
  0
XRECORD
  5
2BE
102
{ACAD_REACTORS
330
2AF
102
}
330
2AF
100
AcDbXrecord
 70
     0
  0
XRECORD
  5
2B3
102
{ACAD_REACTORS
330
2AF
102
}
330
2AF
100
AcDbXrecord
  1

  0
XRECORD
  5
2B0
102
{ACAD_REACTORS
330
2AF
102
}
330
2AF
100
AcDbXrecord
 90
        1
  0
XRECORD
  5
2B1
102
{ACAD_REACTORS
330
2AF
102
}
330
2AF
100
AcDbXrecord
 90
       70
  0
XRECORD
  5
2C8
102
{ACAD_REACTORS
330
2AF
102
}
330
2AF
100
AcDbXrecord
340
0
  0
XRECORD
  5
2CE
102
{ACAD_REACTORS
330
2AF
102
}
330
2AF
100
AcDbXrecord
 10
0.0
 20
0.0
 30
0.0
  0
XRECORD
  5
2CA
102
{ACAD_REACTORS
330
2AF
102
}
330
2AF
100
AcDbXrecord
 10
0.0
 20
0.0
 30
0.0
  0
XRECORD
  5
2CD
102
{ACAD_REACTORS
330
2AF
102
}
330
2AF
100
AcDbXrecord
 10
0.0
 20
0.0
 30
0.0
  0
XRECORD
  5
2CB
102
{ACAD_REACTORS
330
2AF
102
}
330
2AF
100
AcDbXrecord
 10
0.0
 20
0.0
 30
0.0
  0
XRECORD
  5
2CC
102
{ACAD_REACTORS
330
2AF
102
}
330
2AF
100
AcDbXrecord
 10
0.0
 20
0.0
 30
0.0
  0
XRECORD
  5
2C9
102
{ACAD_REACTORS
330
2AF
102
}
330
2AF
100
AcDbXrecord
 10
0.0
 20
0.0
 30
0.0
  0
XRECORD
  5
2C6
102
{ACAD_REACTORS
330
2AF
102
}
330
2AF
100
AcDbXrecord
340
0
  0
XRECORD
  5
2C7
102
{ACAD_REACTORS
330
2AF
102
}
330
2AF
100
AcDbXrecord
 70
     0
  0
XRECORD
  5
2BB
102
{ACAD_REACTORS
330
2AF
102
}
330
2AF
100
AcDbXrecord
  1
{C090264D-C1D5-4C0C-9A67-2F4EAB257591}
  0
ENDSEC
  0
EOF
