  0
SECTION
  2
HEADER
  9
$ACADVER
  1
AC1014
  9
$ACADMAINTVER
 70
     9
  9
$DWGCODEPAGE
  3
ANSI_1252
  9
$INSBASE
 10
0.0
 20
0.0
 30
0.0
  9
$EXTMIN
 10
2.217406446610723
 20
1.283783800698628
 30
0.0
  9
$EXTMAX
 10
28.21740644661072
 20
13.78378380069863
 30
0.0
  9
$LIMMIN
 10
0.0
 20
0.0
  9
$LIMMAX
 10
21.0
 20
21.0
  9
$ORTHOMODE
 70
     0
  9
$REGENMODE
 70
     1
  9
$FILLMODE
 70
     1
  9
$QTEXTMODE
 70
     0
  9
$MIRRTEXT
 70
     1
  9
$DRAGMODE
 70
     2
  9
$LTSCALE
 40
1.0
  9
$OSMODE
 70
   548
  9
$ATTMODE
 70
     1
  9
$TEXTSIZE
 40
0.2
  9
$TRACEWID
 40
0.05
  9
$TEXTSTYLE
  7
STANDARD
  9
$CLAYER
  8
DAMAN
  9
$CELTYPE
  6
BYLAYER
  9
$CECOLOR
 62
   256
  9
$CELTSCALE
 40
1.0
  9
$DELOBJ
 70
     1
  9
$DISPSILH
 70
     0
  9
$DIMSCALE
 40
1.0
  9
$DIMASZ
 40
0.18
  9
$DIMEXO
 40
0.0625
  9
$DIMDLI
 40
0.38
  9
$DIMRND
 40
0.0
  9
$DIMDLE
 40
0.0
  9
$DIMEXE
 40
0.18
  9
$DIMTP
 40
0.0
  9
$DIMTM
 40
0.0
  9
$DIMTXT
 40
0.18
  9
$DIMCEN
 40
0.09
  9
$DIMTSZ
 40
0.0
  9
$DIMTOL
 70
     0
  9
$DIMLIM
 70
     0
  9
$DIMTIH
 70
     1
  9
$DIMTOH
 70
     1
  9
$DIMSE1
 70
     0
  9
$DIMSE2
 70
     0
  9
$DIMTAD
 70
     0
  9
$DIMZIN
 70
     0
  9
$DIMBLK
  1

  9
$DIMASO
 70
     1
  9
$DIMSHO
 70
     1
  9
$DIMPOST
  1

  9
$DIMAPOST
  1

  9
$DIMALT
 70
     0
  9
$DIMALTD
 70
     2
  9
$DIMALTF
 40
25.4
  9
$DIMLFAC
 40
1.0
  9
$DIMTOFL
 70
     0
  9
$DIMTVP
 40
0.0
  9
$DIMTIX
 70
     0
  9
$DIMSOXD
 70
     0
  9
$DIMSAH
 70
     0
  9
$DIMBLK1
  1

  9
$DIMBLK2
  1

  9
$DIMSTYLE
  2
STANDARD
  9
$DIMCLRD
 70
     0
  9
$DIMCLRE
 70
     0
  9
$DIMCLRT
 70
     0
  9
$DIMTFAC
 40
1.0
  9
$DIMGAP
 40
0.09
  9
$DIMJUST
 70
     0
  9
$DIMSD1
 70
     0
  9
$DIMSD2
 70
     0
  9
$DIMTOLJ
 70
     1
  9
$DIMTZIN
 70
     0
  9
$DIMALTZ
 70
     0
  9
$DIMALTTZ
 70
     0
  9
$DIMFIT
 70
     3
  9
$DIMUPT
 70
     0
  9
$DIMUNIT
 70
     2
  9
$DIMDEC
 70
     4
  9
$DIMTDEC
 70
     4
  9
$DIMALTU
 70
     2
  9
$DIMALTTD
 70
     2
  9
$DIMTXSTY
  7
STANDARD
  9
$DIMAUNIT
 70
     0
  9
$LUNITS
 70
     2
  9
$LUPREC
 70
     4
  9
$SKETCHINC
 40
0.1
  9
$FILLETRAD
 40
0.0
  9
$AUNITS
 70
     0
  9
$AUPREC
 70
     0
  9
$MENU
  1
tom
  9
$ELEVATION
 40
0.0
  9
$PELEVATION
 40
0.0
  9
$THICKNESS
 40
0.0
  9
$LIMCHECK
 70
     0
  9
$BLIPMODE
 70
     0
  9
$CHAMFERA
 40
0.0
  9
$CHAMFERB
 40
0.0
  9
$CHAMFERC
 40
0.0
  9
$CHAMFERD
 40
0.0
  9
$SKPOLY
 70
     0
  9
$TDCREATE
 40
2450452.703427291
  9
$TDUPDATE
 40
2453410.409035879
  9
$TDINDWG
 40
2.6622425347
  9
$TDUSRTIMER
 40
2.6622425347
  9
$USRTIMER
 70
     1
  9
$ANGBASE
 50
0.0
  9
$ANGDIR
 70
     0
  9
$PDMODE
 70
     0
  9
$PDSIZE
 40
0.0
  9
$PLINEWID
 40
0.0
  9
$COORDS
 70
     1
  9
$SPLFRAME
 70
     0
  9
$SPLINETYPE
 70
     6
  9
$SPLINESEGS
 70
     8
  9
$ATTDIA
 70
     0
  9
$ATTREQ
 70
     1
  9
$HANDLING
 70
-16383
  9
$HANDSEED
  5
24D
  9
$SURFTAB1
 70
     6
  9
$SURFTAB2
 70
     6
  9
$SURFTYPE
 70
     6
  9
$SURFU
 70
     6
  9
$SURFV
 70
     6
  9
$UCSNAME
  2

  9
$UCSORG
 10
0.0
 20
0.0
 30
0.0
  9
$UCSXDIR
 10
1.0
 20
0.0
 30
0.0
  9
$UCSYDIR
 10
0.0
 20
1.0
 30
0.0
  9
$PUCSNAME
  2

  9
$PUCSORG
 10
0.0
 20
0.0
 30
0.0
  9
$PUCSXDIR
 10
1.0
 20
0.0
 30
0.0
  9
$PUCSYDIR
 10
0.0
 20
1.0
 30
0.0
  9
$USERI1
 70
     0
  9
$USERI2
 70
     0
  9
$USERI3
 70
     0
  9
$USERI4
 70
     0
  9
$USERI5
 70
     0
  9
$USERR1
 40
0.0
  9
$USERR2
 40
0.0
  9
$USERR3
 40
0.0
  9
$USERR4
 40
0.0
  9
$USERR5
 40
0.0
  9
$WORLDVIEW
 70
     1
  9
$SHADEDGE
 70
     3
  9
$SHADEDIF
 70
    70
  9
$TILEMODE
 70
     1
  9
$MAXACTVP
 70
    16
  9
$PINSBASE
 10
0.0
 20
0.0
 30
0.0
  9
$PLIMCHECK
 70
     0
  9
$PEXTMIN
 10
1.000000000000000E+20
 20
1.000000000000000E+20
 30
1.000000000000000E+20
  9
$PEXTMAX
 10
-1.000000000000000E+20
 20
-1.000000000000000E+20
 30
-1.000000000000000E+20
  9
$PLIMMIN
 10
0.0
 20
0.0
  9
$PLIMMAX
 10
12.0
 20
9.0
  9
$UNITMODE
 70
     0
  9
$VISRETAIN
 70
     0
  9
$PLINEGEN
 70
     0
  9
$PSLTSCALE
 70
     1
  9
$TREEDEPTH
 70
  3020
  9
$PICKSTYLE
 70
     1
  9
$CMLSTYLE
  2
STANDARD
  9
$CMLJUST
 70
     0
  9
$CMLSCALE
 40
1.0
  9
$PROXYGRAPHICS
 70
     1
  9
$MEASUREMENT
 70
     0
  0
ENDSEC
  0
SECTION
  2
CLASSES
  0
CLASS
  1
ACDBDICTIONARYWDFLT
  2
AcDbDictionaryWithDefault
  3
AutoCAD 2000
 90
        0
280
     0
281
     0
  0
CLASS
  1
ACDBPLACEHOLDER
  2
AcDbPlaceHolder
  3
AutoCAD 2000
 90
        0
280
     0
281
     0
  0
CLASS
  1
LAYOUT
  2
AcDbLayout
  3
AutoCAD 2000
 90
        0
280
     0
281
     0
  0
CLASS
  1
LONG_TRANSACTION
  2
AcDbLongTransaction
  3
AutoCAD 2000
 90
        0
280
     0
281
     0
  0
CLASS
  1
LWPOLYLINE
  2
AcDbPolyline
  3
AutoCAD 2000
 90
        0
280
     0
281
     1
  0
CLASS
  1
HATCH
  2
AcDbHatch
  3
AutoCAD 2000
 90
        0
280
     0
281
     1
  0
CLASS
  1
XRECORD
  2
AcDbXrecord
  3
AutoCAD 2000
 90
        0
280
     0
281
     0
  0
ENDSEC
  0
SECTION
  2
TABLES
  0
TABLE
  2
VPORT
  5
8
330
0
100
AcDbSymbolTable
 70
     2
  0
VPORT
  5
228
330
8
100
AcDbSymbolTableRecord
100
AcDbViewportTableRecord
  2
*ACTIVE
 70
     0
 10
0.0
 20
0.0
 11
1.0
 21
1.0
 12
19.6217183770883
 22
11.3305602430394
 13
0.0
 23
0.0
 14
1.0
 24
1.0
 15
0.0
 25
0.0
 16
0.0
 26
0.0
 36
1.0
 17
0.0
 27
0.0
 37
0.0
 40
22.6611204860788
 41
1.731751824817518
 42
50.0
 43
0.0
 44
0.0
 50
0.0
 51
0.0
 71
     0
 72
   100
 73
     1
 74
     1
 75
     0
 76
     0
 77
     0
 78
     0
  0
ENDTAB
  0
TABLE
  2
LTYPE
  5
5
330
0
100
AcDbSymbolTable
 70
     1
  0
LTYPE
  5
12
330
5
100
AcDbSymbolTableRecord
100
AcDbLinetypeTableRecord
  2
BYBLOCK
 70
     0
  3

 72
    65
 73
     0
 40
0.0
  0
LTYPE
  5
13
330
5
100
AcDbSymbolTableRecord
100
AcDbLinetypeTableRecord
  2
BYLAYER
 70
     0
  3

 72
    65
 73
     0
 40
0.0
  0
LTYPE
  5
14
330
5
100
AcDbSymbolTableRecord
100
AcDbLinetypeTableRecord
  2
CONTINUOUS
 70
     0
  3
Solid line
 72
    65
 73
     0
 40
0.0
  0
ENDTAB
  0
TABLE
  2
LAYER
  5
2
330
0
100
AcDbSymbolTable
 70
     2
  0
LAYER
  5
F
330
2
100
AcDbSymbolTableRecord
100
AcDbLayerTableRecord
  2
0
 70
     0
 62
     7
  6
CONTINUOUS
  0
LAYER
  5
3D
330
2
100
AcDbSymbolTableRecord
100
AcDbLayerTableRecord
  2
DAMAN
 70
     0
 62
     5
  6
CONTINUOUS
  0
ENDTAB
  0
TABLE
  2
STYLE
  5
3
330
0
100
AcDbSymbolTable
 70
     1
  0
STYLE
  5
10
330
3
100
AcDbSymbolTableRecord
100
AcDbTextStyleTableRecord
  2
STANDARD
 70
     0
 40
0.0
 41
1.0
 50
0.0
 71
     0
 42
0.2
  3
txt
  4

  0
ENDTAB
  0
TABLE
  2
VIEW
  5
6
330
0
100
AcDbSymbolTable
 70
     0
  0
ENDTAB
  0
TABLE
  2
UCS
  5
7
330
0
100
AcDbSymbolTable
 70
     0
  0
ENDTAB
  0
TABLE
  2
APPID
  5
9
330
0
100
AcDbSymbolTable
 70
     1
  0
APPID
  5
11
330
9
100
AcDbSymbolTableRecord
100
AcDbRegAppTableRecord
  2
ACAD
 70
     0
  0
ENDTAB
  0
TABLE
  2
DIMSTYLE
  5
A
330
0
100
AcDbSymbolTable
 70
     1
  0
DIMSTYLE
105
219
330
A
100
AcDbSymbolTableRecord
100
AcDbDimStyleTableRecord
  2
STANDARD
 70
     0
  3

  4

  5

  6

  7

 40
1.0
 41
0.18
 42
0.0625
 43
0.38
 44
0.18
 45
0.0
 46
0.0
 47
0.0
 48
0.0
140
0.18
141
0.09
142
0.0
143
25.4
144
1.0
145
0.0
146
1.0
147
0.09
 71
     0
 72
     0
 73
     1
 74
     1
 75
     0
 76
     0
 77
     0
 78
     0
170
     0
171
     2
172
     0
173
     0
174
     0
175
     0
176
     0
177
     0
178
     0
270
     2
271
     4
272
     4
273
     2
274
     2
340
10
275
     0
280
     0
281
     0
282
     0
283
     1
284
     0
285
     0
286
     0
287
     3
288
     0
  0
ENDTAB
  0
TABLE
  2
BLOCK_RECORD
  5
1
330
0
100
AcDbSymbolTable
 70
     4
  0
BLOCK_RECORD
  5
18
102
{ACAD_XDICTIONARY
360
24B
102
}
330
1
100
AcDbSymbolTableRecord
100
AcDbBlockTableRecord
  2
*MODEL_SPACE
  0
BLOCK_RECORD
  5
15
102
{ACAD_XDICTIONARY
360
249
102
}
330
1
100
AcDbSymbolTableRecord
100
AcDbBlockTableRecord
  2
*PAPER_SPACE
  0
BLOCK_RECORD
  5
1E
330
1
100
AcDbSymbolTableRecord
100
AcDbBlockTableRecord
  2
100CROSS
  0
BLOCK_RECORD
  5
1F
330
1
100
AcDbSymbolTableRecord
100
AcDbBlockTableRecord
  2
050CROSS
  0
BLOCK_RECORD
  5
32
330
1
100
AcDbSymbolTableRecord
100
AcDbBlockTableRecord
  2
06SAET
  0
BLOCK_RECORD
  5
34
330
1
100
AcDbSymbolTableRecord
100
AcDbBlockTableRecord
  2
24CD61
  0
ENDTAB
  0
ENDSEC
  0
SECTION
  2
BLOCKS
  0
BLOCK
  5
47
330
18
100
AcDbEntity
  8
0
100
AcDbBlockBegin
  2
*MODEL_SPACE
 70
     0
 10
0.0
 20
0.0
 30
0.0
  3
*MODEL_SPACE
  1

  0
ENDBLK
  5
48
330
18
100
AcDbEntity
  8
0
100
AcDbBlockEnd
  0
BLOCK
  5
45
330
15
100
AcDbEntity
 67
     1
  8
0
100
AcDbBlockBegin
  2
*PAPER_SPACE
 70
     0
 10
0.0
 20
0.0
 30
0.0
  3
*PAPER_SPACE
  1

  0
ENDBLK
  5
46
330
15
100
AcDbEntity
 67
     1
  8
0
100
AcDbBlockEnd
  0
BLOCK
  5
7B
330
1E
100
AcDbEntity
  8
0
100
AcDbBlockBegin
  2
100CROSS
 70
     0
 10
5.62500000000004
 20
4.593750000000039
 30
0.0
  3
100CROSS
  1

  0
INSERT
  5
7C
330
1E
100
AcDbEntity
  8
0
100
AcDbBlockReference
  2
050CROSS
 10
5.62500000000004
 20
4.593750000000039
 30
0.0
  0
ENDBLK
  5
7D
330
1E
100
AcDbEntity
  8
0
100
AcDbBlockEnd
  0
BLOCK
  5
7E
330
1F
100
AcDbEntity
  8
0
100
AcDbBlockBegin
  2
050CROSS
 70
     0
 10
5.000000000000039
 20
5.000000000000039
 30
0.0
  3
050CROSS
  1

  0
LINE
  5
7F
330
1F
100
AcDbEntity
  8
0
100
AcDbLine
 10
5.000000000000039
 20
5.281250000000039
 30
0.0
 11
5.000000000000079
 21
5.78125000000004
 31
0.0
  0
LINE
  5
80
330
1F
100
AcDbEntity
  8
0
100
AcDbLine
 10
5.000000000000039
 20
4.875000000000039
 30
0.0
 11
5.000000000000079
 21
5.125000000000039
 31
0.0
  0
LINE
  5
81
330
1F
100
AcDbEntity
  8
0
100
AcDbLine
 10
5.000000000000039
 20
4.156250000000039
 30
0.0
 11
5.000000000000079
 21
4.718750000000039
 31
0.0
  0
LINE
  5
82
330
1F
100
AcDbEntity
  8
0
100
AcDbLine
 10
5.250000000000039
 20
5.000000000000039
 30
0.0
 11
5.81250000000004
 21
5.000000000000079
 31
0.0
  0
LINE
  5
83
330
1F
100
AcDbEntity
  8
0
100
AcDbLine
 10
4.906250000000039
 20
5.000000000000039
 30
0.0
 11
5.093750000000039
 21
5.000000000000079
 31
0.0
  0
LINE
  5
84
330
1F
100
AcDbEntity
  8
0
100
AcDbLine
 10
4.187500000000039
 20
5.000000000000039
 30
0.0
 11
4.750000000000039
 21
5.000000000000079
 31
0.0
  0
ENDBLK
  5
85
330
1F
100
AcDbEntity
  8
0
100
AcDbBlockEnd
  0
BLOCK
  5
1AB
330
32
100
AcDbEntity
  8
0
100
AcDbBlockBegin
  2
06SAET
 70
     0
 10
0.0
 20
0.0
 30
0.0
  3
06SAET
  1

  0
INSERT
  5
1AC
330
32
100
AcDbEntity
  8
DAMAN
100
AcDbBlockReference
  2
100CROSS
 10
0.0
 20
0.0
 30
0.0
  0
CIRCLE
  5
1AD
330
32
100
AcDbEntity
  8
DAMAN
100
AcDbCircle
 10
0.0
 20
0.0
 30
0.0
 40
0.28125
  0
CIRCLE
  5
1AE
330
32
100
AcDbEntity
  8
DAMAN
100
AcDbCircle
 10
0.0
 20
0.0
 30
0.0
 40
0.5
  0
CIRCLE
  5
1AF
330
32
100
AcDbEntity
  8
DAMAN
100
AcDbCircle
 10
0.0
 20
0.0
 30
0.0
 40
0.25
  0
ENDBLK
  5
1B0
330
32
100
AcDbEntity
  8
0
100
AcDbBlockEnd
  0
BLOCK
  5
1B7
330
34
100
AcDbEntity
  8
0
100
AcDbBlockBegin
  2
24CD61
 70
     0
 10
0.0
 20
0.0
 30
0.0
  3
24CD61
  1

  0
CIRCLE
  5
1B8
330
34
100
AcDbEntity
  8
DAMAN
100
AcDbCircle
 10
1.908694555265583
 20
2.748498487750532
 30
0.0
 40
0.75
  0
INSERT
  5
1B9
330
34
100
AcDbEntity
  8
DAMAN
100
AcDbBlockReference
  2
100CROSS
 10
1.205694555265573
 20
4.123498487750523
 30
0.0
 41
0.4995696599999999
 42
0.4995696599999999
  0
CIRCLE
  5
1BA
330
34
100
AcDbEntity
  8
DAMAN
100
AcDbCircle
 10
1.205694555265573
 20
4.123498487750523
 30
0.0
 40
0.2497848299999999
  0
CIRCLE
  5
1BB
330
34
100
AcDbEntity
  8
DAMAN
100
AcDbCircle
 10
1.205694555265573
 20
4.123498487750523
 30
0.0
 40
0.208154025
  0
CIRCLE
  5
1BC
330
34
100
AcDbEntity
  8
DAMAN
100
AcDbCircle
 10
2.611694555265573
 20
4.123498487750523
 30
0.0
 40
0.2497848299999999
  0
CIRCLE
  5
1BD
330
34
100
AcDbEntity
  8
DAMAN
100
AcDbCircle
 10
2.611694555265573
 20
4.123498487750523
 30
0.0
 40
0.208154025
  0
INSERT
  5
1BE
330
34
100
AcDbEntity
  8
DAMAN
100
AcDbBlockReference
  2
100CROSS
 10
2.611694555265573
 20
4.123498487750523
 30
0.0
 41
0.4995696599999999
 42
0.4995696599999999
  0
CIRCLE
  5
1BF
330
34
100
AcDbEntity
  8
DAMAN
100
AcDbCircle
 10
2.611694555265573
 20
1.373498487750522
 30
0.0
 40
0.2497848299999999
  0
CIRCLE
  5
1C0
330
34
100
AcDbEntity
  8
DAMAN
100
AcDbCircle
 10
2.611694555265573
 20
1.373498487750522
 30
0.0
 40
0.208154025
  0
INSERT
  5
1C1
330
34
100
AcDbEntity
  8
DAMAN
100
AcDbBlockReference
  2
100CROSS
 10
2.611694555265573
 20
1.373498487750522
 30
0.0
 41
0.4995696599999999
 42
0.4995696599999999
  0
CIRCLE
  5
1C2
330
34
100
AcDbEntity
  8
DAMAN
100
AcDbCircle
 10
1.205694555265572
 20
1.373498487750522
 30
0.0
 40
0.2497848299999999
  0
CIRCLE
  5
1C3
330
34
100
AcDbEntity
  8
DAMAN
100
AcDbCircle
 10
1.205694555265572
 20
1.373498487750522
 30
0.0
 40
0.208154025
  0
INSERT
  5
1C4
330
34
100
AcDbEntity
  8
DAMAN
100
AcDbBlockReference
  2
100CROSS
 10
1.205694555265572
 20
1.373498487750522
 30
0.0
 41
0.4995696599999999
 42
0.4995696599999999
  0
INSERT
  5
1C5
330
34
100
AcDbEntity
  8
DAMAN
100
AcDbBlockReference
  2
100CROSS
 10
1.908694555265554
 20
2.748498487750504
 30
0.0
 41
1.40625
 42
1.40625
  0
ENDBLK
  5
1C6
330
34
100
AcDbEntity
  8
0
100
AcDbBlockEnd
  0
ENDSEC
  0
SECTION
  2
ENTITIES
  0
LINE
  5
1C7
330
18
100
AcDbEntity
  8
DAMAN
100
AcDbLine
 10
2.217406446610723
 20
7.783783800698628
 30
0.0
 11
2.217406446610723
 21
13.78378380069863
 31
0.0
  0
LINE
  5
1C8
330
18
100
AcDbEntity
  8
DAMAN
100
AcDbLine
 10
2.217406446610723
 20
13.78378380069863
 30
0.0
 11
7.717406446610723
 21
13.78378380069863
 31
0.0
  0
LINE
  5
1C9
330
18
100
AcDbEntity
  8
DAMAN
100
AcDbLine
 10
7.717406446610723
 20
7.783783800698628
 30
0.0
 11
7.717406446610723
 21
13.78378380069863
 31
0.0
  0
LINE
  5
1CA
330
18
100
AcDbEntity
  8
DAMAN
100
AcDbLine
 10
2.217406446610723
 20
7.783783800698628
 30
0.0
 11
7.717406446610723
 21
7.783783800698628
 31
0.0
  0
LINE
  5
1CB
330
18
100
AcDbEntity
  8
DAMAN
100
AcDbLine
 10
8.717406446610723
 20
7.783783800698628
 30
0.0
 11
8.717406446610723
 21
13.78378380069863
 31
0.0
  0
LINE
  5
1CC
330
18
100
AcDbEntity
  8
DAMAN
100
AcDbLine
 10
14.71740644661072
 20
7.783783800698628
 30
0.0
 11
14.71740644661072
 21
13.78378380069863
 31
0.0
  0
LINE
  5
1CD
330
18
100
AcDbEntity
  8
DAMAN
100
AcDbLine
 10
15.71740644661072
 20
7.783783800698628
 30
0.0
 11
15.71740644661072
 21
13.78378380069863
 31
0.0
  0
LINE
  5
1CE
330
18
100
AcDbEntity
  8
DAMAN
100
AcDbLine
 10
21.21740644661072
 20
7.783783800698628
 30
0.0
 11
21.21740644661072
 21
13.78378380069863
 31
0.0
  0
LINE
  5
1CF
330
18
100
AcDbEntity
  8
DAMAN
100
AcDbLine
 10
22.21740644661072
 20
7.783783800698628
 30
0.0
 11
22.21740644661072
 21
13.78378380069863
 31
0.0
  0
LINE
  5
1D0
330
18
100
AcDbEntity
  8
DAMAN
100
AcDbLine
 10
28.21740644661072
 20
7.783783800698628
 30
0.0
 11
28.21740644661072
 21
13.78378380069863
 31
0.0
  0
LINE
  5
1D1
330
18
100
AcDbEntity
  8
DAMAN
100
AcDbLine
 10
8.717406446610723
 20
13.78378380069863
 30
0.0
 11
14.71740644661072
 21
13.78378380069863
 31
0.0
  0
LINE
  5
1D2
330
18
100
AcDbEntity
  8
DAMAN
100
AcDbLine
 10
8.717406446610723
 20
7.783783800698628
 30
0.0
 11
14.71740644661072
 21
7.783783800698628
 31
0.0
  0
LINE
  5
1D3
330
18
100
AcDbEntity
  8
DAMAN
100
AcDbLine
 10
15.71740644661072
 20
7.783783800698628
 30
0.0
 11
21.21740644661072
 21
7.783783800698628
 31
0.0
  0
LINE
  5
1D4
330
18
100
AcDbEntity
  8
DAMAN
100
AcDbLine
 10
22.21740644661072
 20
7.783783800698628
 30
0.0
 11
28.21740644661072
 21
7.783783800698628
 31
0.0
  0
LINE
  5
1D5
330
18
100
AcDbEntity
  8
DAMAN
100
AcDbLine
 10
22.21740644661072
 20
13.78378380069863
 30
0.0
 11
28.21740644661072
 21
13.78378380069863
 31
0.0
  0
LINE
  5
1D6
330
18
100
AcDbEntity
  8
DAMAN
100
AcDbLine
 10
15.71740644661072
 20
13.78378380069863
 30
0.0
 11
21.21740644661072
 21
13.78378380069863
 31
0.0
  0
LINE
  5
1D7
330
18
100
AcDbEntity
  8
DAMAN
100
AcDbLine
 10
8.717406446610723
 20
6.783783800698628
 30
0.0
 11
14.71740644661072
 21
6.783783800698628
 31
0.0
  0
LINE
  5
1D8
330
18
100
AcDbEntity
  8
DAMAN
100
AcDbLine
 10
8.717406446610723
 20
1.283783800698628
 30
0.0
 11
14.71740644661072
 21
1.283783800698628
 31
0.0
  0
LINE
  5
1D9
330
18
100
AcDbEntity
  8
DAMAN
100
AcDbLine
 10
14.71740644661072
 20
6.783783800698628
 30
0.0
 11
14.71740644661072
 21
1.283783800698628
 31
0.0
  0
LINE
  5
1DA
330
18
100
AcDbEntity
  8
DAMAN
100
AcDbLine
 10
8.717406446610723
 20
6.783783800698628
 30
0.0
 11
8.717406446610723
 21
1.283783800698628
 31
0.0
  0
INSERT
  5
1DB
330
18
100
AcDbEntity
  8
DAMAN
100
AcDbBlockReference
  2
06SAET
 10
3.717406446610723
 20
11.28378380069863
 30
0.0
  0
CIRCLE
  5
1DC
330
18
100
AcDbEntity
  8
DAMAN
100
AcDbCircle
 10
11.71740644661072
 20
11.28378380069863
 30
0.0
 40
1.179999999999999
  0
CIRCLE
  5
1DD
330
18
100
AcDbEntity
  8
DAMAN
100
AcDbCircle
 10
11.71740644661072
 20
11.28378380069863
 30
0.0
 40
0.8849999999999999
  0
CIRCLE
  5
1DE
330
18
100
AcDbEntity
  8
DAMAN
100
AcDbCircle
 10
11.71740644661072
 20
11.28378380069863
 30
0.0
 40
0.63
  0
CIRCLE
  5
1DF
330
18
100
AcDbEntity
  8
DAMAN
100
AcDbCircle
 10
10.33740644661071
 20
12.66378380069861
 30
0.0
 40
0.259765625
  0
CIRCLE
  5
1E0
330
18
100
AcDbEntity
  8
DAMAN
100
AcDbCircle
 10
10.33740644661071
 20
12.66378380069861
 30
0.0
 40
0.31171875
  0
INSERT
  5
1E1
330
18
100
AcDbEntity
  8
DAMAN
100
AcDbBlockReference
  2
100CROSS
 10
10.33740644661071
 20
12.66378380069861
 30
0.0
 41
0.6234375000000001
 42
0.6234375000000001
  0
INSERT
  5
1E2
330
18
100
AcDbEntity
  8
DAMAN
100
AcDbBlockReference
  2
100CROSS
 10
10.33740644661071
 20
9.903783800698615
 30
0.0
 41
0.6234375000000001
 42
0.6234375000000001
  0
CIRCLE
  5
1E3
330
18
100
AcDbEntity
  8
DAMAN
100
AcDbCircle
 10
10.33740644661071
 20
9.903783800698615
 30
0.0
 40
0.259765625
  0
CIRCLE
  5
1E4
330
18
100
AcDbEntity
  8
DAMAN
100
AcDbCircle
 10
10.33740644661071
 20
9.903783800698615
 30
0.0
 40
0.31171875
  0
INSERT
  5
1E5
330
18
100
AcDbEntity
  8
DAMAN
100
AcDbBlockReference
  2
100CROSS
 10
13.09740644661071
 20
9.903783800698615
 30
0.0
 41
0.6234375000000001
 42
0.6234375000000001
  0
CIRCLE
  5
1E6
330
18
100
AcDbEntity
  8
DAMAN
100
AcDbCircle
 10
13.09740644661071
 20
9.903783800698615
 30
0.0
 40
0.259765625
  0
CIRCLE
  5
1E7
330
18
100
AcDbEntity
  8
DAMAN
100
AcDbCircle
 10
13.09740644661071
 20
9.903783800698615
 30
0.0
 40
0.31171875
  0
INSERT
  5
1E8
330
18
100
AcDbEntity
  8
DAMAN
100
AcDbBlockReference
  2
100CROSS
 10
13.09740644661071
 20
12.66378380069861
 30
0.0
 41
0.6234375000000001
 42
0.6234375000000001
  0
CIRCLE
  5
1E9
330
18
100
AcDbEntity
  8
DAMAN
100
AcDbCircle
 10
13.09740644661071
 20
12.66378380069861
 30
0.0
 40
0.259765625
  0
CIRCLE
  5
1EA
330
18
100
AcDbEntity
  8
DAMAN
100
AcDbCircle
 10
13.09740644661071
 20
12.66378380069861
 30
0.0
 40
0.31171875
  0
CIRCLE
  5
1EB
330
18
100
AcDbEntity
  8
DAMAN
100
AcDbCircle
 10
11.71740644661072
 20
12.90378380069863
 30
0.0
 40
0.157
  0
CIRCLE
  5
1EC
330
18
100
AcDbEntity
  8
DAMAN
100
AcDbCircle
 10
10.09740644661072
 20
11.28378380069863
 30
0.0
 40
0.157
  0
CIRCLE
  5
1ED
330
18
100
AcDbEntity
  8
DAMAN
100
AcDbCircle
 10
11.71740644661072
 20
9.663783800698627
 30
0.0
 40
0.157
  0
CIRCLE
  5
1EE
330
18
100
AcDbEntity
  8
DAMAN
100
AcDbCircle
 10
13.33740644661072
 20
11.28378380069863
 30
0.0
 40
0.157
  0
CIRCLE
  5
1EF
330
18
100
AcDbEntity
  8
DAMAN
100
AcDbCircle
 10
11.03740644661072
 20
12.66378380069862
 30
0.0
 40
0.12
  0
INSERT
  5
1F0
330
18
100
AcDbEntity
  8
DAMAN
100
AcDbBlockReference
  2
100CROSS
 10
10.09740644661072
 20
11.28378380069863
 30
0.0
 41
0.4987500000000001
 42
0.4987500000000001
  0
INSERT
  5
1F1
330
18
100
AcDbEntity
  8
DAMAN
100
AcDbBlockReference
  2
100CROSS
 10
11.03740644661072
 20
12.66378380069862
 30
0.0
 41
0.4987500000000001
 42
0.4987500000000001
  0
INSERT
  5
1F2
330
18
100
AcDbEntity
  8
DAMAN
100
AcDbBlockReference
  2
100CROSS
 10
11.71740644661072
 20
12.90378380069863
 30
0.0
 41
0.4987500000000001
 42
0.4987500000000001
  0
INSERT
  5
1F3
330
18
100
AcDbEntity
  8
DAMAN
100
AcDbBlockReference
  2
100CROSS
 10
13.33740644661072
 20
11.28378380069863
 30
0.0
 41
0.4987500000000001
 42
0.4987500000000001
  0
INSERT
  5
1F4
330
18
100
AcDbEntity
  8
DAMAN
100
AcDbBlockReference
  2
100CROSS
 10
11.71740644661072
 20
9.663783800698627
 30
0.0
 41
0.4987500000000001
 42
0.4987500000000001
  0
INSERT
  5
1F5
330
18
100
AcDbEntity
  8
DAMAN
100
AcDbBlockReference
  2
100CROSS
 10
11.71740644661072
 20
11.28378380069863
 30
0.0
 41
1.563848876953124
 42
1.563848876953124
  0
CIRCLE
  5
1F6
330
18
100
AcDbEntity
  8
DAMAN
100
AcDbCircle
 10
20.71740644661072
 20
8.908783800698628
 30
0.0
 40
0.249375
  0
CIRCLE
  5
1F7
330
18
100
AcDbEntity
  8
DAMAN
100
AcDbCircle
 10
20.71740644661072
 20
8.908783800698628
 30
0.0
 40
0.2078125
  0
INSERT
  5
1F8
330
18
100
AcDbEntity
  8
DAMAN
100
AcDbBlockReference
  2
100CROSS
 10
20.71740644661072
 20
8.908783800698628
 30
0.0
 41
0.4987500000000001
 42
0.4987500000000001
  0
CIRCLE
  5
1F9
330
18
100
AcDbEntity
  8
DAMAN
100
AcDbCircle
 10
16.21740644661072
 20
8.283783800698628
 30
0.0
 40
0.249375
  0
CIRCLE
  5
1FA
330
18
100
AcDbEntity
  8
DAMAN
100
AcDbCircle
 10
16.21740644661072
 20
8.283783800698628
 30
0.0
 40
0.2078125
  0
INSERT
  5
1FB
330
18
100
AcDbEntity
  8
DAMAN
100
AcDbBlockReference
  2
100CROSS
 10
16.21740644661072
 20
8.283783800698628
 30
0.0
 41
0.4987500000000001
 42
0.4987500000000001
  0
CIRCLE
  5
1FC
330
18
100
AcDbEntity
  8
DAMAN
100
AcDbCircle
 10
16.21740644661072
 20
13.28378380069862
 30
0.0
 40
0.249375
  0
CIRCLE
  5
1FD
330
18
100
AcDbEntity
  8
DAMAN
100
AcDbCircle
 10
16.21740644661072
 20
13.28378380069862
 30
0.0
 40
0.2078125
  0
INSERT
  5
1FE
330
18
100
AcDbEntity
  8
DAMAN
100
AcDbBlockReference
  2
100CROSS
 10
16.21740644661072
 20
13.28378380069862
 30
0.0
 41
0.4987500000000001
 42
0.4987500000000001
  0
CIRCLE
  5
1FF
330
18
100
AcDbEntity
  8
DAMAN
100
AcDbCircle
 10
20.71740644661072
 20
12.65878380069862
 30
0.0
 40
0.249375
  0
CIRCLE
  5
200
330
18
100
AcDbEntity
  8
DAMAN
100
AcDbCircle
 10
20.71740644661072
 20
12.65878380069862
 30
0.0
 40
0.2078125
  0
INSERT
  5
201
330
18
100
AcDbEntity
  8
DAMAN
100
AcDbBlockReference
  2
100CROSS
 10
20.71740644661072
 20
12.65878380069862
 30
0.0
 41
0.4987500000000001
 42
0.4987500000000001
  0
CIRCLE
  5
202
330
18
100
AcDbEntity
  8
DAMAN
100
AcDbCircle
 10
22.71740644661072
 20
13.28378380069862
 30
0.0
 40
0.249375
  0
CIRCLE
  5
203
330
18
100
AcDbEntity
  8
DAMAN
100
AcDbCircle
 10
22.71740644661072
 20
13.28378380069862
 30
0.0
 40
0.2078125
  0
INSERT
  5
204
330
18
100
AcDbEntity
  8
DAMAN
100
AcDbBlockReference
  2
100CROSS
 10
22.71740644661072
 20
13.28378380069862
 30
0.0
 41
0.4987500000000001
 42
0.4987500000000001
  0
CIRCLE
  5
205
330
18
100
AcDbEntity
  8
DAMAN
100
AcDbCircle
 10
22.71740644661072
 20
8.283783800698628
 30
0.0
 40
0.249375
  0
CIRCLE
  5
206
330
18
100
AcDbEntity
  8
DAMAN
100
AcDbCircle
 10
22.71740644661072
 20
8.283783800698628
 30
0.0
 40
0.2078125
  0
INSERT
  5
207
330
18
100
AcDbEntity
  8
DAMAN
100
AcDbBlockReference
  2
100CROSS
 10
22.71740644661072
 20
8.283783800698628
 30
0.0
 41
0.4987500000000001
 42
0.4987500000000001
  0
CIRCLE
  5
208
330
18
100
AcDbEntity
  8
DAMAN
100
AcDbCircle
 10
27.71740644661072
 20
8.283783800698628
 30
0.0
 40
0.249375
  0
CIRCLE
  5
209
330
18
100
AcDbEntity
  8
DAMAN
100
AcDbCircle
 10
27.71740644661072
 20
8.283783800698628
 30
0.0
 40
0.2078125
  0
INSERT
  5
20A
330
18
100
AcDbEntity
  8
DAMAN
100
AcDbBlockReference
  2
100CROSS
 10
27.71740644661072
 20
8.283783800698628
 30
0.0
 41
0.4987500000000001
 42
0.4987500000000001
  0
CIRCLE
  5
20B
330
18
100
AcDbEntity
  8
DAMAN
100
AcDbCircle
 10
27.71740644661072
 20
13.28378380069862
 30
0.0
 40
0.249375
  0
CIRCLE
  5
20C
330
18
100
AcDbEntity
  8
DAMAN
100
AcDbCircle
 10
27.71740644661072
 20
13.28378380069862
 30
0.0
 40
0.2078125
  0
INSERT
  5
20D
330
18
100
AcDbEntity
  8
DAMAN
100
AcDbBlockReference
  2
100CROSS
 10
27.71740644661072
 20
13.28378380069862
 30
0.0
 41
0.4987500000000001
 42
0.4987500000000001
  0
INSERT
  5
20E
330
18
100
AcDbEntity
  8
DAMAN
100
AcDbBlockReference
  2
06SAET
 10
17.78740644661072
 20
11.28378380069863
 30
0.0
  0
INSERT
  5
20F
330
18
100
AcDbEntity
  8
DAMAN
100
AcDbBlockReference
  2
24CD61
 10
14.46492890697135
 20
2.810524609861383
 30
0.0
 50
90.0
  0
INSERT
  5
210
330
18
100
AcDbEntity
  8
DAMAN
100
AcDbBlockReference
  2
06SAET
 10
5.592406446610723
 20
12.90878380069862
 30
0.0
  0
INSERT
  5
211
330
18
100
AcDbEntity
  8
DAMAN
100
AcDbBlockReference
  2
06SAET
 10
7.217406446610723
 20
9.033783800698628
 30
0.0
  0
TEXT
  5
212
330
18
100
AcDbEntity
  8
DAMAN
100
AcDbText
 10
10.75814515301539
 20
1.5752745623004
 30
0.0
 40
0.2
  1
DAMAN ****
100
AcDbText
  0
TEXT
  5
213
330
18
100
AcDbEntity
  8
DAMAN
100
AcDbText
 10
14.13113098879499
 20
6.437332603789229
 30
0.0
 40
0.2
  1
B
100
AcDbText
  0
TEXT
  5
214
330
18
100
AcDbEntity
  8
DAMAN
100
AcDbText
 10
17.51529605118267
 20
11.94398793829045
 30
0.0
 40
0.2
  1
Y
 50
90.0
100
AcDbText
  0
TEXT
  5
215
330
18
100
AcDbEntity
  8
DAMAN
100
AcDbText
 10
4.165060652732933
 20
10.83870356072551
 30
0.0
 40
0.2
  1
X
 50
270.0
100
AcDbText
  0
TEXT
  5
216
330
18
100
AcDbEntity
  8
DAMAN
100
AcDbText
 10
6.156308873371244
 20
12.5613857459383
 30
0.0
 40
0.2
  1
Z1
 50
270.0
100
AcDbText
  0
TEXT
  5
217
330
18
100
AcDbEntity
  8
DAMAN
100
AcDbText
 10
6.552417430475045
 20
8.581026973045446
 30
0.0
 40
0.2
  1
Z2
 50
270.0
100
AcDbText
  0
INSERT
  5
218
330
18
100
AcDbEntity
  8
DAMAN
100
AcDbBlockReference
  2
24CD61
 10
27.96590493436125
 20
9.375089245433045
 30
0.0
 50
90.0
  0
TEXT
  5
21C
330
18
100
AcDbEntity
  8
DAMAN
100
AcDbText
 10
25.04320911740845
 20
8.637332582275682
 30
0.0
 40
0.2
  1
A
100
AcDbText
  0
ENDSEC
  0
SECTION
  2
OBJECTS
  0
DICTIONARY
  5
C
330
0
100
AcDbDictionary
  3
ACAD_GROUP
350
D
  3
ACAD_LAYOUT
350
222
  3
ACAD_MLINESTYLE
350
E
  3
ACAD_PLOTSETTINGS
350
223
  3
ACAD_PLOTSTYLENAME
350
220
  3
ACDBHEADERROUNDTRIPXREC
350
229
  0
DICTIONARY
  5
24B
330
18
100
AcDbDictionary
280
     1
  3
ACAD_LAYOUTSELFREF
360
24C
  0
DICTIONARY
  5
249
330
15
100
AcDbDictionary
280
     1
  3
ACAD_LAYOUTSELFREF
360
24A
  0
DICTIONARY
  5
D
102
{ACAD_REACTORS
330
C
102
}
330
C
100
AcDbDictionary
  0
DICTIONARY
  5
222
102
{ACAD_REACTORS
330
C
102
}
330
C
100
AcDbDictionary
  0
DICTIONARY
  5
E
102
{ACAD_REACTORS
330
C
102
}
330
C
100
AcDbDictionary
  3
STANDARD
350
1B
  0
DICTIONARY
  5
223
102
{ACAD_REACTORS
330
C
102
}
330
C
100
AcDbDictionary
  0
ACDBDICTIONARYWDFLT
  5
220
102
{ACAD_REACTORS
330
C
102
}
330
C
100
AcDbDictionary
281
     1
  3
Normal
350
221
100
AcDbDictionaryWithDefault
340
221
  0
DICTIONARY
  5
229
102
{ACAD_REACTORS
330
C
102
}
330
C
100
AcDbDictionary
  3
CEPSNTYPE
350
233
  3
FINGERPRINTGUID
350
234
  3
HYPERLINKBASE
350
22C
  3
INSUNITS
350
232
  3
LAYOUTDICT
350
22E
  3
LWETCUNION
350
231
  3
PLOTSETDICT
350
22F
  3
PLOTSTYLNAMDICT
350
230
  3
PSVPSCALE
350
236
  3
PUCSBASE
350
239
  3
PUCSORGBACK
350
23F
  3
PUCSORGBOTTOM
350
23B
  3
PUCSORGFRONT
350
23E
  3
PUCSORGLEFT
350
23C
  3
PUCSORGRIGHT
350
23D
  3
PUCSORGTOP
350
23A
  3
PUCSORTHOREF
350
237
  3
PUCSORTHOVIEW
350
238
  3
STYLESHEET
350
22D
  3
TSTACKALIGN
350
22A
  3
TSTACKSIZE
350
22B
  3
UCSBASE
350
242
  3
UCSORGBACK
350
248
  3
UCSORGBOTTOM
350
244
  3
UCSORGFRONT
350
247
  3
UCSORGLEFT
350
245
  3
UCSORGRIGHT
350
246
  3
UCSORGTOP
350
243
  3
UCSORTHOREF
350
240
  3
UCSORTHOVIEW
350
241
  3
VERSIONGUID
350
235
  0
XRECORD
  5
24C
102
{ACAD_REACTORS
330
24B
102
}
330
24B
100
AcDbXrecord
340
18
  0
XRECORD
  5
24A
102
{ACAD_REACTORS
330
249
102
}
330
249
100
AcDbXrecord
340
15
  0
MLINESTYLE
  5
1B
102
{ACAD_REACTORS
330
E
102
}
330
E
100
AcDbMlineStyle
  2
STANDARD
 70
     0
  3

 62
     0
 51
90.0
 52
90.0
 71
     2
 49
0.5
 62
   256
  6
BYLAYER
 49
-0.5
 62
   256
  6
BYLAYER
  0
ACDBPLACEHOLDER
  5
221
102
{ACAD_REACTORS
330
220
102
}
330
220
100
AcDbPlaceHolder
280
     0
  0
XRECORD
  5
233
102
{ACAD_REACTORS
330
229
102
}
330
229
100
AcDbXrecord
 90
        0
  0
XRECORD
  5
234
102
{ACAD_REACTORS
330
229
102
}
330
229
100
AcDbXrecord
  1
{5B7AE99C-C858-4604-9D49-D35E8299DF23}
  0
XRECORD
  5
22C
102
{ACAD_REACTORS
330
229
102
}
330
229
100
AcDbXrecord
  1

  0
XRECORD
  5
232
102
{ACAD_REACTORS
330
229
102
}
330
229
100
AcDbXrecord
 90
        0
  0
XRECORD
  5
22E
102
{ACAD_REACTORS
330
229
102
}
330
229
100
AcDbXrecord
340
222
  0
XRECORD
  5
231
102
{ACAD_REACTORS
330
229
102
}
330
229
100
AcDbXrecord
 90
    14877
  0
XRECORD
  5
22F
102
{ACAD_REACTORS
330
229
102
}
330
229
100
AcDbXrecord
340
223
  0
XRECORD
  5
230
102
{ACAD_REACTORS
330
229
102
}
330
229
100
AcDbXrecord
340
220
  0
XRECORD
  5
236
102
{ACAD_REACTORS
330
229
102
}
330
229
100
AcDbXrecord
 40
0.0
  0
XRECORD
  5
239
102
{ACAD_REACTORS
330
229
102
}
330
229
100
AcDbXrecord
340
0
  0
XRECORD
  5
23F
102
{ACAD_REACTORS
330
229
102
}
330
229
100
AcDbXrecord
 10
0.0
 20
0.0
 30
0.0
  0
XRECORD
  5
23B
102
{ACAD_REACTORS
330
229
102
}
330
229
100
AcDbXrecord
 10
0.0
 20
0.0
 30
0.0
  0
XRECORD
  5
23E
102
{ACAD_REACTORS
330
229
102
}
330
229
100
AcDbXrecord
 10
0.0
 20
0.0
 30
0.0
  0
XRECORD
  5
23C
102
{ACAD_REACTORS
330
229
102
}
330
229
100
AcDbXrecord
 10
0.0
 20
0.0
 30
0.0
  0
XRECORD
  5
23D
102
{ACAD_REACTORS
330
229
102
}
330
229
100
AcDbXrecord
 10
0.0
 20
0.0
 30
0.0
  0
XRECORD
  5
23A
102
{ACAD_REACTORS
330
229
102
}
330
229
100
AcDbXrecord
 10
0.0
 20
0.0
 30
0.0
  0
XRECORD
  5
237
102
{ACAD_REACTORS
330
229
102
}
330
229
100
AcDbXrecord
340
0
  0
XRECORD
  5
238
102
{ACAD_REACTORS
330
229
102
}
330
229
100
AcDbXrecord
 70
     0
  0
XRECORD
  5
22D
102
{ACAD_REACTORS
330
229
102
}
330
229
100
AcDbXrecord
  1

  0
XRECORD
  5
22A
102
{ACAD_REACTORS
330
229
102
}
330
229
100
AcDbXrecord
 90
        1
  0
XRECORD
  5
22B
102
{ACAD_REACTORS
330
229
102
}
330
229
100
AcDbXrecord
 90
       70
  0
XRECORD
  5
242
102
{ACAD_REACTORS
330
229
102
}
330
229
100
AcDbXrecord
340
0
  0
XRECORD
  5
248
102
{ACAD_REACTORS
330
229
102
}
330
229
100
AcDbXrecord
 10
0.0
 20
0.0
 30
0.0
  0
XRECORD
  5
244
102
{ACAD_REACTORS
330
229
102
}
330
229
100
AcDbXrecord
 10
0.0
 20
0.0
 30
0.0
  0
XRECORD
  5
247
102
{ACAD_REACTORS
330
229
102
}
330
229
100
AcDbXrecord
 10
0.0
 20
0.0
 30
0.0
  0
XRECORD
  5
245
102
{ACAD_REACTORS
330
229
102
}
330
229
100
AcDbXrecord
 10
0.0
 20
0.0
 30
0.0
  0
XRECORD
  5
246
102
{ACAD_REACTORS
330
229
102
}
330
229
100
AcDbXrecord
 10
0.0
 20
0.0
 30
0.0
  0
XRECORD
  5
243
102
{ACAD_REACTORS
330
229
102
}
330
229
100
AcDbXrecord
 10
0.0
 20
0.0
 30
0.0
  0
XRECORD
  5
240
102
{ACAD_REACTORS
330
229
102
}
330
229
100
AcDbXrecord
340
0
  0
XRECORD
  5
241
102
{ACAD_REACTORS
330
229
102
}
330
229
100
AcDbXrecord
 70
     0
  0
XRECORD
  5
235
102
{ACAD_REACTORS
330
229
102
}
330
229
100
AcDbXrecord
  1
{66FCCFEB-2717-43AA-B4B2-E205A6CA5B0D}
  0
ENDSEC
  0
EOF
