  0
SECTION
  2
HEADER
  9
$ACADVER
  1
AC1014
  9
$ACADMAINTVER
 70
     9
  9
$DWGCODEPAGE
  3
ANSI_1252
  9
$INSBASE
 10
0.0
 20
0.0
 30
0.0
  9
$EXTMIN
 10
8.342704343877507
 20
7.572459634419573
 30
-0.0015258207003583
  9
$EXTMAX
 10
16.34424880972132
 20
14.15679429499621
 30
0.0000000349246037
  9
$LIMMIN
 10
0.0
 20
0.0
  9
$LIMMAX
 10
12.0
 20
9.0
  9
$ORTHOMODE
 70
     1
  9
$REGENMODE
 70
     1
  9
$FILLMODE
 70
     1
  9
$QTEXTMODE
 70
     0
  9
$MIRRTEXT
 70
     1
  9
$DRAGMODE
 70
     2
  9
$LTSCALE
 40
1.0
  9
$OSMODE
 70
    37
  9
$ATTMODE
 70
     1
  9
$TEXTSIZE
 40
0.188
  9
$TRACEWID
 40
0.05
  9
$TEXTSTYLE
  7
STANDARD
  9
$CLAYER
  8
DAMAN
  9
$CELTYPE
  6
BYLAYER
  9
$CECOLOR
 62
   256
  9
$CELTSCALE
 40
1.0
  9
$DELOBJ
 70
     1
  9
$DISPSILH
 70
     0
  9
$DIMSCALE
 40
1.0
  9
$DIMASZ
 40
0.18
  9
$DIMEXO
 40
0.0625
  9
$DIMDLI
 40
0.38
  9
$DIMRND
 40
0.0
  9
$DIMDLE
 40
0.0
  9
$DIMEXE
 40
0.18
  9
$DIMTP
 40
0.0
  9
$DIMTM
 40
0.0
  9
$DIMTXT
 40
0.18
  9
$DIMCEN
 40
0.09
  9
$DIMTSZ
 40
0.0
  9
$DIMTOL
 70
     0
  9
$DIMLIM
 70
     0
  9
$DIMTIH
 70
     1
  9
$DIMTOH
 70
     1
  9
$DIMSE1
 70
     0
  9
$DIMSE2
 70
     0
  9
$DIMTAD
 70
     0
  9
$DIMZIN
 70
     0
  9
$DIMBLK
  1

  9
$DIMASO
 70
     1
  9
$DIMSHO
 70
     1
  9
$DIMPOST
  1

  9
$DIMAPOST
  1

  9
$DIMALT
 70
     0
  9
$DIMALTD
 70
     2
  9
$DIMALTF
 40
25.4
  9
$DIMLFAC
 40
1.0
  9
$DIMTOFL
 70
     0
  9
$DIMTVP
 40
0.0
  9
$DIMTIX
 70
     0
  9
$DIMSOXD
 70
     0
  9
$DIMSAH
 70
     0
  9
$DIMBLK1
  1

  9
$DIMBLK2
  1

  9
$DIMSTYLE
  2
STANDARD
  9
$DIMCLRD
 70
     0
  9
$DIMCLRE
 70
     0
  9
$DIMCLRT
 70
     0
  9
$DIMTFAC
 40
1.0
  9
$DIMGAP
 40
0.09
  9
$DIMJUST
 70
     0
  9
$DIMSD1
 70
     0
  9
$DIMSD2
 70
     0
  9
$DIMTOLJ
 70
     1
  9
$DIMTZIN
 70
     0
  9
$DIMALTZ
 70
     0
  9
$DIMALTTZ
 70
     0
  9
$DIMFIT
 70
     3
  9
$DIMUPT
 70
     0
  9
$DIMUNIT
 70
     2
  9
$DIMDEC
 70
     4
  9
$DIMTDEC
 70
     4
  9
$DIMALTU
 70
     2
  9
$DIMALTTD
 70
     2
  9
$DIMTXSTY
  7
STANDARD
  9
$DIMAUNIT
 70
     0
  9
$LUNITS
 70
     2
  9
$LUPREC
 70
     4
  9
$SKETCHINC
 40
0.1
  9
$FILLETRAD
 40
0.0
  9
$AUNITS
 70
     0
  9
$AUPREC
 70
     0
  9
$MENU
  1
tom
  9
$ELEVATION
 40
0.0
  9
$PELEVATION
 40
0.0
  9
$THICKNESS
 40
0.0
  9
$LIMCHECK
 70
     0
  9
$BLIPMODE
 70
     0
  9
$CHAMFERA
 40
0.0
  9
$CHAMFERB
 40
0.0
  9
$CHAMFERC
 40
0.0
  9
$CHAMFERD
 40
0.0
  9
$SKPOLY
 70
     0
  9
$TDCREATE
 40
2449746.543632962
  9
$TDUPDATE
 40
2453424.587540000
  9
$TDINDWG
 40
0.0004942477
  9
$TDUSRTIMER
 40
0.0004942477
  9
$USRTIMER
 70
     1
  9
$ANGBASE
 50
0.0
  9
$ANGDIR
 70
     0
  9
$PDMODE
 70
     0
  9
$PDSIZE
 40
0.0
  9
$PLINEWID
 40
0.0
  9
$COORDS
 70
     1
  9
$SPLFRAME
 70
     0
  9
$SPLINETYPE
 70
     6
  9
$SPLINESEGS
 70
     8
  9
$ATTDIA
 70
     0
  9
$ATTREQ
 70
     1
  9
$HANDLING
 70
-16383
  9
$HANDSEED
  5
13B
  9
$SURFTAB1
 70
     6
  9
$SURFTAB2
 70
     6
  9
$SURFTYPE
 70
     6
  9
$SURFU
 70
     6
  9
$SURFV
 70
     6
  9
$UCSNAME
  2

  9
$UCSORG
 10
0.0
 20
0.0
 30
0.0
  9
$UCSXDIR
 10
1.0
 20
0.0
 30
0.0
  9
$UCSYDIR
 10
0.0
 20
1.0
 30
0.0
  9
$PUCSNAME
  2

  9
$PUCSORG
 10
0.0
 20
0.0
 30
0.0
  9
$PUCSXDIR
 10
1.0
 20
0.0
 30
0.0
  9
$PUCSYDIR
 10
0.0
 20
1.0
 30
0.0
  9
$USERI1
 70
     0
  9
$USERI2
 70
     0
  9
$USERI3
 70
     0
  9
$USERI4
 70
     0
  9
$USERI5
 70
     0
  9
$USERR1
 40
0.0
  9
$USERR2
 40
0.0
  9
$USERR3
 40
0.0
  9
$USERR4
 40
0.0
  9
$USERR5
 40
0.0
  9
$WORLDVIEW
 70
     1
  9
$SHADEDGE
 70
     3
  9
$SHADEDIF
 70
    70
  9
$TILEMODE
 70
     1
  9
$MAXACTVP
 70
    16
  9
$PINSBASE
 10
0.0
 20
0.0
 30
0.0
  9
$PLIMCHECK
 70
     0
  9
$PEXTMIN
 10
1.000000000000000E+20
 20
1.000000000000000E+20
 30
1.000000000000000E+20
  9
$PEXTMAX
 10
-1.000000000000000E+20
 20
-1.000000000000000E+20
 30
-1.000000000000000E+20
  9
$PLIMMIN
 10
0.0
 20
0.0
  9
$PLIMMAX
 10
12.0
 20
9.0
  9
$UNITMODE
 70
     0
  9
$VISRETAIN
 70
     0
  9
$PLINEGEN
 70
     0
  9
$PSLTSCALE
 70
     1
  9
$TREEDEPTH
 70
  3020
  9
$PICKSTYLE
 70
     1
  9
$CMLSTYLE
  2
STANDARD
  9
$CMLJUST
 70
     0
  9
$CMLSCALE
 40
1.0
  9
$PROXYGRAPHICS
 70
     1
  9
$MEASUREMENT
 70
     0
  0
ENDSEC
  0
SECTION
  2
CLASSES
  0
CLASS
  1
ACDBDICTIONARYWDFLT
  2
AcDbDictionaryWithDefault
  3
AutoCAD 2000
 90
        0
280
     0
281
     0
  0
CLASS
  1
ACDBPLACEHOLDER
  2
AcDbPlaceHolder
  3
AutoCAD 2000
 90
        0
280
     0
281
     0
  0
CLASS
  1
LAYOUT
  2
AcDbLayout
  3
AutoCAD 2000
 90
        0
280
     0
281
     0
  0
CLASS
  1
LONG_TRANSACTION
  2
AcDbLongTransaction
  3
AutoCAD 2000
 90
        0
280
     0
281
     0
  0
CLASS
  1
LWPOLYLINE
  2
AcDbPolyline
  3
AutoCAD 2000
 90
        0
280
     0
281
     1
  0
CLASS
  1
HATCH
  2
AcDbHatch
  3
AutoCAD 2000
 90
        0
280
     0
281
     1
  0
CLASS
  1
XRECORD
  2
AcDbXrecord
  3
AutoCAD 2000
 90
        0
280
     0
281
     0
  0
ENDSEC
  0
SECTION
  2
TABLES
  0
TABLE
  2
VPORT
  5
8
330
0
100
AcDbSymbolTable
 70
     3
  0
VPORT
  5
116
330
8
100
AcDbSymbolTableRecord
100
AcDbViewportTableRecord
  2
*ACTIVE
 70
     0
 10
0.0
 20
0.0
 11
1.0
 21
1.0
 12
12.34347660884466
 22
10.81958712991271
 13
0.0
 23
0.0
 14
0.03125
 24
0.03125
 15
0.0
 25
0.0
 16
0.0
 26
0.0
 36
1.0
 17
0.0
 27
0.0
 37
0.0
 40
7.64649428373554
 41
1.647569444444444
 42
50.0
 43
0.0
 44
0.0
 50
0.0
 51
0.0
 71
     0
 72
   100
 73
     1
 74
     1
 75
     1
 76
     0
 77
     0
 78
     0
  0
ENDTAB
  0
TABLE
  2
LTYPE
  5
5
330
0
100
AcDbSymbolTable
 70
     4
  0
LTYPE
  5
13
330
5
100
AcDbSymbolTableRecord
100
AcDbLinetypeTableRecord
  2
BYBLOCK
 70
     0
  3

 72
    65
 73
     0
 40
0.0
  0
LTYPE
  5
14
330
5
100
AcDbSymbolTableRecord
100
AcDbLinetypeTableRecord
  2
BYLAYER
 70
     0
  3

 72
    65
 73
     0
 40
0.0
  0
LTYPE
  5
15
330
5
100
AcDbSymbolTableRecord
100
AcDbLinetypeTableRecord
  2
CONTINUOUS
 70
     0
  3
Solid line
 72
    65
 73
     0
 40
0.0
  0
LTYPE
  5
24
330
5
100
AcDbSymbolTableRecord
100
AcDbLinetypeTableRecord
  2
HIDDEN
 70
     0
  3
_ _ _ _ _ _ _ _ _ _ _ _ _ _ _ _ _ _ _ _ _ _ _
 72
    65
 73
     2
 40
0.375
 49
0.25
 74
     0
 49
-0.125
 74
     0
  0
LTYPE
  5
25
330
5
100
AcDbSymbolTableRecord
100
AcDbLinetypeTableRecord
  2
CENTER
 70
     0
  3
____ _ ____ _ ____ _ ____ _ ____ _ ____ _ ____
 72
    65
 73
     4
 40
2.0
 49
1.25
 74
     0
 49
-0.25
 74
     0
 49
0.25
 74
     0
 49
-0.25
 74
     0
  0
LTYPE
  5
26
330
5
100
AcDbSymbolTableRecord
100
AcDbLinetypeTableRecord
  2
PHANTOM
 70
     0
  3
_____ _ _ _____ _ _ _____ _ _ _____ _ _ ____
 72
    65
 73
     6
 40
2.5
 49
1.25
 74
     0
 49
-0.25
 74
     0
 49
0.25
 74
     0
 49
-0.25
 74
     0
 49
0.25
 74
     0
 49
-0.25
 74
     0
  0
ENDTAB
  0
TABLE
  2
LAYER
  5
2
330
0
100
AcDbSymbolTable
 70
     9
  0
LAYER
  5
10
330
2
100
AcDbSymbolTableRecord
100
AcDbLayerTableRecord
  2
0
 70
     0
 62
     7
  6
CONTINUOUS
  0
LAYER
  5
22
330
2
100
AcDbSymbolTableRecord
100
AcDbLayerTableRecord
  2
DAMAN
 70
     0
 62
     5
  6
CONTINUOUS
  0
LAYER
  5
27
330
2
100
AcDbSymbolTableRecord
100
AcDbLayerTableRecord
  2
BORDER
 70
     0
 62
     7
  6
CONTINUOUS
  0
LAYER
  5
28
330
2
100
AcDbSymbolTableRecord
100
AcDbLayerTableRecord
  2
CSOLID
 70
     0
 62
     3
  6
CONTINUOUS
  0
LAYER
  5
29
330
2
100
AcDbSymbolTableRecord
100
AcDbLayerTableRecord
  2
SOLID
 70
     0
 62
     4
  6
CONTINUOUS
  0
LAYER
  5
2A
330
2
100
AcDbSymbolTableRecord
100
AcDbLayerTableRecord
  2
CHIDDEN
 70
     0
 62
     3
  6
HIDDEN
  0
LAYER
  5
2B
330
2
100
AcDbSymbolTableRecord
100
AcDbLayerTableRecord
  2
CDIM
 70
     0
 62
     2
  6
CONTINUOUS
  0
LAYER
  5
2C
330
2
100
AcDbSymbolTableRecord
100
AcDbLayerTableRecord
  2
CCENTER
 70
     0
 62
     4
  6
CENTER
  0
LAYER
  5
2D
330
2
100
AcDbSymbolTableRecord
100
AcDbLayerTableRecord
  2
PHANTOM
 70
     0
 62
     1
  6
PHANTOM
  0
ENDTAB
  0
TABLE
  2
STYLE
  5
3
330
0
100
AcDbSymbolTable
 70
     2
  0
STYLE
  5
11
330
3
100
AcDbSymbolTableRecord
100
AcDbTextStyleTableRecord
  2
STANDARD
 70
     0
 40
0.0
 41
1.0
 50
0.0
 71
     0
 42
0.188
  3
txt
  4

  0
STYLE
  5
2E
330
3
100
AcDbSymbolTableRecord
100
AcDbTextStyleTableRecord
  2
STR
 70
     0
 40
0.0
 41
1.0
 50
0.0
 71
     0
 42
0.25
  3
SIMPLEX
  4

  0
ENDTAB
  0
TABLE
  2
VIEW
  5
6
330
0
100
AcDbSymbolTable
 70
     0
  0
ENDTAB
  0
TABLE
  2
UCS
  5
7
330
0
100
AcDbSymbolTable
 70
     0
  0
ENDTAB
  0
TABLE
  2
APPID
  5
9
330
0
100
AcDbSymbolTable
 70
     1
  0
APPID
  5
12
330
9
100
AcDbSymbolTableRecord
100
AcDbRegAppTableRecord
  2
ACAD
 70
     0
  0
ENDTAB
  0
TABLE
  2
DIMSTYLE
  5
A
330
0
100
AcDbSymbolTable
 70
     1
  0
DIMSTYLE
105
114
330
A
100
AcDbSymbolTableRecord
100
AcDbDimStyleTableRecord
  2
STANDARD
 70
     0
  3

  4

  5

  6

  7

 40
1.0
 41
0.18
 42
0.0625
 43
0.38
 44
0.18
 45
0.0
 46
0.0
 47
0.0
 48
0.0
140
0.18
141
0.09
142
0.0
143
25.4
144
1.0
145
0.0
146
1.0
147
0.09
 71
     0
 72
     0
 73
     1
 74
     1
 75
     0
 76
     0
 77
     0
 78
     0
170
     0
171
     2
172
     0
173
     0
174
     0
175
     0
176
     0
177
     0
178
     0
270
     2
271
     4
272
     4
273
     2
274
     2
340
11
275
     0
280
     0
281
     0
282
     0
283
     1
284
     0
285
     0
286
     0
287
     3
288
     0
  0
ENDTAB
  0
TABLE
  2
BLOCK_RECORD
  5
1
330
0
100
AcDbSymbolTable
 70
     9
  0
BLOCK_RECORD
  5
1E
102
{ACAD_XDICTIONARY
360
139
102
}
330
1
100
AcDbSymbolTableRecord
100
AcDbBlockTableRecord
  2
*MODEL_SPACE
  0
BLOCK_RECORD
  5
1A
102
{ACAD_XDICTIONARY
360
137
102
}
330
1
100
AcDbSymbolTableRecord
100
AcDbBlockTableRecord
  2
*PAPER_SPACE
  0
BLOCK_RECORD
  5
31
330
1
100
AcDbSymbolTableRecord
100
AcDbBlockTableRecord
  2
2F06SPS
  0
BLOCK_RECORD
  5
3F
330
1
100
AcDbSymbolTableRecord
100
AcDbBlockTableRecord
  2
075SAET
  0
BLOCK_RECORD
  5
46
330
1
100
AcDbSymbolTableRecord
100
AcDbBlockTableRecord
  2
2F02180
  0
BLOCK_RECORD
  5
48
330
1
100
AcDbSymbolTableRecord
100
AcDbBlockTableRecord
  2
100CROSS
  0
BLOCK_RECORD
  5
AA
330
1
100
AcDbSymbolTableRecord
100
AcDbBlockTableRecord
  2
050CROSS
  0
BLOCK_RECORD
  5
C9
330
1
100
AcDbSymbolTableRecord
100
AcDbBlockTableRecord
  2
038NPTFT
  0
BLOCK_RECORD
  5
CB
330
1
100
AcDbSymbolTableRecord
100
AcDbBlockTableRecord
  2
375NPTFT
  0
BLOCK_RECORD
  5
D4
330
1
100
AcDbSymbolTableRecord
100
AcDbBlockTableRecord
  2
050NPTFT
  0
BLOCK_RECORD
  5
D6
330
1
100
AcDbSymbolTableRecord
100
AcDbBlockTableRecord
  2
500NPTFT
  0
ENDTAB
  0
ENDSEC
  0
SECTION
  2
BLOCKS
  0
BLOCK
  5
1F
330
1E
100
AcDbEntity
  8
0
100
AcDbBlockBegin
  2
*MODEL_SPACE
 70
     0
 10
0.0
 20
0.0
 30
0.0
  3
*MODEL_SPACE
  1

  0
ENDBLK
  5
20
330
1E
100
AcDbEntity
  8
0
100
AcDbBlockEnd
  0
BLOCK
  5
1B
330
1A
100
AcDbEntity
 67
     1
  8
0
100
AcDbBlockBegin
  2
*PAPER_SPACE
 70
     0
 10
0.0
 20
0.0
 30
0.0
  3
*PAPER_SPACE
  1

  0
ENDBLK
  5
1C
330
1A
100
AcDbEntity
 67
     1
  8
0
100
AcDbBlockEnd
  0
BLOCK
  5
32
330
31
100
AcDbEntity
  8
0
100
AcDbBlockBegin
  2
2F06SPS
 70
     0
 10
0.0
 20
0.0
 30
0.0
  3
2F06SPS
  1

  0
LWPOLYLINE
  5
33
330
31
100
AcDbEntity
  8
BORDER
100
AcDbPolyline
 90
        4
 70
     1
 43
0.0
 10
9.0
 20
9.0
 10
9.0
 20
13.0
 10
12.75
 20
13.0
 10
12.75
 20
9.0
  0
LWPOLYLINE
  5
39
330
31
100
AcDbEntity
  8
BORDER
100
AcDbPolyline
 90
        4
 70
     1
 43
0.0
 10
9.0
 20
5.5
 10
9.0
 20
6.75
 10
12.75
 20
6.75
 10
12.75
 20
5.5
  0
INSERT
  5
40
330
31
100
AcDbEntity
  8
BORDER
100
AcDbBlockReference
  2
075SAET
 10
10.12499999999999
 20
6.125
 30
0.0
  0
INSERT
  5
41
330
31
100
AcDbEntity
  8
BORDER
100
AcDbBlockReference
  2
075SAET
 10
11.625
 20
6.125
 30
0.0
  0
CIRCLE
  5
42
330
31
100
AcDbEntity
  8
CSOLID
100
AcDbCircle
 10
9.375
 20
11.75
 30
0.0
 40
0.28125
  0
CIRCLE
  5
43
330
31
100
AcDbEntity
  8
CSOLID
100
AcDbCircle
 10
9.375
 20
11.75
 30
0.0
 40
0.203125
  0
CIRCLE
  5
44
330
31
100
AcDbEntity
  8
CSOLID
100
AcDbCircle
 10
12.375
 20
10.25
 30
0.0
 40
0.203125
  0
CIRCLE
  5
45
330
31
100
AcDbEntity
  8
CSOLID
100
AcDbCircle
 10
12.375
 20
10.25
 30
0.0
 40
0.28125
  0
INSERT
  5
47
330
31
100
AcDbEntity
  8
CSOLID
100
AcDbBlockReference
  2
2F02180
 10
12.375
 20
9.375
 30
0.0
 50
180.0
  0
INSERT
  5
49
330
31
100
AcDbEntity
  8
CCENTER
100
AcDbBlockReference
  2
100CROSS
 10
9.375
 20
11.75
 30
0.0
 41
0.5625
 42
0.5625
 43
0.5625
  0
INSERT
  5
4A
330
31
100
AcDbEntity
  8
CCENTER
100
AcDbBlockReference
  2
100CROSS
 10
12.375
 20
10.25
 30
0.0
 41
0.5625
 42
0.5625
 43
0.5625
  0
LINE
  5
4B
330
31
100
AcDbEntity
  8
CDIM
100
AcDbLine
 10
9.0
 20
13.10459999999999
 30
0.0
 11
9.0
 21
13.7717
 31
0.0
  0
LINE
  5
4C
330
31
100
AcDbEntity
  8
CDIM
100
AcDbLine
 10
11.5
 20
12.57335
 30
0.0
 11
11.5
 21
13.7717
 31
0.0
  0
LINE
  5
4D
330
31
100
AcDbEntity
  8
CDIM
100
AcDbLine
 10
9.209199999999999
 20
13.5625
 30
0.0
 11
9.683764999999999
 21
13.5625
 31
0.0
  0
LINE
  5
4E
330
31
100
AcDbEntity
  8
CDIM
100
AcDbLine
 10
11.2908
 20
13.5625
 30
0.0
 11
10.816235
 21
13.5625
 31
0.0
  0
SOLID
  5
4F
330
31
100
AcDbEntity
  8
CDIM
100
AcDbTrace
 10
9.209199999999999
 20
13.52763299999999
 30
0.0
 11
9.209199999999999
 21
13.597367
 31
0.0
 12
9.0
 22
13.5625
 32
0.0
 13
9.0
 23
13.5625
 33
0.0
  0
SOLID
  5
50
330
31
100
AcDbEntity
  8
CDIM
100
AcDbTrace
 10
11.2908
 20
13.52763299999999
 30
0.0
 11
11.2908
 21
13.597367
 31
0.0
 12
11.5
 22
13.5625
 32
0.0
 13
11.5
 23
13.5625
 33
0.0
  0
TEXT
  5
51
330
31
100
AcDbEntity
  8
CDIM
100
AcDbText
 10
9.892965
 20
13.445348
 30
0.0
 40
0.234304
  1
2.50
  7
STR
100
AcDbText
  0
LINE
  5
52
330
31
100
AcDbEntity
  8
CDIM
100
AcDbLine
 10
9.0
 20
13.10459999999999
 30
0.0
 11
9.0
 21
14.3993
 31
0.0
  0
LINE
  5
53
330
31
100
AcDbEntity
  8
CDIM
100
AcDbLine
 10
12.75
 20
13.10459999999999
 30
0.0
 11
12.75
 21
14.3993
 31
0.0
  0
LINE
  5
54
330
31
100
AcDbEntity
  8
CDIM
100
AcDbLine
 10
9.209199999999999
 20
14.1901
 30
0.0
 11
10.30876499999999
 21
14.1901
 31
0.0
  0
LINE
  5
55
330
31
100
AcDbEntity
  8
CDIM
100
AcDbLine
 10
12.5408
 20
14.1901
 30
0.0
 11
11.441235
 21
14.1901
 31
0.0
  0
SOLID
  5
56
330
31
100
AcDbEntity
  8
CDIM
100
AcDbTrace
 10
9.209199999999999
 20
14.155233
 30
0.0
 11
9.209199999999999
 21
14.224967
 31
0.0
 12
9.0
 22
14.1901
 32
0.0
 13
9.0
 23
14.1901
 33
0.0
  0
SOLID
  5
57
330
31
100
AcDbEntity
  8
CDIM
100
AcDbTrace
 10
12.5408
 20
14.155233
 30
0.0
 11
12.5408
 21
14.224967
 31
0.0
 12
12.75
 22
14.1901
 32
0.0
 13
12.75
 23
14.1901
 33
0.0
  0
TEXT
  5
58
330
31
100
AcDbEntity
  8
CDIM
100
AcDbText
 10
10.517965
 20
14.072948
 30
0.0
 40
0.234304
  1
3.75
  7
STR
100
AcDbText
  0
LINE
  5
59
330
31
100
AcDbEntity
  8
CDIM
100
AcDbLine
 10
8.8954
 20
13.0
 30
0.0
 11
8.1658
 21
13.0
 31
0.0
  0
LINE
  5
5A
330
31
100
AcDbEntity
  8
CDIM
100
AcDbLine
 10
9.36415
 20
10.5625
 30
0.0
 11
8.1658
 21
10.5625
 31
0.0
  0
LINE
  5
5B
330
31
100
AcDbEntity
  8
CDIM
100
AcDbLine
 10
8.375
 20
12.7908
 30
0.0
 11
8.375
 21
12.107602
 31
0.0
  0
LINE
  5
5C
330
31
100
AcDbEntity
  8
CDIM
100
AcDbLine
 10
8.375
 20
10.77169999999999
 30
0.0
 11
8.375
 21
11.454898
 31
0.0
  0
SOLID
  5
5D
330
31
100
AcDbEntity
  8
CDIM
100
AcDbTrace
 10
8.409867
 20
12.7908
 30
0.0
 11
8.340132999999999
 21
12.7908
 31
0.0
 12
8.375
 22
13.0
 32
0.0
 13
8.375
 23
13.0
 33
0.0
  0
SOLID
  5
5E
330
31
100
AcDbEntity
  8
CDIM
100
AcDbTrace
 10
8.409867
 20
10.77169999999999
 30
0.0
 11
8.340132999999999
 21
10.77169999999999
 31
0.0
 12
8.375
 22
10.5625
 32
0.0
 13
8.375
 23
10.5625
 33
0.0
  0
TEXT
  5
5F
330
31
100
AcDbEntity
  8
CDIM
100
AcDbText
 10
8.012387
 20
11.664098
 30
0.0
 40
0.234304
  1
2.44
  7
STR
100
AcDbText
  0
LINE
  5
60
330
31
100
AcDbEntity
  8
CDIM
100
AcDbLine
 10
8.8954
 20
13.0
 30
0.0
 11
7.538199999999999
 21
13.0
 31
0.0
  0
LINE
  5
61
330
31
100
AcDbEntity
  8
CDIM
100
AcDbLine
 10
8.8954
 20
9.0
 30
0.0
 11
7.538199999999999
 21
9.0
 31
0.0
  0
LINE
  5
62
330
31
100
AcDbEntity
  8
CDIM
100
AcDbLine
 10
7.747399999999999
 20
12.7908
 30
0.0
 11
7.747399999999999
 21
11.32635199999999
 31
0.0
  0
LINE
  5
63
330
31
100
AcDbEntity
  8
CDIM
100
AcDbLine
 10
7.747399999999999
 20
9.209199999999999
 30
0.0
 11
7.747399999999999
 21
10.673648
 31
0.0
  0
SOLID
  5
64
330
31
100
AcDbEntity
  8
CDIM
100
AcDbTrace
 10
7.782267
 20
12.7908
 30
0.0
 11
7.712533
 21
12.7908
 31
0.0
 12
7.747399999999999
 22
13.0
 32
0.0
 13
7.747399999999999
 23
13.0
 33
0.0
  0
SOLID
  5
65
330
31
100
AcDbEntity
  8
CDIM
100
AcDbTrace
 10
7.782267
 20
9.209199999999999
 30
0.0
 11
7.712533
 21
9.209199999999999
 31
0.0
 12
7.747399999999999
 22
9.0
 32
0.0
 13
7.747399999999999
 23
9.0
 33
0.0
  0
TEXT
  5
66
330
31
100
AcDbEntity
  8
CDIM
100
AcDbText
 10
7.390364999999999
 20
10.882848
 30
0.0
 40
0.234304
  1
4.00
  7
STR
100
AcDbText
  0
LINE
  5
67
330
31
100
AcDbEntity
  8
CDIM
100
AcDbLine
 10
12.8546
 20
13.0
 30
0.0
 11
13.58419999999999
 21
13.0
 31
0.0
  0
LINE
  5
68
330
31
100
AcDbEntity
  8
CDIM
100
AcDbLine
 10
9.682724999999999
 20
11.75
 30
0.0
 11
13.58419999999999
 21
11.75
 31
0.0
  0
LINE
  5
69
330
31
100
AcDbEntity
  8
CDIM
100
AcDbLine
 10
13.375
 20
12.7908
 30
0.0
 11
13.375
 21
12.701352
 31
0.0
  0
LINE
  5
6A
330
31
100
AcDbEntity
  8
CDIM
100
AcDbLine
 10
13.375
 20
11.95919999999999
 30
0.0
 11
13.375
 21
12.048648
 31
0.0
  0
SOLID
  5
6B
330
31
100
AcDbEntity
  8
CDIM
100
AcDbTrace
 10
13.409867
 20
12.7908
 30
0.0
 11
13.34013299999999
 21
12.7908
 31
0.0
 12
13.375
 22
13.0
 32
0.0
 13
13.375
 23
13.0
 33
0.0
  0
SOLID
  5
6C
330
31
100
AcDbEntity
  8
CDIM
100
AcDbTrace
 10
13.409867
 20
11.95919999999999
 30
0.0
 11
13.34013299999999
 21
11.95919999999999
 31
0.0
 12
13.375
 22
11.75
 32
0.0
 13
13.375
 23
11.75
 33
0.0
  0
TEXT
  5
6D
330
31
100
AcDbEntity
  8
CDIM
100
AcDbText
 10
13.04028
 20
12.257848
 30
0.0
 40
0.234304
  1
1.25
  7
STR
100
AcDbText
  0
LINE
  5
6E
330
31
100
AcDbEntity
  8
CDIM
100
AcDbLine
 10
12.8546
 20
13.0
 30
0.0
 11
14.2118
 21
13.0
 31
0.0
  0
LINE
  5
6F
330
31
100
AcDbEntity
  8
CDIM
100
AcDbLine
 10
12.682725
 20
10.25
 30
0.0
 11
14.2118
 21
10.25
 31
0.0
  0
LINE
  5
70
330
31
100
AcDbEntity
  8
CDIM
100
AcDbLine
 10
14.0026
 20
12.7908
 30
0.0
 11
14.0026
 21
11.732602
 31
0.0
  0
LINE
  5
71
330
31
100
AcDbEntity
  8
CDIM
100
AcDbLine
 10
14.0026
 20
10.45919999999999
 30
0.0
 11
14.0026
 21
11.079898
 31
0.0
  0
SOLID
  5
72
330
31
100
AcDbEntity
  8
CDIM
100
AcDbTrace
 10
14.037467
 20
12.7908
 30
0.0
 11
13.96773299999999
 21
12.7908
 31
0.0
 12
14.0026
 22
13.0
 32
0.0
 13
14.0026
 23
13.0
 33
0.0
  0
SOLID
  5
73
330
31
100
AcDbEntity
  8
CDIM
100
AcDbTrace
 10
14.037467
 20
10.45919999999999
 30
0.0
 11
13.96773299999999
 21
10.45919999999999
 31
0.0
 12
14.0026
 22
10.25
 32
0.0
 13
14.0026
 23
10.25
 33
0.0
  0
TEXT
  5
74
330
31
100
AcDbEntity
  8
CDIM
100
AcDbText
 10
13.64556499999999
 20
11.28909799999999
 30
0.0
 40
0.234304
  1
2.75
  7
STR
100
AcDbText
  0
LINE
  5
75
330
31
100
AcDbEntity
  8
CDIM
100
AcDbLine
 10
8.8954
 20
5.5
 30
0.0
 11
8.1658
 21
5.5
 31
0.0
  0
LINE
  5
76
330
31
100
AcDbEntity
  8
CDIM
100
AcDbLine
 10
9.6454
 20
6.125
 30
0.0
 11
8.1658
 21
6.125
 31
0.0
  0
LINE
  5
77
330
31
100
AcDbEntity
  8
CDIM
100
AcDbLine
 10
8.375
 20
6.3342
 30
0.0
 11
8.375
 21
6.5434
 31
0.0
  0
LINE
  5
78
330
31
100
AcDbEntity
  8
CDIM
100
AcDbLine
 10
8.375
 20
5.290799999999999
 30
0.0
 11
8.375
 21
5.081599999999999
 31
0.0
  0
SOLID
  5
79
330
31
100
AcDbEntity
  8
CDIM
100
AcDbTrace
 10
8.409867
 20
6.3342
 30
0.0
 11
8.340132999999999
 21
6.3342
 31
0.0
 12
8.375
 22
6.125
 32
0.0
 13
8.375
 23
6.125
 33
0.0
  0
SOLID
  5
7A
330
31
100
AcDbEntity
  8
CDIM
100
AcDbTrace
 10
8.409867
 20
5.290799999999999
 30
0.0
 11
8.340132999999999
 21
5.290799999999999
 31
0.0
 12
8.375
 22
5.5
 32
0.0
 13
8.375
 23
5.5
 33
0.0
  0
TEXT
  5
7B
330
31
100
AcDbEntity
  8
CDIM
100
AcDbText
 10
8.01215
 20
5.676248
 30
0.0
 40
0.234304
  1
0.63
  7
STR
100
AcDbText
  0
LINE
  5
7C
330
31
100
AcDbEntity
  8
CDIM
100
AcDbLine
 10
9.0
 20
8.8954
 30
0.0
 11
9.0
 21
8.2908
 31
0.0
  0
LINE
  5
7D
330
31
100
AcDbEntity
  8
CDIM
100
AcDbLine
 10
9.375
 20
11.442275
 30
0.0
 11
9.375
 21
8.2908
 31
0.0
  0
LINE
  5
7E
330
31
100
AcDbEntity
  8
CDIM
100
AcDbLine
 10
9.584199999999999
 20
8.5
 30
0.0
 11
9.7934
 21
8.5
 31
0.0
  0
LINE
  5
7F
330
31
100
AcDbEntity
  8
CDIM
100
AcDbLine
 10
8.7908
 20
8.5
 30
0.0
 11
8.581599999999999
 21
8.5
 31
0.0
  0
SOLID
  5
80
330
31
100
AcDbEntity
  8
CDIM
100
AcDbTrace
 10
9.584199999999999
 20
8.465132999999999
 30
0.0
 11
9.584199999999999
 21
8.534867
 31
0.0
 12
9.375
 22
8.5
 32
0.0
 13
9.375
 23
8.5
 33
0.0
  0
SOLID
  5
81
330
31
100
AcDbEntity
  8
CDIM
100
AcDbTrace
 10
8.7908
 20
8.465132999999999
 30
0.0
 11
8.7908
 21
8.534867
 31
0.0
 12
9.0
 22
8.5
 32
0.0
 13
9.0
 23
8.5
 33
0.0
  0
TEXT
  5
82
330
31
100
AcDbEntity
  8
CDIM
100
AcDbText
 10
10.00259999999999
 20
8.382847999999999
 30
0.0
 40
0.234304
  1
0.38
  7
STR
100
AcDbText
  0
LINE
  5
83
330
31
100
AcDbEntity
  8
CDIM
100
AcDbLine
 10
9.0
 20
8.8954
 30
0.0
 11
9.0
 21
7.663199999999999
 31
0.0
  0
LINE
  5
84
330
31
100
AcDbEntity
  8
CDIM
100
AcDbLine
 10
12.375
 20
9.942275
 30
0.0
 11
12.375
 21
7.663199999999999
 31
0.0
  0
LINE
  5
85
330
31
100
AcDbEntity
  8
CDIM
100
AcDbLine
 10
9.209199999999999
 20
7.872399999999999
 30
0.0
 11
10.12126499999999
 21
7.872399999999999
 31
0.0
  0
LINE
  5
86
330
31
100
AcDbEntity
  8
CDIM
100
AcDbLine
 10
12.1658
 20
7.872399999999999
 30
0.0
 11
11.253735
 21
7.872399999999999
 31
0.0
  0
SOLID
  5
87
330
31
100
AcDbEntity
  8
CDIM
100
AcDbTrace
 10
9.209199999999999
 20
7.837533
 30
0.0
 11
9.209199999999999
 21
7.907267
 31
0.0
 12
9.0
 22
7.872399999999999
 32
0.0
 13
9.0
 23
7.872399999999999
 33
0.0
  0
SOLID
  5
88
330
31
100
AcDbEntity
  8
CDIM
100
AcDbTrace
 10
12.1658
 20
7.837533
 30
0.0
 11
12.1658
 21
7.907267
 31
0.0
 12
12.375
 22
7.872399999999999
 32
0.0
 13
12.375
 23
7.872399999999999
 33
0.0
  0
TEXT
  5
89
330
31
100
AcDbEntity
  8
CDIM
100
AcDbText
 10
10.33046499999999
 20
7.755247999999999
 30
0.0
 40
0.234304
  1
3.38
  7
STR
100
AcDbText
  0
LINE
  5
8A
330
31
100
AcDbEntity
  8
CDIM
100
AcDbLine
 10
9.0
 20
5.3954
 30
0.0
 11
9.0
 21
4.759549999999999
 31
0.0
  0
LINE
  5
8B
330
31
100
AcDbEntity
  8
CDIM
100
AcDbLine
 10
10.12499999999999
 20
5.7079
 30
0.0
 11
10.12499999999999
 21
4.759549999999999
 31
0.0
  0
LINE
  5
8C
330
31
100
AcDbEntity
  8
CDIM
100
AcDbLine
 10
10.3342
 20
4.96875
 30
0.0
 11
10.5434
 21
4.96875
 31
0.0
  0
LINE
  5
8D
330
31
100
AcDbEntity
  8
CDIM
100
AcDbLine
 10
8.7908
 20
4.96875
 30
0.0
 11
8.581599999999999
 21
4.96875
 31
0.0
  0
SOLID
  5
8E
330
31
100
AcDbEntity
  8
CDIM
100
AcDbTrace
 10
10.3342
 20
4.933882999999999
 30
0.0
 11
10.3342
 21
5.003617
 31
0.0
 12
10.12499999999999
 22
4.96875
 32
0.0
 13
10.12499999999999
 23
4.96875
 33
0.0
  0
SOLID
  5
8F
330
31
100
AcDbEntity
  8
CDIM
100
AcDbTrace
 10
8.7908
 20
4.933882999999999
 30
0.0
 11
8.7908
 21
5.003617
 31
0.0
 12
9.0
 22
4.96875
 32
0.0
 13
9.0
 23
4.96875
 33
0.0
  0
TEXT
  5
90
330
31
100
AcDbEntity
  8
CDIM
100
AcDbText
 10
9.252599999999999
 20
4.851598
 30
0.0
 40
0.234304
  1
1.12
  7
STR
100
AcDbText
  0
LINE
  5
91
330
31
100
AcDbEntity
  8
CDIM
100
AcDbLine
 10
9.0
 20
5.3954
 30
0.0
 11
9.0
 21
4.131949999999999
 31
0.0
  0
LINE
  5
92
330
31
100
AcDbEntity
  8
CDIM
100
AcDbLine
 10
11.625
 20
5.6454
 30
0.0
 11
11.625
 21
4.131949999999999
 31
0.0
  0
LINE
  5
93
330
31
100
AcDbEntity
  8
CDIM
100
AcDbLine
 10
9.209199999999999
 20
4.341149999999999
 30
0.0
 11
9.746264999999999
 21
4.341149999999999
 31
0.0
  0
LINE
  5
94
330
31
100
AcDbEntity
  8
CDIM
100
AcDbLine
 10
11.4158
 20
4.341149999999999
 30
0.0
 11
10.878735
 21
4.341149999999999
 31
0.0
  0
SOLID
  5
95
330
31
100
AcDbEntity
  8
CDIM
100
AcDbTrace
 10
9.209199999999999
 20
4.306283
 30
0.0
 11
9.209199999999999
 21
4.376017
 31
0.0
 12
9.0
 22
4.341149999999999
 32
0.0
 13
9.0
 23
4.341149999999999
 33
0.0
  0
SOLID
  5
96
330
31
100
AcDbEntity
  8
CDIM
100
AcDbTrace
 10
11.4158
 20
4.306283
 30
0.0
 11
11.4158
 21
4.376017
 31
0.0
 12
11.625
 22
4.341149999999999
 32
0.0
 13
11.625
 23
4.341149999999999
 33
0.0
  0
TEXT
  5
97
330
31
100
AcDbEntity
  8
CDIM
100
AcDbText
 10
9.955465
 20
4.223997999999999
 30
0.0
 40
0.234304
  1
2.63
  7
STR
100
AcDbText
  0
TEXT
  5
98
330
31
100
AcDbEntity
  8
CDIM
100
AcDbText
 10
9.03125
 20
6.4375
 30
0.0
 40
0.25
  1
OUT
  7
STR
100
AcDbText
  0
TEXT
  5
99
330
31
100
AcDbEntity
  8
CDIM
100
AcDbText
 10
12.28125
 20
6.40625
 30
0.0
 40
0.25
  1
IN
  7
STR
100
AcDbText
  0
LINE
  5
9A
330
31
100
AcDbEntity
  8
CDIM
100
AcDbLine
 10
8.8954
 20
5.5
 30
0.0
 11
7.540799999999999
 21
5.5
 31
0.0
  0
LINE
  5
9B
330
31
100
AcDbEntity
  8
CDIM
100
AcDbLine
 10
8.8954
 20
6.75
 30
0.0
 11
7.540799999999999
 21
6.75
 31
0.0
  0
LINE
  5
9C
330
31
100
AcDbEntity
  8
CDIM
100
AcDbLine
 10
7.75
 20
5.7092
 30
0.0
 11
7.75
 21
5.798648
 31
0.0
  0
LINE
  5
9D
330
31
100
AcDbEntity
  8
CDIM
100
AcDbLine
 10
7.75
 20
6.540799999999999
 30
0.0
 11
7.75
 21
6.451351999999999
 31
0.0
  0
SOLID
  5
9E
330
31
100
AcDbEntity
  8
CDIM
100
AcDbTrace
 10
7.784867
 20
5.7092
 30
0.0
 11
7.715132999999999
 21
5.7092
 31
0.0
 12
7.75
 22
5.5
 32
0.0
 13
7.75
 23
5.5
 33
0.0
  0
SOLID
  5
9F
330
31
100
AcDbEntity
  8
CDIM
100
AcDbTrace
 10
7.784867
 20
6.540799999999999
 30
0.0
 11
7.715132999999999
 21
6.540799999999999
 31
0.0
 12
7.75
 22
6.75
 32
0.0
 13
7.75
 23
6.75
 33
0.0
  0
TEXT
  5
A0
330
31
100
AcDbEntity
  8
CDIM
100
AcDbText
 10
7.35278
 20
6.054723
 30
0.0
 40
0.234304
  1
1.25
  7
STR
100
AcDbText
  0
ENDBLK
  5
A1
330
31
100
AcDbEntity
  8
0
100
AcDbBlockEnd
  0
BLOCK
  5
A2
330
3F
100
AcDbEntity
  8
BORDER
100
AcDbBlockBegin
  2
075SAET
 70
     0
 10
9.0625
 20
4.0625
 30
0.0
  3
075SAET
  1

  0
CIRCLE
  5
A3
330
3F
100
AcDbEntity
  8
CSOLID
100
AcDbCircle
 10
9.0625
 20
4.0625
 30
0.0
 40
0.3439999999999999
  0
CIRCLE
  5
A4
330
3F
100
AcDbEntity
  8
CSOLID
100
AcDbCircle
 10
9.0625
 20
4.0625
 30
0.0
 40
0.3125
  0
CIRCLE
  5
A5
330
3F
100
AcDbEntity
  8
CSOLID
100
AcDbCircle
 10
9.0625
 20
4.0625
 30
0.0
 40
0.594
  0
INSERT
  5
A6
330
3F
100
AcDbEntity
  8
CCENTER
100
AcDbBlockReference
  2
100CROSS
 10
9.0625
 20
4.0625
 30
0.0
 41
1.1
 42
1.1
  0
CIRCLE
  5
A7
330
3F
100
AcDbEntity
  8
CHIDDEN
100
AcDbCircle
 10
9.0625
 20
4.0625
 30
0.0
 40
0.375
  0
ENDBLK
  5
A8
330
3F
100
AcDbEntity
  8
BORDER
100
AcDbBlockEnd
  0
BLOCK
  5
B5
330
46
100
AcDbEntity
  8
CSOLID
100
AcDbBlockBegin
  2
2F02180
 70
     0
 10
7.25
 20
20.625
 30
0.0
  3
2F02180
  1

  0
CIRCLE
  5
B6
330
46
100
AcDbEntity
  8
CSOLID
100
AcDbCircle
 10
7.125
 20
18.3125
 30
0.0
 40
0.1405
  0
INSERT
  5
B7
330
46
100
AcDbEntity
  8
CCENTER
100
AcDbBlockReference
  2
100CROSS
 10
7.125
 20
18.3125
 30
0.0
 41
0.26
 42
0.26
  0
INSERT
  5
B8
330
46
100
AcDbEntity
  8
CCENTER
100
AcDbBlockReference
  2
100CROSS
 10
7.25
 20
20.625
 30
0.0
 41
0.3
 42
0.3
  0
CIRCLE
  5
B9
330
46
100
AcDbEntity
  8
CSOLID
100
AcDbCircle
 10
7.25
 20
20.625
 30
0.0
 40
0.125
  0
INSERT
  5
BA
330
46
100
AcDbEntity
  8
CCENTER
100
AcDbBlockReference
  2
100CROSS
 10
7.25
 20
17.375
 30
0.0
 41
0.3
 42
0.3
  0
CIRCLE
  5
BB
330
46
100
AcDbEntity
  8
CSOLID
100
AcDbCircle
 10
7.25
 20
17.375
 30
0.0
 40
0.125
  0
INSERT
  5
BC
330
46
100
AcDbEntity
  8
CCENTER
100
AcDbBlockReference
  2
100CROSS
 10
10.25
 20
20.625
 30
0.0
 41
0.3
 42
0.3
  0
CIRCLE
  5
BD
330
46
100
AcDbEntity
  8
CSOLID
100
AcDbCircle
 10
10.25
 20
20.625
 30
0.0
 40
0.125
  0
CIRCLE
  5
BE
330
46
100
AcDbEntity
  8
CSOLID
100
AcDbCircle
 10
10.25
 20
17.375
 30
0.0
 40
0.125
  0
INSERT
  5
BF
330
46
100
AcDbEntity
  8
CCENTER
100
AcDbBlockReference
  2
100CROSS
 10
10.25
 20
17.375
 30
0.0
 41
0.3
 42
0.3
  0
CIRCLE
  5
C0
330
46
100
AcDbEntity
  8
CSOLID
100
AcDbCircle
 10
8.125
 20
17.8125
 30
0.0
 40
0.28125
  0
INSERT
  5
C1
330
46
100
AcDbEntity
  8
CCENTER
100
AcDbBlockReference
  2
100CROSS
 10
8.125
 20
17.8125
 30
0.0
 41
0.5
 42
0.5
  0
INSERT
  5
C2
330
46
100
AcDbEntity
  8
CCENTER
100
AcDbBlockReference
  2
100CROSS
 10
9.875
 20
19.4375
 30
0.0
 41
0.5
 42
0.5
  0
CIRCLE
  5
C3
330
46
100
AcDbEntity
  8
CSOLID
100
AcDbCircle
 10
9.875
 20
19.4375
 30
0.0
 40
0.28125
  0
CIRCLE
  5
C4
330
46
100
AcDbEntity
  8
CHIDDEN
100
AcDbCircle
 10
7.25
 20
17.375
 30
0.0
 40
0.15625
  0
CIRCLE
  5
C5
330
46
100
AcDbEntity
  8
CHIDDEN
100
AcDbCircle
 10
7.25
 20
20.625
 30
0.0
 40
0.15625
  0
CIRCLE
  5
C6
330
46
100
AcDbEntity
  8
CHIDDEN
100
AcDbCircle
 10
10.25
 20
17.375
 30
0.0
 40
0.15625
  0
CIRCLE
  5
C7
330
46
100
AcDbEntity
  8
CHIDDEN
100
AcDbCircle
 10
10.25
 20
20.625
 30
0.0
 40
0.15625
  0
ENDBLK
  5
C8
330
46
100
AcDbEntity
  8
CSOLID
100
AcDbBlockEnd
  0
BLOCK
  5
A9
330
48
100
AcDbEntity
  8
CHIDDEN
100
AcDbBlockBegin
  2
100CROSS
 70
     0
 10
5.625
 20
4.59375
 30
0.0
  3
100CROSS
  1

  0
INSERT
  5
AB
330
48
100
AcDbEntity
  8
0
100
AcDbBlockReference
  2
050CROSS
 10
5.625
 20
4.59375
 30
0.0
  0
ENDBLK
  5
AC
330
48
100
AcDbEntity
  8
0
100
AcDbBlockEnd
  0
BLOCK
  5
AD
330
AA
100
AcDbEntity
  8
0
100
AcDbBlockBegin
  2
050CROSS
 70
     0
 10
5.0
 20
5.0
 30
0.0
  3
050CROSS
  1

  0
LINE
  5
AE
330
AA
100
AcDbEntity
  8
0
100
AcDbLine
 10
5.0
 20
5.28125
 30
0.0
 11
5.0
 21
5.78125
 31
0.0
  0
LINE
  5
AF
330
AA
100
AcDbEntity
  8
0
100
AcDbLine
 10
5.0
 20
4.875
 30
0.0
 11
5.0
 21
5.125
 31
0.0
  0
LINE
  5
B0
330
AA
100
AcDbEntity
  8
0
100
AcDbLine
 10
5.0
 20
4.15625
 30
0.0
 11
5.0
 21
4.71875
 31
0.0
  0
LINE
  5
B1
330
AA
100
AcDbEntity
  8
0
100
AcDbLine
 10
5.25
 20
5.0
 30
0.0
 11
5.8125
 21
5.0
 31
0.0
  0
LINE
  5
B2
330
AA
100
AcDbEntity
  8
0
100
AcDbLine
 10
4.90625
 20
5.0
 30
0.0
 11
5.09375
 21
5.0
 31
0.0
  0
LINE
  5
B3
330
AA
100
AcDbEntity
  8
0
100
AcDbLine
 10
4.1875
 20
5.0
 30
0.0
 11
4.75
 21
5.0
 31
0.0
  0
ENDBLK
  5
B4
330
AA
100
AcDbEntity
  8
0
100
AcDbBlockEnd
  0
BLOCK
  5
CA
330
C9
100
AcDbEntity
  8
0
100
AcDbBlockBegin
  2
038NPTFT
 70
     0
 10
0.0
 20
0.0
 30
0.0
  3
038NPTFT
  1

  0
INSERT
  5
CC
330
C9
100
AcDbEntity
  8
DAMAN
100
AcDbBlockReference
  2
375NPTFT
 10
0.0
 20
0.0
 30
0.0
  0
ENDBLK
  5
CD
330
C9
100
AcDbEntity
  8
0
100
AcDbBlockEnd
  0
BLOCK
  5
CE
330
CB
100
AcDbEntity
  8
0
100
AcDbBlockBegin
  2
375NPTFT
 70
     0
 10
0.0
 20
0.0
 30
0.0
  3
375NPTFT
  1

  0
INSERT
  5
CF
330
CB
100
AcDbEntity
  8
DAMAN
100
AcDbBlockReference
  2
100CROSS
 10
0.0
 20
0.0
 30
0.0
 41
0.6800000000000001
 42
0.6800000000000001
  0
CIRCLE
  5
D0
330
CB
100
AcDbEntity
  8
DAMAN
100
AcDbCircle
 10
0.0
 20
0.0
 30
0.0
 40
0.3125
  0
CIRCLE
  5
D1
330
CB
100
AcDbEntity
  8
DAMAN
100
AcDbCircle
 10
0.0
 20
0.0
 30
0.0
 40
0.281
  0
CIRCLE
  5
D2
330
CB
100
AcDbEntity
  8
DAMAN
100
AcDbCircle
 10
0.0
 20
0.0
 30
0.0
 40
0.3439999999999999
  0
ENDBLK
  5
D3
330
CB
100
AcDbEntity
  8
0
100
AcDbBlockEnd
  0
BLOCK
  5
D5
330
D4
100
AcDbEntity
  8
0
100
AcDbBlockBegin
  2
050NPTFT
 70
     0
 10
0.0
 20
0.0
 30
0.0
  3
050NPTFT
  1

  0
INSERT
  5
D7
330
D4
100
AcDbEntity
  8
DAMAN
100
AcDbBlockReference
  2
500NPTFT
 10
0.0
 20
0.0
 30
0.0
  0
ENDBLK
  5
D8
330
D4
100
AcDbEntity
  8
0
100
AcDbBlockEnd
  0
BLOCK
  5
D9
330
D6
100
AcDbEntity
  8
0
100
AcDbBlockBegin
  2
500NPTFT
 70
     0
 10
0.0
 20
0.0
 30
0.0
  3
500NPTFT
  1

  0
INSERT
  5
DA
330
D6
100
AcDbEntity
  8
DAMAN
 62
     5
100
AcDbBlockReference
  2
100CROSS
 10
0.0
 20
0.0
 30
0.0
 41
0.84
 42
0.84
  0
CIRCLE
  5
DB
330
D6
100
AcDbEntity
  8
DAMAN
 62
     5
100
AcDbCircle
 10
0.0
 20
0.0
 30
0.0
 40
0.384627
  0
CIRCLE
  5
DC
330
D6
100
AcDbEntity
  8
DAMAN
 62
     5
100
AcDbCircle
 10
0.0
 20
0.0
 30
0.0
 40
0.3439999999999999
  0
CIRCLE
  5
DD
330
D6
100
AcDbEntity
  8
DAMAN
 62
     5
100
AcDbCircle
 10
0.0
 20
0.0
 30
0.0
 40
0.4295
  0
ENDBLK
  5
DE
330
D6
100
AcDbEntity
  8
0
100
AcDbBlockEnd
  0
ENDSEC
  0
SECTION
  2
ENTITIES
  0
LWPOLYLINE
  5
DF
330
1E
100
AcDbEntity
  8
DAMAN
100
AcDbPolyline
 90
        4
 70
     1
 43
0.0
 10
10.46875
 20
10.15625
 10
10.46875
 20
14.15625
 10
14.21875
 20
14.15625
 10
14.21875
 20
10.15625
  0
LWPOLYLINE
  5
E5
330
1E
100
AcDbEntity
  8
DAMAN
100
AcDbPolyline
 90
        4
 70
     1
 43
0.0
 10
10.46875
 20
7.65625
 10
10.46875
 20
8.90625
 10
14.21875
 20
8.90625
 10
14.21875
 20
7.65625
  0
CIRCLE
  5
EB
330
1E
100
AcDbEntity
  8
DAMAN
100
AcDbCircle
 10
10.84375
 20
12.90625
 30
0.0
 40
0.28125
  0
CIRCLE
  5
EC
330
1E
100
AcDbEntity
  8
DAMAN
100
AcDbCircle
 10
10.84375
 20
12.90625
 30
0.0
 40
0.203125
  0
CIRCLE
  5
ED
330
1E
100
AcDbEntity
  8
DAMAN
100
AcDbCircle
 10
13.84375
 20
11.40625
 30
0.0
 40
0.203125
  0
CIRCLE
  5
EE
330
1E
100
AcDbEntity
  8
DAMAN
100
AcDbCircle
 10
13.84375
 20
11.40625
 30
0.0
 40
0.28125
  0
INSERT
  5
EF
330
1E
100
AcDbEntity
  8
DAMAN
100
AcDbBlockReference
  2
100CROSS
 10
10.84375
 20
12.90625
 30
0.0
 41
0.5625
 42
0.5625
 43
0.5625
  0
INSERT
  5
F0
330
1E
100
AcDbEntity
  8
DAMAN
100
AcDbBlockReference
  2
100CROSS
 10
13.84375
 20
11.40625
 30
0.0
 41
0.5625
 42
0.5625
 43
0.5625
  0
TEXT
  5
F1
330
1E
100
AcDbEntity
  8
DAMAN
100
AcDbText
 10
10.5
 20
8.59375
 30
0.0
 40
0.25
  1
OUT
  7
STR
100
AcDbText
  0
TEXT
  5
F2
330
1E
100
AcDbEntity
  8
DAMAN
100
AcDbText
 10
13.75
 20
8.5625
 30
0.0
 40
0.25
  1
IN
  7
STR
100
AcDbText
  0
CIRCLE
  5
F3
330
1E
100
AcDbEntity
  8
DAMAN
100
AcDbCircle
 10
13.96875
 20
12.84375
 30
0.0
 40
0.1405
  0
INSERT
  5
F4
330
1E
100
AcDbEntity
  8
DAMAN
100
AcDbBlockReference
  2
100CROSS
 10
13.96875
 20
12.84375
 30
0.0
 41
0.26
 42
0.26
 50
180.0
  0
INSERT
  5
F5
330
1E
100
AcDbEntity
  8
DAMAN
100
AcDbBlockReference
  2
100CROSS
 10
13.84375
 20
10.53125
 30
0.0
 41
0.3
 42
0.3
 50
180.0
  0
CIRCLE
  5
F6
330
1E
100
AcDbEntity
  8
DAMAN
100
AcDbCircle
 10
13.84375
 20
10.53125
 30
0.0
 40
0.125
  0
INSERT
  5
F7
330
1E
100
AcDbEntity
  8
DAMAN
100
AcDbBlockReference
  2
100CROSS
 10
13.84375
 20
13.78125
 30
0.0
 41
0.3
 42
0.3
 50
180.0
  0
CIRCLE
  5
F8
330
1E
100
AcDbEntity
  8
DAMAN
100
AcDbCircle
 10
13.84375
 20
13.78125
 30
0.0
 40
0.125
  0
INSERT
  5
F9
330
1E
100
AcDbEntity
  8
DAMAN
100
AcDbBlockReference
  2
100CROSS
 10
10.84375
 20
10.53125
 30
0.0
 41
0.3
 42
0.3
 50
180.0
  0
CIRCLE
  5
FA
330
1E
100
AcDbEntity
  8
DAMAN
100
AcDbCircle
 10
10.84375
 20
10.53125
 30
0.0
 40
0.125
  0
CIRCLE
  5
FB
330
1E
100
AcDbEntity
  8
DAMAN
100
AcDbCircle
 10
10.84375
 20
13.78125
 30
0.0
 40
0.125
  0
INSERT
  5
FC
330
1E
100
AcDbEntity
  8
DAMAN
100
AcDbBlockReference
  2
100CROSS
 10
10.84375
 20
13.78125
 30
0.0
 41
0.3
 42
0.3
 50
180.0
  0
CIRCLE
  5
FD
330
1E
100
AcDbEntity
  8
DAMAN
100
AcDbCircle
 10
12.96875
 20
13.34375
 30
0.0
 40
0.28125
  0
INSERT
  5
FE
330
1E
100
AcDbEntity
  8
DAMAN
100
AcDbBlockReference
  2
100CROSS
 10
12.96875
 20
13.34375
 30
0.0
 41
0.5
 42
0.5
 50
180.0
  0
INSERT
  5
FF
330
1E
100
AcDbEntity
  8
DAMAN
100
AcDbBlockReference
  2
100CROSS
 10
11.21874999999999
 20
11.71875
 30
0.0
 41
0.5
 42
0.5
 50
180.0
  0
CIRCLE
  5
100
330
1E
100
AcDbEntity
  8
DAMAN
100
AcDbCircle
 10
11.21874999999999
 20
11.71875
 30
0.0
 40
0.28125
  0
CIRCLE
  5
101
330
1E
100
AcDbEntity
  8
DAMAN
100
AcDbCircle
 10
13.84375
 20
13.78125
 30
0.0
 40
0.15625
  0
CIRCLE
  5
102
330
1E
100
AcDbEntity
  8
DAMAN
100
AcDbCircle
 10
13.84375
 20
10.53125
 30
0.0
 40
0.15625
  0
CIRCLE
  5
103
330
1E
100
AcDbEntity
  8
DAMAN
100
AcDbCircle
 10
10.84375
 20
13.78125
 30
0.0
 40
0.15625
  0
CIRCLE
  5
104
330
1E
100
AcDbEntity
  8
DAMAN
100
AcDbCircle
 10
10.84375
 20
10.53125
 30
0.0
 40
0.15625
  0
LWPOLYLINE
  5
105
330
1E
100
AcDbEntity
  8
DAMAN
100
AcDbPolyline
 90
        4
 70
     1
 43
0.0
 10
8.34375
 20
14.15625
 10
9.59375
 20
14.15625
 10
9.59375
 20
10.15625
 10
8.34375
 20
10.15625
  0
TEXT
  5
10B
330
1E
100
AcDbEntity
  8
DAMAN
100
AcDbText
 10
9.100480070675679
 20
12.89157280376094
 30
0.0
 40
0.188
  1
DAMAN ****
 50
270.0
100
AcDbText
  0
LWPOLYLINE
  5
10C
330
1E
100
AcDbEntity
  8
DAMAN
100
AcDbPolyline
 90
        4
 70
     1
 43
0.0
 10
16.34375
 20
14.15625
 10
15.09375
 20
14.15625
 10
15.09375
 20
10.15625
 10
16.34375
 20
10.15625
  0
INSERT
  5
112
330
1E
100
AcDbEntity
  8
DAMAN
100
AcDbBlockReference
  2
050NPTFT
 10
11.59375
 20
8.28125
 30
0.0
  0
INSERT
  5
113
330
1E
100
AcDbEntity
  8
DAMAN
100
AcDbBlockReference
  2
050NPTFT
 10
13.09375
 20
8.28125
 30
0.0
  0
ENDSEC
  0
SECTION
  2
OBJECTS
  0
DICTIONARY
  5
C
330
0
100
AcDbDictionary
  3
ACAD_GROUP
350
D
  3
ACAD_LAYOUT
350
19
  3
ACAD_MLINESTYLE
350
16
  3
ACAD_PLOTSETTINGS
350
18
  3
ACAD_PLOTSTYLENAME
350
E
  3
ACDBHEADERROUNDTRIPXREC
350
117
  0
DICTIONARY
  5
139
330
1E
100
AcDbDictionary
280
     1
  3
ACAD_LAYOUTSELFREF
360
13A
  0
DICTIONARY
  5
137
330
1A
100
AcDbDictionary
280
     1
  3
ACAD_LAYOUTSELFREF
360
138
  0
DICTIONARY
  5
D
102
{ACAD_REACTORS
330
C
102
}
330
C
100
AcDbDictionary
  0
DICTIONARY
  5
19
102
{ACAD_REACTORS
330
C
102
}
330
C
100
AcDbDictionary
  0
DICTIONARY
  5
16
102
{ACAD_REACTORS
330
C
102
}
330
C
100
AcDbDictionary
  3
STANDARD
350
17
  0
DICTIONARY
  5
18
102
{ACAD_REACTORS
330
C
102
}
330
C
100
AcDbDictionary
  0
ACDBDICTIONARYWDFLT
  5
E
102
{ACAD_REACTORS
330
C
102
}
330
C
100
AcDbDictionary
281
     1
  3
Normal
350
F
100
AcDbDictionaryWithDefault
340
F
  0
DICTIONARY
  5
117
102
{ACAD_REACTORS
330
C
102
}
330
C
100
AcDbDictionary
  3
CEPSNTYPE
350
121
  3
FINGERPRINTGUID
350
122
  3
HYPERLINKBASE
350
11A
  3
INSUNITS
350
120
  3
LAYOUTDICT
350
11C
  3
LWETCUNION
350
11F
  3
PLOTSETDICT
350
11D
  3
PLOTSTYLNAMDICT
350
11E
  3
PSVPSCALE
350
124
  3
PUCSBASE
350
127
  3
PUCSORGBACK
350
12D
  3
PUCSORGBOTTOM
350
129
  3
PUCSORGFRONT
350
12C
  3
PUCSORGLEFT
350
12A
  3
PUCSORGRIGHT
350
12B
  3
PUCSORGTOP
350
128
  3
PUCSORTHOREF
350
125
  3
PUCSORTHOVIEW
350
126
  3
STYLESHEET
350
11B
  3
TSTACKALIGN
350
118
  3
TSTACKSIZE
350
119
  3
UCSBASE
350
130
  3
UCSORGBACK
350
136
  3
UCSORGBOTTOM
350
132
  3
UCSORGFRONT
350
135
  3
UCSORGLEFT
350
133
  3
UCSORGRIGHT
350
134
  3
UCSORGTOP
350
131
  3
UCSORTHOREF
350
12E
  3
UCSORTHOVIEW
350
12F
  3
VERSIONGUID
350
123
  0
XRECORD
  5
13A
102
{ACAD_REACTORS
330
139
102
}
330
139
100
AcDbXrecord
340
1E
  0
XRECORD
  5
138
102
{ACAD_REACTORS
330
137
102
}
330
137
100
AcDbXrecord
340
1A
  0
MLINESTYLE
  5
17
102
{ACAD_REACTORS
330
16
102
}
330
16
100
AcDbMlineStyle
  2
STANDARD
 70
     0
  3

 62
   256
 51
90.0
 52
90.0
 71
     2
 49
0.5
 62
   256
  6
BYLAYER
 49
-0.5
 62
   256
  6
BYLAYER
  0
ACDBPLACEHOLDER
  5
F
102
{ACAD_REACTORS
330
E
102
}
330
E
100
AcDbPlaceHolder
280
     0
  0
XRECORD
  5
121
102
{ACAD_REACTORS
330
117
102
}
330
117
100
AcDbXrecord
 90
        0
  0
XRECORD
  5
122
102
{ACAD_REACTORS
330
117
102
}
330
117
100
AcDbXrecord
  1
{30B51840-C308-4082-9810-895E927E5826}
  0
XRECORD
  5
11A
102
{ACAD_REACTORS
330
117
102
}
330
117
100
AcDbXrecord
  1

  0
XRECORD
  5
120
102
{ACAD_REACTORS
330
117
102
}
330
117
100
AcDbXrecord
 90
        0
  0
XRECORD
  5
11C
102
{ACAD_REACTORS
330
117
102
}
330
117
100
AcDbXrecord
340
19
  0
XRECORD
  5
11F
102
{ACAD_REACTORS
330
117
102
}
330
117
100
AcDbXrecord
 90
    10781
  0
XRECORD
  5
11D
102
{ACAD_REACTORS
330
117
102
}
330
117
100
AcDbXrecord
340
18
  0
XRECORD
  5
11E
102
{ACAD_REACTORS
330
117
102
}
330
117
100
AcDbXrecord
340
E
  0
XRECORD
  5
124
102
{ACAD_REACTORS
330
117
102
}
330
117
100
AcDbXrecord
 40
0.0
  0
XRECORD
  5
127
102
{ACAD_REACTORS
330
117
102
}
330
117
100
AcDbXrecord
340
0
  0
XRECORD
  5
12D
102
{ACAD_REACTORS
330
117
102
}
330
117
100
AcDbXrecord
 10
0.0
 20
0.0
 30
0.0
  0
XRECORD
  5
129
102
{ACAD_REACTORS
330
117
102
}
330
117
100
AcDbXrecord
 10
0.0
 20
0.0
 30
0.0
  0
XRECORD
  5
12C
102
{ACAD_REACTORS
330
117
102
}
330
117
100
AcDbXrecord
 10
0.0
 20
0.0
 30
0.0
  0
XRECORD
  5
12A
102
{ACAD_REACTORS
330
117
102
}
330
117
100
AcDbXrecord
 10
0.0
 20
0.0
 30
0.0
  0
XRECORD
  5
12B
102
{ACAD_REACTORS
330
117
102
}
330
117
100
AcDbXrecord
 10
0.0
 20
0.0
 30
0.0
  0
XRECORD
  5
128
102
{ACAD_REACTORS
330
117
102
}
330
117
100
AcDbXrecord
 10
0.0
 20
0.0
 30
0.0
  0
XRECORD
  5
125
102
{ACAD_REACTORS
330
117
102
}
330
117
100
AcDbXrecord
340
0
  0
XRECORD
  5
126
102
{ACAD_REACTORS
330
117
102
}
330
117
100
AcDbXrecord
 70
     0
  0
XRECORD
  5
11B
102
{ACAD_REACTORS
330
117
102
}
330
117
100
AcDbXrecord
  1

  0
XRECORD
  5
118
102
{ACAD_REACTORS
330
117
102
}
330
117
100
AcDbXrecord
 90
        1
  0
XRECORD
  5
119
102
{ACAD_REACTORS
330
117
102
}
330
117
100
AcDbXrecord
 90
       70
  0
XRECORD
  5
130
102
{ACAD_REACTORS
330
117
102
}
330
117
100
AcDbXrecord
340
0
  0
XRECORD
  5
136
102
{ACAD_REACTORS
330
117
102
}
330
117
100
AcDbXrecord
 10
0.0
 20
0.0
 30
0.0
  0
XRECORD
  5
132
102
{ACAD_REACTORS
330
117
102
}
330
117
100
AcDbXrecord
 10
0.0
 20
0.0
 30
0.0
  0
XRECORD
  5
135
102
{ACAD_REACTORS
330
117
102
}
330
117
100
AcDbXrecord
 10
0.0
 20
0.0
 30
0.0
  0
XRECORD
  5
133
102
{ACAD_REACTORS
330
117
102
}
330
117
100
AcDbXrecord
 10
0.0
 20
0.0
 30
0.0
  0
XRECORD
  5
134
102
{ACAD_REACTORS
330
117
102
}
330
117
100
AcDbXrecord
 10
0.0
 20
0.0
 30
0.0
  0
XRECORD
  5
131
102
{ACAD_REACTORS
330
117
102
}
330
117
100
AcDbXrecord
 10
0.0
 20
0.0
 30
0.0
  0
XRECORD
  5
12E
102
{ACAD_REACTORS
330
117
102
}
330
117
100
AcDbXrecord
340
0
  0
XRECORD
  5
12F
102
{ACAD_REACTORS
330
117
102
}
330
117
100
AcDbXrecord
 70
     0
  0
XRECORD
  5
123
102
{ACAD_REACTORS
330
117
102
}
330
117
100
AcDbXrecord
  1
{E6D696C6-4053-412B-B042-FFFD34A9142B}
  0
ENDSEC
  0
EOF
